ISO-10303-21;
HEADER;
FILE_DESCRIPTION (( 'STEP AP203' ),
    '1' );
FILE_NAME ('99d4.STEP',
    '2022-06-20T09:35:37',
    ( '' ),
    ( '' ),
    'SwSTEP 2.0',
    'SolidWorks 2019',
    '' );
FILE_SCHEMA (( 'CONFIG_CONTROL_DESIGN' ));
ENDSEC;

DATA;
#1 = CARTESIAN_POINT ( 'NONE',  ( 0.000000000000000000, 0.000000000000000000, 5.200000000000009948 ) ) ;
#2 = APPROVAL_PERSON_ORGANIZATION ( #208, #47, #38 ) ;
#3 = DIRECTION ( 'NONE',  ( -0.000000000000000000, -0.000000000000000000, -1.000000000000000000 ) ) ;
#4 = CC_DESIGN_PERSON_AND_ORGANIZATION_ASSIGNMENT ( #82, #55, ( #191 ) ) ;
#5 = FACE_OUTER_BOUND ( 'NONE', #233, .T. ) ;
#6 = DIRECTION ( 'NONE',  ( -0.000000000000000000, -0.000000000000000000, -1.000000000000000000 ) ) ;
#7 = PRODUCT_DEFINITION_FORMATION_WITH_SPECIFIED_SOURCE ( 'LIBOVOLNÝ', '', #92, .NOT_KNOWN. ) ;
#8 = VERTEX_POINT ( 'NONE', #274 ) ;
#9 = ADVANCED_FACE ( 'NONE', ( #204 ), #301, .T. ) ;
#10 = CALENDAR_DATE ( 2022, 20, 6 ) ;
#11 = PERSON_AND_ORGANIZATION ( #155, #249 ) ;
#12 = ORIENTED_EDGE ( 'NONE', *, *, #235, .T. ) ;
#13 = TOROIDAL_SURFACE ( 'NONE', #44, 5.699999999999999289, 0.2000000000000000111 ) ;
#14 = DATE_AND_TIME ( #130, #287 ) ;
#15 = CARTESIAN_POINT ( 'NONE',  ( 0.000000000000000000, 0.000000000000000000, 0.000000000000000000 ) ) ;
#16 = ORIENTED_EDGE ( 'NONE', *, *, #17, .T. ) ;
#17 = EDGE_CURVE ( 'NONE', #296, #52, #205, .T. ) ;
#18 = EDGE_LOOP ( 'NONE', ( #80, #102, #117, #35 ) ) ;
#19 = ORIENTED_EDGE ( 'NONE', *, *, #111, .T. ) ;
#20 = CARTESIAN_POINT ( 'NONE',  ( 8.000000000000000000, 9.797174393178825657E-16, 5.000000000000000000 ) ) ;
#21 = AXIS2_PLACEMENT_3D ( 'NONE', #51, #6, #294 ) ;
#22 = DIRECTION ( 'NONE',  ( 0.000000000000000000, 0.000000000000000000, 1.000000000000000000 ) ) ;
#23 = CARTESIAN_POINT ( 'NONE',  ( 0.000000000000000000, 0.000000000000000000, 255.0000000000000000 ) ) ;
#24 = MANIFOLD_SOLID_BREP ( 'Zaoblit1', #131 ) ;
#25 = DIRECTION ( 'NONE',  ( 0.000000000000000000, 0.000000000000000000, 1.000000000000000000 ) ) ;
#26 = LINE ( 'NONE', #192, #72 ) ;
#27 = DIRECTION ( 'NONE',  ( -1.000000000000000000, 0.000000000000000000, 0.000000000000000000 ) ) ;
#28 = SECURITY_CLASSIFICATION_LEVEL ( 'unclassified' ) ;
#29 = EDGE_CURVE ( 'NONE', #198, #8, #256, .T. ) ;
#30 = PERSON_AND_ORGANIZATION_ROLE ( 'design_owner' ) ;
#31 = ORIENTED_EDGE ( 'NONE', *, *, #75, .F. ) ;
#32 = DIRECTION ( 'NONE',  ( 0.000000000000000000, 0.000000000000000000, 1.000000000000000000 ) ) ;
#33 = ADVANCED_FACE ( 'NONE', ( #213 ), #134, .T. ) ;
#34 = AXIS2_PLACEMENT_3D ( 'NONE', #15, #85, #87 ) ;
#35 = ORIENTED_EDGE ( 'NONE', *, *, #133, .F. ) ;
#36 = ORIENTED_EDGE ( 'NONE', *, *, #250, .F. ) ;
#37 = VERTEX_POINT ( 'NONE', #70 ) ;
#38 = APPROVAL_ROLE ( '' ) ;
#39 = CARTESIAN_POINT ( 'NONE',  ( 0.000000000000000000, 0.000000000000000000, 0.000000000000000000 ) ) ;
#40 = CC_DESIGN_SECURITY_CLASSIFICATION ( #95, ( #7 ) ) ;
#41 = DIRECTION ( 'NONE',  ( 0.000000000000000000, 0.000000000000000000, -1.000000000000000000 ) ) ;
#42 = EDGE_LOOP ( 'NONE', ( #210, #184 ) ) ;
#43 = DIRECTION ( 'NONE',  ( 0.000000000000000000, 0.000000000000000000, 1.000000000000000000 ) ) ;
#44 = AXIS2_PLACEMENT_3D ( 'NONE', #91, #119, #46 ) ;
#45 = FACE_OUTER_BOUND ( 'NONE', #158, .T. ) ;
#46 = DIRECTION ( 'NONE',  ( 1.000000000000000000, 0.000000000000000000, 0.000000000000000000 ) ) ;
#47 = APPROVAL ( #64, 'NEURÈENÝ' ) ;
#48 = CARTESIAN_POINT ( 'NONE',  ( -5.699999999999999289, 6.980486755139912122E-16, 5.000000000000005329 ) ) ;
#49 = DIRECTION ( 'NONE',  ( 0.000000000000000000, 0.000000000000000000, 1.000000000000000000 ) ) ;
#50 = PERSON_AND_ORGANIZATION ( #155, #249 ) ;
#51 = CARTESIAN_POINT ( 'NONE',  ( 0.000000000000000000, 0.000000000000000000, 5.000000000000000000 ) ) ;
#52 = VERTEX_POINT ( 'NONE', #229 ) ;
#53 = PERSON_AND_ORGANIZATION_ROLE ( 'classification_officer' ) ;
#54 = AXIS2_PLACEMENT_3D ( 'NONE', #23, #262, #27 ) ;
#55 = PERSON_AND_ORGANIZATION_ROLE ( 'creator' ) ;
#56 = ADVANCED_FACE ( 'NONE', ( #207 ), #271, .F. ) ;
#57 = AXIS2_PLACEMENT_3D ( 'NONE', #39, #139, #261 ) ;
#58 = ORIENTED_EDGE ( 'NONE', *, *, #105, .F. ) ;
#59 = AXIS2_PLACEMENT_3D ( 'NONE', #127, #32, #171 ) ;
#60 = AXIS2_PLACEMENT_3D ( 'NONE', #257, #43, #141 ) ;
#61 = APPROVAL_DATE_TIME ( #252, #47 ) ;
#62 = ORIENTED_EDGE ( 'NONE', *, *, #235, .F. ) ;
#63 = EDGE_CURVE ( 'NONE', #291, #163, #212, .T. ) ;
#64 = APPROVAL_STATUS ( 'not_yet_approved' ) ;
#65 = DIRECTION ( 'NONE',  ( 1.000000000000000000, 0.000000000000000000, 0.000000000000000000 ) ) ;
#66 = ORIENTED_EDGE ( 'NONE', *, *, #295, .T. ) ;
#67 = LOCAL_TIME ( 11, 35, 37.00000000000000000, #136 ) ;
#68 = EDGE_LOOP ( 'NONE', ( #36, #129 ) ) ;
#69 = PRODUCT_DEFINITION_SHAPE ( 'NONE', 'NONE',  #191 ) ;
#70 = CARTESIAN_POINT ( 'NONE',  ( 5.699999999999999289, 0.000000000000000000, 5.000000000000005329 ) ) ;
#71 = DIRECTION ( 'NONE',  ( 1.000000000000000000, 0.000000000000000000, 0.000000000000000000 ) ) ;
#72 = VECTOR ( 'NONE', #215, 1000.000000000000000 ) ;
#73 =( GEOMETRIC_REPRESENTATION_CONTEXT ( 3 ) GLOBAL_UNCERTAINTY_ASSIGNED_CONTEXT ( ( #173 ) ) GLOBAL_UNIT_ASSIGNED_CONTEXT ( ( #151, #264, #177 ) ) REPRESENTATION_CONTEXT ( 'NONE', 'WORKASPACE' ) );
#74 = CYLINDRICAL_SURFACE ( 'NONE', #114, 5.500000000000000000 ) ;
#75 = EDGE_CURVE ( 'NONE', #296, #37, #248, .T. ) ;
#76 = LINE ( 'NONE', #146, #300 ) ;
#77 = DIRECTION ( 'NONE',  ( 0.000000000000000000, 0.000000000000000000, 1.000000000000000000 ) ) ;
#78 = EDGE_CURVE ( 'NONE', #8, #113, #194, .T. ) ;
#79 = CARTESIAN_POINT ( 'NONE',  ( 0.000000000000000000, 0.000000000000000000, 5.000000000000000000 ) ) ;
#80 = ORIENTED_EDGE ( 'NONE', *, *, #120, .F. ) ;
#81 = DATE_AND_TIME ( #228, #245 ) ;
#82 = PERSON_AND_ORGANIZATION ( #155, #249 ) ;
#83 = CARTESIAN_POINT ( 'NONE',  ( -5.500000000000000000, 0.000000000000000000, 255.0000000000000000 ) ) ;
#84 = ADVANCED_FACE ( 'NONE', ( #219 ), #236, .F. ) ;
#85 = DIRECTION ( 'NONE',  ( 0.000000000000000000, 0.000000000000000000, 1.000000000000000000 ) ) ;
#86 = CIRCLE ( 'NONE', #124, 8.000000000000000000 ) ;
#87 = DIRECTION ( 'NONE',  ( 1.000000000000000000, 0.000000000000000000, -0.000000000000000000 ) ) ;
#88 = DIRECTION ( 'NONE',  ( 0.000000000000000000, 0.000000000000000000, 1.000000000000000000 ) ) ;
#89 = ORIENTED_EDGE ( 'NONE', *, *, #111, .F. ) ;
#90 = CARTESIAN_POINT ( 'NONE',  ( 0.000000000000000000, 0.000000000000000000, 5.200000000000009948 ) ) ;
#91 = CARTESIAN_POINT ( 'NONE',  ( 0.000000000000000000, 0.000000000000000000, 5.200000000000009948 ) ) ;
#92 = PRODUCT ( '99d4', '99d4', '', ( #104 ) ) ;
#93 = DIRECTION ( 'NONE',  ( 1.000000000000000000, 0.000000000000000000, 0.000000000000000000 ) ) ;
#94 = EDGE_CURVE ( 'NONE', #163, #296, #26, .T. ) ;
#95 = SECURITY_CLASSIFICATION ( '', '', #28 ) ;
#96 = CARTESIAN_POINT ( 'NONE',  ( -5.699999999999999289, 6.980486755139912122E-16, 5.200000000000009948 ) ) ;
#97 = DIRECTION ( 'NONE',  ( -1.000000000000000000, 1.224646799147353454E-16, 0.000000000000000000 ) ) ;
#98 = CC_DESIGN_DATE_AND_TIME_ASSIGNMENT ( #181, #297, ( #95 ) ) ;
#99 = DIRECTION ( 'NONE',  ( 1.000000000000000000, 0.000000000000000000, 0.000000000000000000 ) ) ;
#100 = AXIS2_PLACEMENT_3D ( 'NONE', #90, #302, #65 ) ;
#101 = LOCAL_TIME ( 11, 35, 37.00000000000000000, #128 ) ;
#102 = ORIENTED_EDGE ( 'NONE', *, *, #17, .F. ) ;
#103 = DATE_TIME_ROLE ( 'creation_date' ) ;
#104 = MECHANICAL_CONTEXT ( 'NONE', #110, 'mechanical' ) ;
#105 = EDGE_CURVE ( 'NONE', #198, #224, #218, .T. ) ;
#106 = COORDINATED_UNIVERSAL_TIME_OFFSET ( 1, 0, .AHEAD. ) ;
#107 = EDGE_LOOP ( 'NONE', ( #19, #137 ) ) ;
#108 = APPROVAL_DATE_TIME ( #81, #211 ) ;
#109 = EDGE_LOOP ( 'NONE', ( #162, #140, #12, #66 ) ) ;
#110 = APPLICATION_CONTEXT ( 'configuration controlled 3d designs of mechanical parts and assemblies' ) ;
#111 = EDGE_CURVE ( 'NONE', #224, #198, #231, .T. ) ;
#112 = DIRECTION ( 'NONE',  ( -0.000000000000000000, -0.000000000000000000, -1.000000000000000000 ) ) ;
#113 = VERTEX_POINT ( 'NONE', #214 ) ;
#114 = AXIS2_PLACEMENT_3D ( 'NONE', #279, #121, #282 ) ;
#115 = ORIENTED_EDGE ( 'NONE', *, *, #280, .T. ) ;
#116 = EDGE_LOOP ( 'NONE', ( #179, #89, #152, #306 ) ) ;
#117 = ORIENTED_EDGE ( 'NONE', *, *, #75, .T. ) ;
#118 = APPROVAL_PERSON_ORGANIZATION ( #290, #206, #200 ) ;
#119 = DIRECTION ( 'NONE',  ( 0.000000000000000000, 0.000000000000000000, 1.000000000000000000 ) ) ;
#120 = EDGE_CURVE ( 'NONE', #52, #203, #258, .T. ) ;
#121 = DIRECTION ( 'NONE',  ( -0.000000000000000000, -0.000000000000000000, -1.000000000000000000 ) ) ;
#122 = DIRECTION ( 'NONE',  ( -0.000000000000000000, -0.000000000000000000, -1.000000000000000000 ) ) ;
#123 = AXIS2_PLACEMENT_3D ( 'NONE', #209, #277, #180 ) ;
#124 = AXIS2_PLACEMENT_3D ( 'NONE', #148, #243, #216 ) ;
#125 = FACE_OUTER_BOUND ( 'NONE', #230, .T. ) ;
#126 = CARTESIAN_POINT ( 'NONE',  ( 0.000000000000000000, 0.000000000000000000, 5.000000000000000000 ) ) ;
#127 = CARTESIAN_POINT ( 'NONE',  ( 0.000000000000000000, 0.000000000000000000, 0.000000000000000000 ) ) ;
#128 = COORDINATED_UNIVERSAL_TIME_OFFSET ( 1, 0, .AHEAD. ) ;
#129 = ORIENTED_EDGE ( 'NONE', *, *, #78, .F. ) ;
#130 = CALENDAR_DATE ( 2022, 20, 6 ) ;
#131 = CLOSED_SHELL ( 'NONE', ( #138, #201, #33, #9, #227, #56, #196, #268, #84 ) ) ;
#132 = APPLICATION_PROTOCOL_DEFINITION ( 'international standard', 'config_control_design', 1994, #176 ) ;
#133 = EDGE_CURVE ( 'NONE', #203, #37, #242, .T. ) ;
#134 = CYLINDRICAL_SURFACE ( 'NONE', #241, 8.000000000000000000 ) ;
#135 = ORIENTED_EDGE ( 'NONE', *, *, #78, .T. ) ;
#136 = COORDINATED_UNIVERSAL_TIME_OFFSET ( 1, 0, .AHEAD. ) ;
#137 = ORIENTED_EDGE ( 'NONE', *, *, #105, .T. ) ;
#138 = ADVANCED_FACE ( 'NONE', ( #45 ), #13, .F. ) ;
#139 = DIRECTION ( 'NONE',  ( 0.000000000000000000, 0.000000000000000000, 1.000000000000000000 ) ) ;
#140 = ORIENTED_EDGE ( 'NONE', *, *, #63, .F. ) ;
#141 = DIRECTION ( 'NONE',  ( 1.000000000000000000, 0.000000000000000000, -0.000000000000000000 ) ) ;
#142 = AXIS2_PLACEMENT_3D ( 'NONE', #1, #49, #93 ) ;
#143 = CC_DESIGN_APPROVAL ( #47, ( #95 ) ) ;
#144 = FACE_OUTER_BOUND ( 'NONE', #109, .T. ) ;
#145 = PLANE ( 'NONE',  #185 ) ;
#146 = CARTESIAN_POINT ( 'NONE',  ( -8.000000000000000000, 0.000000000000000000, 5.000000000000000000 ) ) ;
#147 = CIRCLE ( 'NONE', #21, 5.699999999999999289 ) ;
#148 = CARTESIAN_POINT ( 'NONE',  ( 0.000000000000000000, 0.000000000000000000, 0.000000000000000000 ) ) ;
#149 = CC_DESIGN_DATE_AND_TIME_ASSIGNMENT ( #174, #103, ( #191 ) ) ;
#150 = PERSON_AND_ORGANIZATION ( #155, #249 ) ;
#151 =( LENGTH_UNIT ( ) NAMED_UNIT ( * ) SI_UNIT ( .MILLI., .METRE. ) );
#152 = ORIENTED_EDGE ( 'NONE', *, *, #178, .T. ) ;
#153 = CC_DESIGN_PERSON_AND_ORGANIZATION_ASSIGNMENT ( #50, #266, ( #7 ) ) ;
#154 = CC_DESIGN_APPROVAL ( #211, ( #7 ) ) ;
#155 = PERSON ( 'NEURÈENÝ', 'NEURÈENÝ', 'NEURÈENÝ', ('NEURÈENÝ'), ('NEURÈENÝ'), ('NEURÈENÝ') ) ;
#156 = CARTESIAN_POINT ( 'NONE',  ( 0.000000000000000000, 0.000000000000000000, 5.200000000000009948 ) ) ;
#157 = CC_DESIGN_APPROVAL ( #206, ( #191 ) ) ;
#158 = EDGE_LOOP ( 'NONE', ( #275, #232, #304, #31 ) ) ;
#159 = EDGE_LOOP ( 'NONE', ( #58, #234, #135, #251 ) ) ;
#160 = CALENDAR_DATE ( 2022, 20, 6 ) ;
#161 = DIRECTION ( 'NONE',  ( 1.000000000000000000, 0.000000000000000000, 0.000000000000000000 ) ) ;
#162 = ORIENTED_EDGE ( 'NONE', *, *, #94, .F. ) ;
#163 = VERTEX_POINT ( 'NONE', #168 ) ;
#164 = ORIENTED_EDGE ( 'NONE', *, *, #280, .F. ) ;
#165 = CARTESIAN_POINT ( 'NONE',  ( 0.000000000000000000, 0.000000000000000000, 5.000000000000000000 ) ) ;
#166 = CARTESIAN_POINT ( 'NONE',  ( -8.000000000000000000, 0.000000000000000000, 5.000000000000000000 ) ) ;
#167 = CARTESIAN_POINT ( 'NONE',  ( 8.000000000000000000, 9.797174393178825657E-16, 5.000000000000000000 ) ) ;
#168 = CARTESIAN_POINT ( 'NONE',  ( 5.500000000000000000, 6.735557395310442023E-16, 255.0000000000000000 ) ) ;
#169 = VECTOR ( 'NONE', #112, 1000.000000000000000 ) ;
#170 = AXIS2_PLACEMENT_3D ( 'NONE', #165, #259, #283 ) ;
#171 = DIRECTION ( 'NONE',  ( 1.000000000000000000, 0.000000000000000000, 0.000000000000000000 ) ) ;
#172 = DIRECTION ( 'NONE',  ( 0.000000000000000000, 0.000000000000000000, 1.000000000000000000 ) ) ;
#173 = UNCERTAINTY_MEASURE_WITH_UNIT (LENGTH_MEASURE( 1.000000000000000082E-05 ), #151, 'distance_accuracy_value', 'NONE');
#174 = DATE_AND_TIME ( #10, #195 ) ;
#175 = COORDINATED_UNIVERSAL_TIME_OFFSET ( 1, 0, .AHEAD. ) ;
#176 = APPLICATION_CONTEXT ( 'configuration controlled 3d designs of mechanical parts and assemblies' ) ;
#177 =( NAMED_UNIT ( * ) SI_UNIT ( $, .STERADIAN. ) SOLID_ANGLE_UNIT ( ) );
#178 = EDGE_CURVE ( 'NONE', #224, #113, #76, .T. ) ;
#179 = ORIENTED_EDGE ( 'NONE', *, *, #29, .F. ) ;
#180 = DIRECTION ( 'NONE',  ( -1.000000000000000000, 0.000000000000000000, 0.000000000000000000 ) ) ;
#181 = DATE_AND_TIME ( #223, #101 ) ;
#182 = CARTESIAN_POINT ( 'NONE',  ( 0.000000000000000000, 0.000000000000000000, 255.0000000000000000 ) ) ;
#183 = ORIENTED_EDGE ( 'NONE', *, *, #94, .T. ) ;
#184 = ORIENTED_EDGE ( 'NONE', *, *, #133, .T. ) ;
#185 = AXIS2_PLACEMENT_3D ( 'NONE', #239, #25, #220 ) ;
#186 = CC_DESIGN_PERSON_AND_ORGANIZATION_ASSIGNMENT ( #150, #244, ( #7 ) ) ;
#187 = DIRECTION ( 'NONE',  ( -0.000000000000000000, -0.000000000000000000, -1.000000000000000000 ) ) ;
#188 = DIRECTION ( 'NONE',  ( 1.000000000000000000, 0.000000000000000000, 0.000000000000000000 ) ) ;
#189 = AXIS2_PLACEMENT_3D ( 'NONE', #182, #88, #161 ) ;
#190 = DIRECTION ( 'NONE',  ( 0.000000000000000000, 0.000000000000000000, 1.000000000000000000 ) ) ;
#191 = PRODUCT_DEFINITION ( 'NEZNÁMÝ', '', #7, #225 ) ;
#192 = CARTESIAN_POINT ( 'NONE',  ( 5.500000000000000000, 6.735557395310442023E-16, 255.0000000000000000 ) ) ;
#193 = LINE ( 'NONE', #263, #199 ) ;
#194 = CIRCLE ( 'NONE', #57, 8.000000000000000000 ) ;
#195 = LOCAL_TIME ( 11, 35, 37.00000000000000000, #175 ) ;
#196 = ADVANCED_FACE ( 'NONE', ( #144 ), #238, .T. ) ;
#197 = APPROVAL_STATUS ( 'not_yet_approved' ) ;
#198 = VERTEX_POINT ( 'NONE', #167 ) ;
#199 = VECTOR ( 'NONE', #122, 1000.000000000000000 ) ;
#200 = APPROVAL_ROLE ( '' ) ;
#201 = ADVANCED_FACE ( 'NONE', ( #125 ), #74, .T. ) ;
#202 = COORDINATED_UNIVERSAL_TIME_OFFSET ( 1, 0, .AHEAD. ) ;
#203 = VERTEX_POINT ( 'NONE', #48 ) ;
#204 = FACE_OUTER_BOUND ( 'NONE', #116, .T. ) ;
#205 = CIRCLE ( 'NONE', #100, 5.500000000000000000 ) ;
#206 = APPROVAL ( #292, 'NEURÈENÝ' ) ;
#207 = FACE_OUTER_BOUND ( 'NONE', #68, .T. ) ;
#208 = PERSON_AND_ORGANIZATION ( #155, #249 ) ;
#209 = CARTESIAN_POINT ( 'NONE',  ( 0.000000000000000000, 0.000000000000000000, 5.000000000000000000 ) ) ;
#210 = ORIENTED_EDGE ( 'NONE', *, *, #303, .T. ) ;
#211 = APPROVAL ( #197, 'NEURÈENÝ' ) ;
#212 = CIRCLE ( 'NONE', #189, 5.500000000000000000 ) ;
#213 = FACE_OUTER_BOUND ( 'NONE', #159, .T. ) ;
#214 = CARTESIAN_POINT ( 'NONE',  ( -8.000000000000000000, 0.000000000000000000, 0.000000000000000000 ) ) ;
#215 = DIRECTION ( 'NONE',  ( -0.000000000000000000, -0.000000000000000000, -1.000000000000000000 ) ) ;
#216 = DIRECTION ( 'NONE',  ( 1.000000000000000000, 0.000000000000000000, 0.000000000000000000 ) ) ;
#217 = CC_DESIGN_PERSON_AND_ORGANIZATION_ASSIGNMENT ( #221, #53, ( #95 ) ) ;
#218 = CIRCLE ( 'NONE', #298, 8.000000000000000000 ) ;
#219 = FACE_OUTER_BOUND ( 'NONE', #18, .T. ) ;
#220 = DIRECTION ( 'NONE',  ( 1.000000000000000000, 0.000000000000000000, -0.000000000000000000 ) ) ;
#221 = PERSON_AND_ORGANIZATION ( #155, #249 ) ;
#222 = CARTESIAN_POINT ( 'NONE',  ( 5.500000000000000000, 6.735557395310442023E-16, 5.200000000000009948 ) ) ;
#223 = CALENDAR_DATE ( 2022, 20, 6 ) ;
#224 = VERTEX_POINT ( 'NONE', #166 ) ;
#225 = DESIGN_CONTEXT ( 'detailed design', #176, 'design' ) ;
#226 = APPROVAL_DATE_TIME ( #14, #206 ) ;
#227 = ADVANCED_FACE ( 'NONE', ( #284, #240 ), #145, .T. ) ;
#228 = CALENDAR_DATE ( 2022, 20, 6 ) ;
#229 = CARTESIAN_POINT ( 'NONE',  ( -5.500000000000000000, 0.000000000000000000, 5.200000000000009948 ) ) ;
#230 = EDGE_LOOP ( 'NONE', ( #164, #183, #16, #62 ) ) ;
#231 = CIRCLE ( 'NONE', #305, 8.000000000000000000 ) ;
#232 = ORIENTED_EDGE ( 'NONE', *, *, #120, .T. ) ;
#233 = EDGE_LOOP ( 'NONE', ( #289, #115 ) ) ;
#234 = ORIENTED_EDGE ( 'NONE', *, *, #29, .T. ) ;
#235 = EDGE_CURVE ( 'NONE', #291, #52, #193, .T. ) ;
#236 = TOROIDAL_SURFACE ( 'NONE', #142, 5.699999999999999289, 0.2000000000000000111 ) ;
#237 = CARTESIAN_POINT ( 'NONE',  ( 0.000000000000000000, 0.000000000000000000, 255.0000000000000000 ) ) ;
#238 = CYLINDRICAL_SURFACE ( 'NONE', #54, 5.500000000000000000 ) ;
#239 = CARTESIAN_POINT ( 'NONE',  ( 0.000000000000000000, 0.000000000000000000, 5.000000000000000000 ) ) ;
#240 = FACE_OUTER_BOUND ( 'NONE', #107, .T. ) ;
#241 = AXIS2_PLACEMENT_3D ( 'NONE', #299, #187, #278 ) ;
#242 = CIRCLE ( 'NONE', #170, 5.699999999999999289 ) ;
#243 = DIRECTION ( 'NONE',  ( 0.000000000000000000, 0.000000000000000000, 1.000000000000000000 ) ) ;
#244 = PERSON_AND_ORGANIZATION_ROLE ( 'design_supplier' ) ;
#245 = LOCAL_TIME ( 11, 35, 37.00000000000000000, #106 ) ;
#246 = PRODUCT_RELATED_PRODUCT_CATEGORY ( 'detail', '', ( #92 ) ) ;
#247 = APPROVAL_ROLE ( '' ) ;
#248 = CIRCLE ( 'NONE', #286, 0.1999999999999996503 ) ;
#249 = ORGANIZATION ( 'NEURÈENÝ', 'NEURÈENÝ', '' ) ;
#250 = EDGE_CURVE ( 'NONE', #113, #8, #86, .T. ) ;
#251 = ORIENTED_EDGE ( 'NONE', *, *, #178, .F. ) ;
#252 = DATE_AND_TIME ( #160, #67 ) ;
#253 = DIRECTION ( 'NONE',  ( 0.000000000000000000, -1.000000000000000000, 0.000000000000000000 ) ) ;
#254 = CIRCLE ( 'NONE', #270, 5.500000000000000000 ) ;
#255 = CARTESIAN_POINT ( 'NONE',  ( 5.699999999999999289, 0.000000000000000000, 5.200000000000009948 ) ) ;
#256 = LINE ( 'NONE', #20, #169 ) ;
#257 = CARTESIAN_POINT ( 'NONE',  ( 0.000000000000000000, 0.000000000000000000, 255.0000000000000000 ) ) ;
#258 = CIRCLE ( 'NONE', #267, 0.1999999999999996503 ) ;
#259 = DIRECTION ( 'NONE',  ( -0.000000000000000000, -0.000000000000000000, -1.000000000000000000 ) ) ;
#260 = CC_DESIGN_PERSON_AND_ORGANIZATION_ASSIGNMENT ( #11, #30, ( #92 ) ) ;
#261 = DIRECTION ( 'NONE',  ( 1.000000000000000000, 0.000000000000000000, 0.000000000000000000 ) ) ;
#262 = DIRECTION ( 'NONE',  ( -0.000000000000000000, -0.000000000000000000, -1.000000000000000000 ) ) ;
#263 = CARTESIAN_POINT ( 'NONE',  ( -5.500000000000000000, 0.000000000000000000, 255.0000000000000000 ) ) ;
#264 =( NAMED_UNIT ( * ) PLANE_ANGLE_UNIT ( ) SI_UNIT ( $, .RADIAN. ) );
#265 = DIRECTION ( 'NONE',  ( 1.000000000000000000, 0.000000000000000000, 0.000000000000000000 ) ) ;
#266 = PERSON_AND_ORGANIZATION_ROLE ( 'creator' ) ;
#267 = AXIS2_PLACEMENT_3D ( 'NONE', #96, #307, #97 ) ;
#268 = ADVANCED_FACE ( 'NONE', ( #5 ), #285, .T. ) ;
#269 = PERSON_AND_ORGANIZATION ( #155, #249 ) ;
#270 = AXIS2_PLACEMENT_3D ( 'NONE', #156, #172, #265 ) ;
#271 = PLANE ( 'NONE',  #34 ) ;
#272 = SHAPE_DEFINITION_REPRESENTATION ( #69, #273 ) ;
#273 = ADVANCED_BREP_SHAPE_REPRESENTATION ( '99d4', ( #24, #59 ), #73 ) ;
#274 = CARTESIAN_POINT ( 'NONE',  ( 8.000000000000000000, 9.797174393178825657E-16, 0.000000000000000000 ) ) ;
#275 = ORIENTED_EDGE ( 'NONE', *, *, #295, .F. ) ;
#276 = AXIS2_PLACEMENT_3D ( 'NONE', #237, #22, #188 ) ;
#277 = DIRECTION ( 'NONE',  ( -0.000000000000000000, -0.000000000000000000, -1.000000000000000000 ) ) ;
#278 = DIRECTION ( 'NONE',  ( -1.000000000000000000, 0.000000000000000000, 0.000000000000000000 ) ) ;
#279 = CARTESIAN_POINT ( 'NONE',  ( 0.000000000000000000, 0.000000000000000000, 255.0000000000000000 ) ) ;
#280 = EDGE_CURVE ( 'NONE', #163, #291, #293, .T. ) ;
#281 = APPROVAL_PERSON_ORGANIZATION ( #269, #211, #247 ) ;
#282 = DIRECTION ( 'NONE',  ( -1.000000000000000000, 0.000000000000000000, 0.000000000000000000 ) ) ;
#283 = DIRECTION ( 'NONE',  ( 1.000000000000000000, 0.000000000000000000, 0.000000000000000000 ) ) ;
#284 = FACE_BOUND ( 'NONE', #42, .T. ) ;
#285 = PLANE ( 'NONE',  #60 ) ;
#286 = AXIS2_PLACEMENT_3D ( 'NONE', #255, #253, #41 ) ;
#287 = LOCAL_TIME ( 11, 35, 37.00000000000000000, #202 ) ;
#288 = APPLICATION_PROTOCOL_DEFINITION ( 'international standard', 'config_control_design', 1994, #110 ) ;
#289 = ORIENTED_EDGE ( 'NONE', *, *, #63, .T. ) ;
#290 = PERSON_AND_ORGANIZATION ( #155, #249 ) ;
#291 = VERTEX_POINT ( 'NONE', #83 ) ;
#292 = APPROVAL_STATUS ( 'not_yet_approved' ) ;
#293 = CIRCLE ( 'NONE', #276, 5.500000000000000000 ) ;
#294 = DIRECTION ( 'NONE',  ( 1.000000000000000000, 0.000000000000000000, 0.000000000000000000 ) ) ;
#295 = EDGE_CURVE ( 'NONE', #52, #296, #254, .T. ) ;
#296 = VERTEX_POINT ( 'NONE', #222 ) ;
#297 = DATE_TIME_ROLE ( 'classification_date' ) ;
#298 = AXIS2_PLACEMENT_3D ( 'NONE', #79, #190, #71 ) ;
#299 = CARTESIAN_POINT ( 'NONE',  ( 0.000000000000000000, 0.000000000000000000, 5.000000000000000000 ) ) ;
#300 = VECTOR ( 'NONE', #3, 1000.000000000000000 ) ;
#301 = CYLINDRICAL_SURFACE ( 'NONE', #123, 8.000000000000000000 ) ;
#302 = DIRECTION ( 'NONE',  ( 0.000000000000000000, 0.000000000000000000, 1.000000000000000000 ) ) ;
#303 = EDGE_CURVE ( 'NONE', #37, #203, #147, .T. ) ;
#304 = ORIENTED_EDGE ( 'NONE', *, *, #303, .F. ) ;
#305 = AXIS2_PLACEMENT_3D ( 'NONE', #126, #77, #99 ) ;
#306 = ORIENTED_EDGE ( 'NONE', *, *, #250, .T. ) ;
#307 = DIRECTION ( 'NONE',  ( 1.224646799147353207E-16, 1.000000000000000000, -0.000000000000000000 ) ) ;
ENDSEC;
END-ISO-10303-21;
