ISO-10303-21;
HEADER;
FILE_DESCRIPTION (( 'STEP AP203' ),
    '1' );
FILE_NAME ('c261.STEP',
    '2022-06-20T10:01:04',
    ( '' ),
    ( '' ),
    'SwSTEP 2.0',
    'SolidWorks 2019',
    '' );
FILE_SCHEMA (( 'CONFIG_CONTROL_DESIGN' ));
ENDSEC;

DATA;
#1 = FACE_OUTER_BOUND ( 'NONE', #201, .T. ) ;
#2 = ORIENTED_EDGE ( 'NONE', *, *, #40, .F. ) ;
#3 = DIRECTION ( 'NONE',  ( 0.000000000000000000, 0.000000000000000000, 1.000000000000000000 ) ) ;
#4 = EDGE_LOOP ( 'NONE', ( #67, #266 ) ) ;
#5 = CIRCLE ( 'NONE', #100, 2.600000000000000089 ) ;
#6 = CARTESIAN_POINT ( 'NONE',  ( 2.600000000000000089, 3.184081677783118191E-16, 803.0000000000000000 ) ) ;
#7 = DIRECTION ( 'NONE',  ( -0.000000000000000000, -0.000000000000000000, -1.000000000000000000 ) ) ;
#8 = EDGE_CURVE ( 'NONE', #256, #47, #5, .T. ) ;
#9 = APPROVAL_STATUS ( 'not_yet_approved' ) ;
#10 = AXIS2_PLACEMENT_3D ( 'NONE', #234, #187, #255 ) ;
#11 = LINE ( 'NONE', #6, #180 ) ;
#12 = ORIENTED_EDGE ( 'NONE', *, *, #250, .T. ) ;
#13 = CARTESIAN_POINT ( 'NONE',  ( 2.799999999999999822, 0.000000000000000000, 3.199999999999980638 ) ) ;
#14 = ORIENTED_EDGE ( 'NONE', *, *, #250, .F. ) ;
#15 = DIRECTION ( 'NONE',  ( 1.000000000000000000, 0.000000000000000000, 0.000000000000000000 ) ) ;
#16 = ORIENTED_EDGE ( 'NONE', *, *, #31, .F. ) ;
#17 = CARTESIAN_POINT ( 'NONE',  ( 0.000000000000000000, 0.000000000000000000, 3.000000000000000000 ) ) ;
#18 = PERSON_AND_ORGANIZATION_ROLE ( 'design_supplier' ) ;
#19 = DIRECTION ( 'NONE',  ( 1.000000000000000000, 0.000000000000000000, 0.000000000000000000 ) ) ;
#20 = UNCERTAINTY_MEASURE_WITH_UNIT (LENGTH_MEASURE( 1.000000000000000082E-05 ), #302, 'distance_accuracy_value', 'NONE');
#21 = ADVANCED_FACE ( 'NONE', ( #307 ), #25, .T. ) ;
#22 = ORIENTED_EDGE ( 'NONE', *, *, #8, .F. ) ;
#23 = CC_DESIGN_APPROVAL ( #53, ( #118 ) ) ;
#24 = CARTESIAN_POINT ( 'NONE',  ( 5.000000000000000000, 6.123233995736766282E-16, 3.000000000000000000 ) ) ;
#25 = CYLINDRICAL_SURFACE ( 'NONE', #75, 2.600000000000000089 ) ;
#26 = APPLICATION_CONTEXT ( 'configuration controlled 3d designs of mechanical parts and assemblies' ) ;
#27 = LINE ( 'NONE', #44, #35 ) ;
#28 = LOCAL_TIME ( 12, 1, 4.000000000000000000, #191 ) ;
#29 = MANIFOLD_SOLID_BREP ( 'Zaoblit1', #137 ) ;
#30 = VERTEX_POINT ( 'NONE', #265 ) ;
#31 = EDGE_CURVE ( 'NONE', #97, #168, #271, .T. ) ;
#32 = DIRECTION ( 'NONE',  ( -0.000000000000000000, -0.000000000000000000, -1.000000000000000000 ) ) ;
#33 = PLANE ( 'NONE',  #134 ) ;
#34 = APPLICATION_PROTOCOL_DEFINITION ( 'international standard', 'config_control_design', 1994, #26 ) ;
#35 = VECTOR ( 'NONE', #123, 1000.000000000000000 ) ;
#36 = CARTESIAN_POINT ( 'NONE',  ( -2.600000000000000089, 0.000000000000000000, 3.199999999999980638 ) ) ;
#37 = EDGE_LOOP ( 'NONE', ( #81, #220 ) ) ;
#38 = CIRCLE ( 'NONE', #72, 2.799999999999999822 ) ;
#39 = DIRECTION ( 'NONE',  ( 0.000000000000000000, 0.000000000000000000, 1.000000000000000000 ) ) ;
#40 = EDGE_CURVE ( 'NONE', #70, #233, #95, .T. ) ;
#41 = DIRECTION ( 'NONE',  ( -0.000000000000000000, -0.000000000000000000, -1.000000000000000000 ) ) ;
#42 = PERSON_AND_ORGANIZATION ( #167, #245 ) ;
#43 = CIRCLE ( 'NONE', #165, 5.000000000000000000 ) ;
#44 = CARTESIAN_POINT ( 'NONE',  ( -5.000000000000000000, 0.000000000000000000, 3.000000000000000000 ) ) ;
#45 = DIRECTION ( 'NONE',  ( 1.000000000000000000, 0.000000000000000000, 0.000000000000000000 ) ) ;
#46 = APPROVAL ( #154, 'NEURÈENÝ' ) ;
#47 = VERTEX_POINT ( 'NONE', #150 ) ;
#48 = ORIENTED_EDGE ( 'NONE', *, *, #176, .T. ) ;
#49 = CARTESIAN_POINT ( 'NONE',  ( 0.000000000000000000, 0.000000000000000000, 3.000000000000000000 ) ) ;
#50 = CIRCLE ( 'NONE', #230, 5.000000000000000000 ) ;
#51 = EDGE_CURVE ( 'NONE', #168, #97, #90, .T. ) ;
#52 = FACE_OUTER_BOUND ( 'NONE', #124, .T. ) ;
#53 = APPROVAL ( #261, 'NEURÈENÝ' ) ;
#54 = FACE_OUTER_BOUND ( 'NONE', #252, .T. ) ;
#55 = CALENDAR_DATE ( 2022, 20, 6 ) ;
#56 = EDGE_CURVE ( 'NONE', #273, #246, #303, .T. ) ;
#57 = LINE ( 'NONE', #278, #174 ) ;
#58 = DIRECTION ( 'NONE',  ( 1.000000000000000000, 0.000000000000000000, 0.000000000000000000 ) ) ;
#59 = DIRECTION ( 'NONE',  ( 0.000000000000000000, 0.000000000000000000, 1.000000000000000000 ) ) ;
#60 = EDGE_CURVE ( 'NONE', #233, #30, #27, .T. ) ;
#61 = DATE_TIME_ROLE ( 'classification_date' ) ;
#62 = AXIS2_PLACEMENT_3D ( 'NONE', #226, #32, #248 ) ;
#63 = ORIENTED_EDGE ( 'NONE', *, *, #203, .F. ) ;
#64 = MECHANICAL_CONTEXT ( 'NONE', #152, 'mechanical' ) ;
#65 = ORIENTED_EDGE ( 'NONE', *, *, #51, .T. ) ;
#66 = PRODUCT_DEFINITION ( 'NEZNÁMÝ', '', #161, #258 ) ;
#67 = ORIENTED_EDGE ( 'NONE', *, *, #56, .T. ) ;
#68 = DIRECTION ( 'NONE',  ( 0.000000000000000000, 0.000000000000000000, 1.000000000000000000 ) ) ;
#69 = VECTOR ( 'NONE', #240, 1000.000000000000000 ) ;
#70 = VERTEX_POINT ( 'NONE', #24 ) ;
#71 = EDGE_CURVE ( 'NONE', #70, #264, #143, .T. ) ;
#72 = AXIS2_PLACEMENT_3D ( 'NONE', #289, #235, #268 ) ;
#73 = CARTESIAN_POINT ( 'NONE',  ( 5.000000000000000000, 6.123233995736766282E-16, 0.000000000000000000 ) ) ;
#74 = APPROVAL_DATE_TIME ( #130, #46 ) ;
#75 = AXIS2_PLACEMENT_3D ( 'NONE', #196, #172, #223 ) ;
#76 = PERSON_AND_ORGANIZATION ( #167, #245 ) ;
#77 = APPROVAL_ROLE ( '' ) ;
#78 = PRODUCT_RELATED_PRODUCT_CATEGORY ( 'detail', '', ( #277 ) ) ;
#79 = APPROVAL_DATE_TIME ( #274, #147 ) ;
#80 = DIRECTION ( 'NONE',  ( 1.000000000000000000, 0.000000000000000000, 0.000000000000000000 ) ) ;
#81 = ORIENTED_EDGE ( 'NONE', *, *, #176, .F. ) ;
#82 = ADVANCED_FACE ( 'NONE', ( #1 ), #183, .F. ) ;
#83 = DIRECTION ( 'NONE',  ( 1.000000000000000000, 0.000000000000000000, -0.000000000000000000 ) ) ;
#84 = ORIENTED_EDGE ( 'NONE', *, *, #162, .T. ) ;
#85 = DIRECTION ( 'NONE',  ( -0.000000000000000000, -0.000000000000000000, -1.000000000000000000 ) ) ;
#86 = ORIENTED_EDGE ( 'NONE', *, *, #60, .F. ) ;
#87 =( NAMED_UNIT ( * ) PLANE_ANGLE_UNIT ( ) SI_UNIT ( $, .RADIAN. ) );
#88 = ORIENTED_EDGE ( 'NONE', *, *, #186, .T. ) ;
#89 = SHAPE_DEFINITION_REPRESENTATION ( #216, #280 ) ;
#90 = CIRCLE ( 'NONE', #296, 2.600000000000000089 ) ;
#91 = CIRCLE ( 'NONE', #133, 2.600000000000000089 ) ;
#92 = FACE_BOUND ( 'NONE', #4, .T. ) ;
#93 = ORIENTED_EDGE ( 'NONE', *, *, #212, .F. ) ;
#94 = EDGE_CURVE ( 'NONE', #264, #30, #43, .T. ) ;
#95 = CIRCLE ( 'NONE', #291, 5.000000000000000000 ) ;
#96 = DIRECTION ( 'NONE',  ( 0.000000000000000000, 0.000000000000000000, 1.000000000000000000 ) ) ;
#97 = VERTEX_POINT ( 'NONE', #36 ) ;
#98 = AXIS2_PLACEMENT_3D ( 'NONE', #17, #59, #120 ) ;
#99 = DIRECTION ( 'NONE',  ( 1.000000000000000000, 0.000000000000000000, 0.000000000000000000 ) ) ;
#100 = AXIS2_PLACEMENT_3D ( 'NONE', #163, #68, #45 ) ;
#101 = DIRECTION ( 'NONE',  ( 0.000000000000000000, 0.000000000000000000, 1.000000000000000000 ) ) ;
#102 = DIRECTION ( 'NONE',  ( -0.000000000000000000, -0.000000000000000000, -1.000000000000000000 ) ) ;
#103 = CARTESIAN_POINT ( 'NONE',  ( 2.600000000000000089, 3.184081677783118191E-16, 3.199999999999980638 ) ) ;
#104 = PERSON_AND_ORGANIZATION_ROLE ( 'creator' ) ;
#105 = APPROVAL_ROLE ( '' ) ;
#106 = PERSON_AND_ORGANIZATION ( #167, #245 ) ;
#107 = CC_DESIGN_APPROVAL ( #147, ( #161 ) ) ;
#108 = DIRECTION ( 'NONE',  ( 0.000000000000000000, 0.000000000000000000, 1.000000000000000000 ) ) ;
#109 = ORIENTED_EDGE ( 'NONE', *, *, #71, .F. ) ;
#110 = CARTESIAN_POINT ( 'NONE',  ( 0.000000000000000000, 0.000000000000000000, 3.000000000000000000 ) ) ;
#111 = ORIENTED_EDGE ( 'NONE', *, *, #56, .F. ) ;
#112 = PERSON_AND_ORGANIZATION_ROLE ( 'classification_officer' ) ;
#113 = DIRECTION ( 'NONE',  ( 0.000000000000000000, 0.000000000000000000, 1.000000000000000000 ) ) ;
#114 = LOCAL_TIME ( 12, 1, 4.000000000000000000, #178 ) ;
#115 = COORDINATED_UNIVERSAL_TIME_OFFSET ( 1, 0, .AHEAD. ) ;
#116 = CC_DESIGN_PERSON_AND_ORGANIZATION_ASSIGNMENT ( #204, #128, ( #277 ) ) ;
#117 = APPROVAL_ROLE ( '' ) ;
#118 = SECURITY_CLASSIFICATION ( '', '', #276 ) ;
#119 = ORIENTED_EDGE ( 'NONE', *, *, #40, .T. ) ;
#120 = DIRECTION ( 'NONE',  ( 1.000000000000000000, 0.000000000000000000, -0.000000000000000000 ) ) ;
#121 = CARTESIAN_POINT ( 'NONE',  ( 0.000000000000000000, 0.000000000000000000, 3.199999999999980638 ) ) ;
#122 = DIRECTION ( 'NONE',  ( 1.000000000000000000, 0.000000000000000000, 0.000000000000000000 ) ) ;
#123 = DIRECTION ( 'NONE',  ( -0.000000000000000000, -0.000000000000000000, -1.000000000000000000 ) ) ;
#124 = EDGE_LOOP ( 'NONE', ( #16, #84, #111, #93 ) ) ;
#125 = CARTESIAN_POINT ( 'NONE',  ( 0.000000000000000000, 0.000000000000000000, 803.0000000000000000 ) ) ;
#126 = DIRECTION ( 'NONE',  ( -1.000000000000000000, 0.000000000000000000, 0.000000000000000000 ) ) ;
#127 = ADVANCED_FACE ( 'NONE', ( #290 ), #157, .T. ) ;
#128 = PERSON_AND_ORGANIZATION_ROLE ( 'design_owner' ) ;
#129 = LOCAL_TIME ( 12, 1, 4.000000000000000000, #131 ) ;
#130 = DATE_AND_TIME ( #179, #114 ) ;
#131 = COORDINATED_UNIVERSAL_TIME_OFFSET ( 1, 0, .AHEAD. ) ;
#132 = PERSON_AND_ORGANIZATION_ROLE ( 'creator' ) ;
#133 = AXIS2_PLACEMENT_3D ( 'NONE', #125, #206, #227 ) ;
#134 = AXIS2_PLACEMENT_3D ( 'NONE', #136, #210, #181 ) ;
#135 = PLANE ( 'NONE',  #192 ) ;
#136 = CARTESIAN_POINT ( 'NONE',  ( 0.000000000000000000, 0.000000000000000000, 803.0000000000000000 ) ) ;
#137 = CLOSED_SHELL ( 'NONE', ( #229, #21, #244, #127, #281, #169, #142, #222, #82 ) ) ;
#138 = CARTESIAN_POINT ( 'NONE',  ( -2.600000000000000089, 0.000000000000000000, 803.0000000000000000 ) ) ;
#139 = ORIENTED_EDGE ( 'NONE', *, *, #224, .F. ) ;
#140 = CC_DESIGN_PERSON_AND_ORGANIZATION_ASSIGNMENT ( #158, #112, ( #118 ) ) ;
#141 = AXIS2_PLACEMENT_3D ( 'NONE', #121, #198, #99 ) ;
#142 = ADVANCED_FACE ( 'NONE', ( #151 ), #272, .T. ) ;
#143 = LINE ( 'NONE', #144, #69 ) ;
#144 = CARTESIAN_POINT ( 'NONE',  ( 5.000000000000000000, 6.123233995736766282E-16, 3.000000000000000000 ) ) ;
#145 = ORIENTED_EDGE ( 'NONE', *, *, #186, .F. ) ;
#146 = DIRECTION ( 'NONE',  ( 1.000000000000000000, 0.000000000000000000, 0.000000000000000000 ) ) ;
#147 = APPROVAL ( #9, 'NEURÈENÝ' ) ;
#148 = AXIS2_PLACEMENT_3D ( 'NONE', #247, #7, #126 ) ;
#149 = AXIS2_PLACEMENT_3D ( 'NONE', #213, #113, #287 ) ;
#150 = CARTESIAN_POINT ( 'NONE',  ( 2.600000000000000089, 3.184081677783118191E-16, 803.0000000000000000 ) ) ;
#151 = FACE_OUTER_BOUND ( 'NONE', #188, .T. ) ;
#152 = APPLICATION_CONTEXT ( 'configuration controlled 3d designs of mechanical parts and assemblies' ) ;
#153 = DIRECTION ( 'NONE',  ( 0.000000000000000000, 0.000000000000000000, 1.000000000000000000 ) ) ;
#154 = APPROVAL_STATUS ( 'not_yet_approved' ) ;
#155 = CYLINDRICAL_SURFACE ( 'NONE', #231, 5.000000000000000000 ) ;
#156 = APPROVAL_PERSON_ORGANIZATION ( #42, #53, #117 ) ;
#157 = CYLINDRICAL_SURFACE ( 'NONE', #62, 5.000000000000000000 ) ;
#158 = PERSON_AND_ORGANIZATION ( #167, #245 ) ;
#159 = FACE_OUTER_BOUND ( 'NONE', #37, .T. ) ;
#160 = ORIENTED_EDGE ( 'NONE', *, *, #224, .T. ) ;
#161 = PRODUCT_DEFINITION_FORMATION_WITH_SPECIFIED_SOURCE ( 'LIBOVOLNÝ', '', #277, .NOT_KNOWN. ) ;
#162 = EDGE_CURVE ( 'NONE', #97, #246, #243, .T. ) ;
#163 = CARTESIAN_POINT ( 'NONE',  ( 0.000000000000000000, 0.000000000000000000, 803.0000000000000000 ) ) ;
#164 = CALENDAR_DATE ( 2022, 20, 6 ) ;
#165 = AXIS2_PLACEMENT_3D ( 'NONE', #283, #3, #58 ) ;
#166 = CARTESIAN_POINT ( 'NONE',  ( 0.000000000000000000, 0.000000000000000000, 3.199999999999980638 ) ) ;
#167 = PERSON ( 'NEURÈENÝ', 'NEURÈENÝ', 'NEURÈENÝ', ('NEURÈENÝ'), ('NEURÈENÝ'), ('NEURÈENÝ') ) ;
#168 = VERTEX_POINT ( 'NONE', #103 ) ;
#169 = ADVANCED_FACE ( 'NONE', ( #159 ), #135, .F. ) ;
#170 = ORIENTED_EDGE ( 'NONE', *, *, #162, .F. ) ;
#171 = AXIS2_PLACEMENT_3D ( 'NONE', #260, #242, #202 ) ;
#172 = DIRECTION ( 'NONE',  ( -0.000000000000000000, -0.000000000000000000, -1.000000000000000000 ) ) ;
#173 = AXIS2_PLACEMENT_3D ( 'NONE', #110, #108, #80 ) ;
#174 = VECTOR ( 'NONE', #41, 1000.000000000000000 ) ;
#175 = CARTESIAN_POINT ( 'NONE',  ( 0.000000000000000000, 0.000000000000000000, 3.000000000000000000 ) ) ;
#176 = EDGE_CURVE ( 'NONE', #30, #264, #50, .T. ) ;
#177 = CARTESIAN_POINT ( 'NONE',  ( 2.799999999999999822, 0.000000000000000000, 2.999999999999990674 ) ) ;
#178 = COORDINATED_UNIVERSAL_TIME_OFFSET ( 1, 0, .AHEAD. ) ;
#179 = CALENDAR_DATE ( 2022, 20, 6 ) ;
#180 = VECTOR ( 'NONE', #102, 1000.000000000000000 ) ;
#181 = DIRECTION ( 'NONE',  ( 1.000000000000000000, 0.000000000000000000, -0.000000000000000000 ) ) ;
#182 = EDGE_LOOP ( 'NONE', ( #241, #119 ) ) ;
#183 = TOROIDAL_SURFACE ( 'NONE', #141, 2.799999999999999822, 0.2000000000000000111 ) ;
#184 = CARTESIAN_POINT ( 'NONE',  ( -5.000000000000000000, 0.000000000000000000, 3.000000000000000000 ) ) ;
#185 = ORIENTED_EDGE ( 'NONE', *, *, #51, .F. ) ;
#186 = EDGE_CURVE ( 'NONE', #47, #256, #91, .T. ) ;
#187 = DIRECTION ( 'NONE',  ( 1.224646799147353207E-16, 1.000000000000000000, -0.000000000000000000 ) ) ;
#188 = EDGE_LOOP ( 'NONE', ( #139, #22, #12, #286 ) ) ;
#189 =( NAMED_UNIT ( * ) SI_UNIT ( $, .STERADIAN. ) SOLID_ANGLE_UNIT ( ) );
#190 = ORIENTED_EDGE ( 'NONE', *, *, #257, .F. ) ;
#191 = COORDINATED_UNIVERSAL_TIME_OFFSET ( 1, 0, .AHEAD. ) ;
#192 = AXIS2_PLACEMENT_3D ( 'NONE', #254, #39, #83 ) ;
#193 = APPROVAL_DATE_TIME ( #259, #53 ) ;
#194 = CC_DESIGN_DATE_AND_TIME_ASSIGNMENT ( #214, #61, ( #118 ) ) ;
#195 = APPLICATION_PROTOCOL_DEFINITION ( 'international standard', 'config_control_design', 1994, #152 ) ;
#196 = CARTESIAN_POINT ( 'NONE',  ( 0.000000000000000000, 0.000000000000000000, 803.0000000000000000 ) ) ;
#197 = AXIS2_PLACEMENT_3D ( 'NONE', #166, #96, #221 ) ;
#198 = DIRECTION ( 'NONE',  ( 0.000000000000000000, 0.000000000000000000, 1.000000000000000000 ) ) ;
#199 = CC_DESIGN_APPROVAL ( #46, ( #66 ) ) ;
#200 = ORIENTED_EDGE ( 'NONE', *, *, #94, .T. ) ;
#201 = EDGE_LOOP ( 'NONE', ( #170, #185, #279, #190 ) ) ;
#202 = DIRECTION ( 'NONE',  ( 1.000000000000000000, 0.000000000000000000, 0.000000000000000000 ) ) ;
#203 = EDGE_CURVE ( 'NONE', #233, #70, #304, .T. ) ;
#204 = PERSON_AND_ORGANIZATION ( #167, #245 ) ;
#205 = DIRECTION ( 'NONE',  ( 0.000000000000000000, 0.000000000000000000, -1.000000000000000000 ) ) ;
#206 = DIRECTION ( 'NONE',  ( 0.000000000000000000, 0.000000000000000000, 1.000000000000000000 ) ) ;
#207 = CALENDAR_DATE ( 2022, 20, 6 ) ;
#208 = DATE_AND_TIME ( #207, #129 ) ;
#209 = CC_DESIGN_DATE_AND_TIME_ASSIGNMENT ( #208, #293, ( #66 ) ) ;
#210 = DIRECTION ( 'NONE',  ( 0.000000000000000000, 0.000000000000000000, 1.000000000000000000 ) ) ;
#211 = EDGE_LOOP ( 'NONE', ( #2, #236, #200, #86 ) ) ;
#212 = EDGE_CURVE ( 'NONE', #168, #273, #218, .T. ) ;
#213 = CARTESIAN_POINT ( 'NONE',  ( 0.000000000000000000, 0.000000000000000000, 3.199999999999980638 ) ) ;
#214 = DATE_AND_TIME ( #164, #288 ) ;
#215 = PLANE ( 'NONE',  #98 ) ;
#216 = PRODUCT_DEFINITION_SHAPE ( 'NONE', 'NONE',  #66 ) ;
#217 = CC_DESIGN_PERSON_AND_ORGANIZATION_ASSIGNMENT ( #270, #132, ( #161 ) ) ;
#218 = CIRCLE ( 'NONE', #305, 0.2000000000000000944 ) ;
#219 = CARTESIAN_POINT ( 'NONE',  ( 0.000000000000000000, 0.000000000000000000, 0.000000000000000000 ) ) ;
#220 = ORIENTED_EDGE ( 'NONE', *, *, #94, .F. ) ;
#221 = DIRECTION ( 'NONE',  ( 1.000000000000000000, 0.000000000000000000, 0.000000000000000000 ) ) ;
#222 = ADVANCED_FACE ( 'NONE', ( #54 ), #33, .T. ) ;
#223 = DIRECTION ( 'NONE',  ( -1.000000000000000000, 0.000000000000000000, 0.000000000000000000 ) ) ;
#224 = EDGE_CURVE ( 'NONE', #47, #168, #11, .T. ) ;
#225 = EDGE_LOOP ( 'NONE', ( #145, #160, #65, #14 ) ) ;
#226 = CARTESIAN_POINT ( 'NONE',  ( 0.000000000000000000, 0.000000000000000000, 3.000000000000000000 ) ) ;
#227 = DIRECTION ( 'NONE',  ( 1.000000000000000000, 0.000000000000000000, 0.000000000000000000 ) ) ;
#228 = PERSON_AND_ORGANIZATION ( #167, #245 ) ;
#229 = ADVANCED_FACE ( 'NONE', ( #52 ), #263, .F. ) ;
#230 = AXIS2_PLACEMENT_3D ( 'NONE', #269, #153, #15 ) ;
#231 = AXIS2_PLACEMENT_3D ( 'NONE', #175, #85, #251 ) ;
#232 = DIRECTION ( 'NONE',  ( 0.000000000000000000, -1.000000000000000000, 0.000000000000000000 ) ) ;
#233 = VERTEX_POINT ( 'NONE', #184 ) ;
#234 = CARTESIAN_POINT ( 'NONE',  ( -2.799999999999999822, 3.429011037612588783E-16, 3.199999999999980638 ) ) ;
#235 = DIRECTION ( 'NONE',  ( -0.000000000000000000, -0.000000000000000000, -1.000000000000000000 ) ) ;
#236 = ORIENTED_EDGE ( 'NONE', *, *, #71, .T. ) ;
#237 = CALENDAR_DATE ( 2022, 20, 6 ) ;
#238 = DIRECTION ( 'NONE',  ( 0.000000000000000000, 0.000000000000000000, 1.000000000000000000 ) ) ;
#239 = ORIENTED_EDGE ( 'NONE', *, *, #60, .T. ) ;
#240 = DIRECTION ( 'NONE',  ( -0.000000000000000000, -0.000000000000000000, -1.000000000000000000 ) ) ;
#241 = ORIENTED_EDGE ( 'NONE', *, *, #203, .T. ) ;
#242 = DIRECTION ( 'NONE',  ( -0.000000000000000000, -0.000000000000000000, -1.000000000000000000 ) ) ;
#243 = CIRCLE ( 'NONE', #10, 0.2000000000000000944 ) ;
#244 = ADVANCED_FACE ( 'NONE', ( #299 ), #155, .T. ) ;
#245 = ORGANIZATION ( 'NEURÈENÝ', 'NEURÈENÝ', '' ) ;
#246 = VERTEX_POINT ( 'NONE', #275 ) ;
#247 = CARTESIAN_POINT ( 'NONE',  ( 0.000000000000000000, 0.000000000000000000, 803.0000000000000000 ) ) ;
#248 = DIRECTION ( 'NONE',  ( -1.000000000000000000, 0.000000000000000000, 0.000000000000000000 ) ) ;
#249 = APPROVAL_PERSON_ORGANIZATION ( #76, #46, #105 ) ;
#250 = EDGE_CURVE ( 'NONE', #256, #97, #57, .T. ) ;
#251 = DIRECTION ( 'NONE',  ( -1.000000000000000000, 0.000000000000000000, 0.000000000000000000 ) ) ;
#252 = EDGE_LOOP ( 'NONE', ( #297, #88 ) ) ;
#253 = APPROVAL_PERSON_ORGANIZATION ( #106, #147, #77 ) ;
#254 = CARTESIAN_POINT ( 'NONE',  ( 0.000000000000000000, 0.000000000000000000, 0.000000000000000000 ) ) ;
#255 = DIRECTION ( 'NONE',  ( -1.000000000000000000, 1.224646799147353207E-16, 0.000000000000000000 ) ) ;
#256 = VERTEX_POINT ( 'NONE', #138 ) ;
#257 = EDGE_CURVE ( 'NONE', #246, #273, #38, .T. ) ;
#258 = DESIGN_CONTEXT ( 'detailed design', #26, 'design' ) ;
#259 = DATE_AND_TIME ( #237, #28 ) ;
#260 = CARTESIAN_POINT ( 'NONE',  ( 0.000000000000000000, 0.000000000000000000, 3.000000000000000000 ) ) ;
#261 = APPROVAL_STATUS ( 'not_yet_approved' ) ;
#262 = CARTESIAN_POINT ( 'NONE',  ( 0.000000000000000000, 0.000000000000000000, 3.199999999999980638 ) ) ;
#263 = TOROIDAL_SURFACE ( 'NONE', #149, 2.799999999999999822, 0.2000000000000000111 ) ;
#264 = VERTEX_POINT ( 'NONE', #73 ) ;
#265 = CARTESIAN_POINT ( 'NONE',  ( -5.000000000000000000, 0.000000000000000000, 0.000000000000000000 ) ) ;
#266 = ORIENTED_EDGE ( 'NONE', *, *, #257, .T. ) ;
#267 =( GEOMETRIC_REPRESENTATION_CONTEXT ( 3 ) GLOBAL_UNCERTAINTY_ASSIGNED_CONTEXT ( ( #20 ) ) GLOBAL_UNIT_ASSIGNED_CONTEXT ( ( #302, #87, #189 ) ) REPRESENTATION_CONTEXT ( 'NONE', 'WORKASPACE' ) );
#268 = DIRECTION ( 'NONE',  ( 1.000000000000000000, 0.000000000000000000, 0.000000000000000000 ) ) ;
#269 = CARTESIAN_POINT ( 'NONE',  ( 0.000000000000000000, 0.000000000000000000, 0.000000000000000000 ) ) ;
#270 = PERSON_AND_ORGANIZATION ( #167, #245 ) ;
#271 = CIRCLE ( 'NONE', #197, 2.600000000000000089 ) ;
#272 = CYLINDRICAL_SURFACE ( 'NONE', #148, 2.600000000000000089 ) ;
#273 = VERTEX_POINT ( 'NONE', #177 ) ;
#274 = DATE_AND_TIME ( #55, #284 ) ;
#275 = CARTESIAN_POINT ( 'NONE',  ( -2.799999999999999822, 3.429011037612589276E-16, 2.999999999999990674 ) ) ;
#276 = SECURITY_CLASSIFICATION_LEVEL ( 'unclassified' ) ;
#277 = PRODUCT ( 'c261', 'c261', '', ( #64 ) ) ;
#278 = CARTESIAN_POINT ( 'NONE',  ( -2.600000000000000089, 0.000000000000000000, 803.0000000000000000 ) ) ;
#279 = ORIENTED_EDGE ( 'NONE', *, *, #212, .T. ) ;
#280 = ADVANCED_BREP_SHAPE_REPRESENTATION ( 'c261', ( #29, #294 ), #267 ) ;
#281 = ADVANCED_FACE ( 'NONE', ( #92, #306 ), #215, .T. ) ;
#282 = EDGE_LOOP ( 'NONE', ( #109, #63, #239, #48 ) ) ;
#283 = CARTESIAN_POINT ( 'NONE',  ( 0.000000000000000000, 0.000000000000000000, 0.000000000000000000 ) ) ;
#284 = LOCAL_TIME ( 12, 1, 4.000000000000000000, #295 ) ;
#285 = DIRECTION ( 'NONE',  ( 0.000000000000000000, 0.000000000000000000, 1.000000000000000000 ) ) ;
#286 = ORIENTED_EDGE ( 'NONE', *, *, #31, .T. ) ;
#287 = DIRECTION ( 'NONE',  ( 1.000000000000000000, 0.000000000000000000, 0.000000000000000000 ) ) ;
#288 = LOCAL_TIME ( 12, 1, 4.000000000000000000, #115 ) ;
#289 = CARTESIAN_POINT ( 'NONE',  ( 0.000000000000000000, 0.000000000000000000, 3.000000000000000000 ) ) ;
#290 = FACE_OUTER_BOUND ( 'NONE', #282, .T. ) ;
#291 = AXIS2_PLACEMENT_3D ( 'NONE', #49, #285, #122 ) ;
#292 = CC_DESIGN_PERSON_AND_ORGANIZATION_ASSIGNMENT ( #298, #18, ( #161 ) ) ;
#293 = DATE_TIME_ROLE ( 'creation_date' ) ;
#294 = AXIS2_PLACEMENT_3D ( 'NONE', #219, #238, #19 ) ;
#295 = COORDINATED_UNIVERSAL_TIME_OFFSET ( 1, 0, .AHEAD. ) ;
#296 = AXIS2_PLACEMENT_3D ( 'NONE', #262, #101, #146 ) ;
#297 = ORIENTED_EDGE ( 'NONE', *, *, #8, .T. ) ;
#298 = PERSON_AND_ORGANIZATION ( #167, #245 ) ;
#299 = FACE_OUTER_BOUND ( 'NONE', #211, .T. ) ;
#300 = CC_DESIGN_SECURITY_CLASSIFICATION ( #118, ( #161 ) ) ;
#301 = CC_DESIGN_PERSON_AND_ORGANIZATION_ASSIGNMENT ( #228, #104, ( #66 ) ) ;
#302 =( LENGTH_UNIT ( ) NAMED_UNIT ( * ) SI_UNIT ( .MILLI., .METRE. ) );
#303 = CIRCLE ( 'NONE', #171, 2.799999999999999822 ) ;
#304 = CIRCLE ( 'NONE', #173, 5.000000000000000000 ) ;
#305 = AXIS2_PLACEMENT_3D ( 'NONE', #13, #232, #205 ) ;
#306 = FACE_OUTER_BOUND ( 'NONE', #182, .T. ) ;
#307 = FACE_OUTER_BOUND ( 'NONE', #225, .T. ) ;
ENDSEC;
END-ISO-10303-21;
