ISO-10303-21;
HEADER;
FILE_DESCRIPTION (( 'STEP AP203' ),
    '1' );
FILE_NAME ('769b.STEP',
    '2022-06-20T10:06:10',
    ( '' ),
    ( '' ),
    'SwSTEP 2.0',
    'SolidWorks 2019',
    '' );
FILE_SCHEMA (( 'CONFIG_CONTROL_DESIGN' ));
ENDSEC;

DATA;
#1 = DIRECTION ( 'NONE',  ( 1.000000000000000000, 0.000000000000000000, 0.000000000000000000 ) ) ;
#2 = COORDINATED_UNIVERSAL_TIME_OFFSET ( 1, 0, .AHEAD. ) ;
#3 = APPROVAL_ROLE ( '' ) ;
#4 = APPROVAL_PERSON_ORGANIZATION ( #128, #154, #27 ) ;
#5 = ADVANCED_FACE ( 'NONE', ( #31 ), #262, .T. ) ;
#6 = APPROVAL_STATUS ( 'not_yet_approved' ) ;
#7 = CIRCLE ( 'NONE', #45, 2.449999999999999734 ) ;
#8 = FACE_OUTER_BOUND ( 'NONE', #142, .T. ) ;
#9 = SECURITY_CLASSIFICATION_LEVEL ( 'unclassified' ) ;
#10 = DIRECTION ( 'NONE',  ( 1.000000000000000000, 0.000000000000000000, -0.000000000000000000 ) ) ;
#11 = AXIS2_PLACEMENT_3D ( 'NONE', #302, #157, #241 ) ;
#12 = CLOSED_SHELL ( 'NONE', ( #69, #5, #19, #266, #144, #251, #114, #14, #208 ) ) ;
#13 = DESIGN_CONTEXT ( 'detailed design', #33, 'design' ) ;
#14 = ADVANCED_FACE ( 'NONE', ( #8 ), #106, .T. ) ;
#15 = AXIS2_PLACEMENT_3D ( 'NONE', #48, #68, #163 ) ;
#16 = VERTEX_POINT ( 'NONE', #57 ) ;
#17 = DIRECTION ( 'NONE',  ( 1.000000000000000000, 0.000000000000000000, 0.000000000000000000 ) ) ;
#18 = EDGE_LOOP ( 'NONE', ( #185, #102, #283, #234 ) ) ;
#19 = ADVANCED_FACE ( 'NONE', ( #291 ), #52, .T. ) ;
#20 = ORIENTED_EDGE ( 'NONE', *, *, #24, .F. ) ;
#21 = CARTESIAN_POINT ( 'NONE',  ( 0.000000000000000000, 0.000000000000000000, 128.0000000000000000 ) ) ;
#22 = ORIENTED_EDGE ( 'NONE', *, *, #271, .F. ) ;
#23 = CARTESIAN_POINT ( 'NONE',  ( -4.000000000000000000, 0.000000000000000000, 0.000000000000000000 ) ) ;
#24 = EDGE_CURVE ( 'NONE', #278, #16, #131, .T. ) ;
#25 = EDGE_LOOP ( 'NONE', ( #228, #60, #150, #80 ) ) ;
#26 = DATE_TIME_ROLE ( 'classification_date' ) ;
#27 = APPROVAL_ROLE ( '' ) ;
#28 =( GEOMETRIC_REPRESENTATION_CONTEXT ( 3 ) GLOBAL_UNCERTAINTY_ASSIGNED_CONTEXT ( ( #132 ) ) GLOBAL_UNIT_ASSIGNED_CONTEXT ( ( #191, #281, #78 ) ) REPRESENTATION_CONTEXT ( 'NONE', 'WORKASPACE' ) );
#29 = VERTEX_POINT ( 'NONE', #103 ) ;
#30 = APPLICATION_PROTOCOL_DEFINITION ( 'international standard', 'config_control_design', 1994, #33 ) ;
#31 = FACE_OUTER_BOUND ( 'NONE', #190, .T. ) ;
#32 = PERSON_AND_ORGANIZATION ( #94, #295 ) ;
#33 = APPLICATION_CONTEXT ( 'configuration controlled 3d designs of mechanical parts and assemblies' ) ;
#34 = EDGE_CURVE ( 'NONE', #192, #29, #230, .T. ) ;
#35 = FACE_OUTER_BOUND ( 'NONE', #93, .T. ) ;
#36 = LOCAL_TIME ( 12, 6, 10.00000000000000000, #242 ) ;
#37 = LOCAL_TIME ( 12, 6, 10.00000000000000000, #289 ) ;
#38 = ORIENTED_EDGE ( 'NONE', *, *, #169, .F. ) ;
#39 = ORIENTED_EDGE ( 'NONE', *, *, #117, .F. ) ;
#40 = FACE_OUTER_BOUND ( 'NONE', #86, .T. ) ;
#41 = SECURITY_CLASSIFICATION ( '', '', #9 ) ;
#42 = FACE_OUTER_BOUND ( 'NONE', #136, .T. ) ;
#43 = DIRECTION ( 'NONE',  ( 0.000000000000000000, -1.000000000000000000, 0.000000000000000000 ) ) ;
#44 = ORIENTED_EDGE ( 'NONE', *, *, #65, .T. ) ;
#45 = AXIS2_PLACEMENT_3D ( 'NONE', #120, #135, #100 ) ;
#46 = CYLINDRICAL_SURFACE ( 'NONE', #50, 4.000000000000000000 ) ;
#47 = CC_DESIGN_DATE_AND_TIME_ASSIGNMENT ( #292, #223, ( #218 ) ) ;
#48 = CARTESIAN_POINT ( 'NONE',  ( 0.000000000000000000, 0.000000000000000000, 0.000000000000000000 ) ) ;
#49 = DIRECTION ( 'NONE',  ( 1.000000000000000000, 0.000000000000000000, 0.000000000000000000 ) ) ;
#50 = AXIS2_PLACEMENT_3D ( 'NONE', #143, #121, #235 ) ;
#51 = CARTESIAN_POINT ( 'NONE',  ( 2.250000000000000000, 2.755455298081544285E-16, 128.0000000000000000 ) ) ;
#52 = CYLINDRICAL_SURFACE ( 'NONE', #273, 4.000000000000000000 ) ;
#53 = CALENDAR_DATE ( 2022, 20, 6 ) ;
#54 = ORIENTED_EDGE ( 'NONE', *, *, #34, .T. ) ;
#55 = EDGE_CURVE ( 'NONE', #192, #71, #90, .T. ) ;
#56 = PERSON_AND_ORGANIZATION_ROLE ( 'classification_officer' ) ;
#57 = CARTESIAN_POINT ( 'NONE',  ( 2.250000000000000000, 2.755455298081544285E-16, 3.199999999999994404 ) ) ;
#58 = DATE_AND_TIME ( #88, #221 ) ;
#59 = AXIS2_PLACEMENT_3D ( 'NONE', #254, #255, #299 ) ;
#60 = ORIENTED_EDGE ( 'NONE', *, *, #65, .F. ) ;
#61 = COORDINATED_UNIVERSAL_TIME_OFFSET ( 1, 0, .AHEAD. ) ;
#62 = DIRECTION ( 'NONE',  ( 1.000000000000000000, 0.000000000000000000, 0.000000000000000000 ) ) ;
#63 = CARTESIAN_POINT ( 'NONE',  ( 0.000000000000000000, 0.000000000000000000, 3.199999999999994404 ) ) ;
#64 = CIRCLE ( 'NONE', #253, 0.2000000000000000944 ) ;
#65 = EDGE_CURVE ( 'NONE', #16, #278, #139, .T. ) ;
#66 = CARTESIAN_POINT ( 'NONE',  ( 4.000000000000000000, 4.898587196589412829E-16, 3.000000000000000000 ) ) ;
#67 = AXIS2_PLACEMENT_3D ( 'NONE', #21, #276, #159 ) ;
#68 = DIRECTION ( 'NONE',  ( 0.000000000000000000, 0.000000000000000000, 1.000000000000000000 ) ) ;
#69 = ADVANCED_FACE ( 'NONE', ( #35 ), #215, .F. ) ;
#70 = PLANE ( 'NONE',  #245 ) ;
#71 = VERTEX_POINT ( 'NONE', #133 ) ;
#72 = LINE ( 'NONE', #147, #272 ) ;
#73 = ORIENTED_EDGE ( 'NONE', *, *, #98, .T. ) ;
#74 = FACE_OUTER_BOUND ( 'NONE', #129, .T. ) ;
#75 = DIRECTION ( 'NONE',  ( -0.000000000000000000, -0.000000000000000000, -1.000000000000000000 ) ) ;
#76 = AXIS2_PLACEMENT_3D ( 'NONE', #96, #79, #17 ) ;
#77 = VERTEX_POINT ( 'NONE', #152 ) ;
#78 =( NAMED_UNIT ( * ) SI_UNIT ( $, .STERADIAN. ) SOLID_ANGLE_UNIT ( ) );
#79 = DIRECTION ( 'NONE',  ( 0.000000000000000000, 0.000000000000000000, 1.000000000000000000 ) ) ;
#80 = ORIENTED_EDGE ( 'NONE', *, *, #98, .F. ) ;
#81 = DIRECTION ( 'NONE',  ( 0.000000000000000000, 0.000000000000000000, 1.000000000000000000 ) ) ;
#82 = DIRECTION ( 'NONE',  ( -1.000000000000000000, 0.000000000000000000, 0.000000000000000000 ) ) ;
#83 = DIRECTION ( 'NONE',  ( 0.000000000000000000, 0.000000000000000000, 1.000000000000000000 ) ) ;
#84 = COORDINATED_UNIVERSAL_TIME_OFFSET ( 1, 0, .AHEAD. ) ;
#85 = EDGE_CURVE ( 'NONE', #278, #134, #87, .T. ) ;
#86 = EDGE_LOOP ( 'NONE', ( #257, #268, #141, #300 ) ) ;
#87 = CIRCLE ( 'NONE', #250, 0.2000000000000000944 ) ;
#88 = CALENDAR_DATE ( 2022, 20, 6 ) ;
#89 = LOCAL_TIME ( 12, 6, 10.00000000000000000, #2 ) ;
#90 = LINE ( 'NONE', #66, #301 ) ;
#91 = APPROVAL_PERSON_ORGANIZATION ( #225, #296, #3 ) ;
#92 = DIRECTION ( 'NONE',  ( -0.000000000000000000, -0.000000000000000000, -1.000000000000000000 ) ) ;
#93 = EDGE_LOOP ( 'NONE', ( #20, #285, #22, #38 ) ) ;
#94 = PERSON ( 'NEURÈENÝ', 'NEURÈENÝ', 'NEURÈENÝ', ('NEURÈENÝ'), ('NEURÈENÝ'), ('NEURÈENÝ') ) ;
#95 = AXIS2_PLACEMENT_3D ( 'NONE', #288, #83, #148 ) ;
#96 = CARTESIAN_POINT ( 'NONE',  ( 0.000000000000000000, 0.000000000000000000, 3.000000000000000000 ) ) ;
#97 = ORIENTED_EDGE ( 'NONE', *, *, #138, .F. ) ;
#98 = EDGE_CURVE ( 'NONE', #134, #77, #7, .T. ) ;
#99 = CARTESIAN_POINT ( 'NONE',  ( -2.250000000000000000, 0.000000000000000000, 128.0000000000000000 ) ) ;
#100 = DIRECTION ( 'NONE',  ( 1.000000000000000000, 0.000000000000000000, 0.000000000000000000 ) ) ;
#101 = CC_DESIGN_PERSON_AND_ORGANIZATION_ASSIGNMENT ( #167, #56, ( #41 ) ) ;
#102 = ORIENTED_EDGE ( 'NONE', *, *, #55, .T. ) ;
#103 = CARTESIAN_POINT ( 'NONE',  ( -4.000000000000000000, 0.000000000000000000, 3.000000000000000000 ) ) ;
#104 = PERSON_AND_ORGANIZATION ( #94, #295 ) ;
#105 = CIRCLE ( 'NONE', #67, 2.250000000000000000 ) ;
#106 = PLANE ( 'NONE',  #188 ) ;
#107 = PERSON_AND_ORGANIZATION_ROLE ( 'creator' ) ;
#108 = AXIS2_PLACEMENT_3D ( 'NONE', #226, #127, #243 ) ;
#109 = CC_DESIGN_PERSON_AND_ORGANIZATION_ASSIGNMENT ( #170, #294, ( #218 ) ) ;
#110 = DIRECTION ( 'NONE',  ( -0.000000000000000000, -0.000000000000000000, -1.000000000000000000 ) ) ;
#111 = PERSON_AND_ORGANIZATION_ROLE ( 'design_supplier' ) ;
#112 = DIRECTION ( 'NONE',  ( 0.000000000000000000, 0.000000000000000000, 1.000000000000000000 ) ) ;
#113 = AXIS2_PLACEMENT_3D ( 'NONE', #261, #259, #186 ) ;
#114 = ADVANCED_FACE ( 'NONE', ( #40 ), #183, .T. ) ;
#115 = CIRCLE ( 'NONE', #145, 2.250000000000000000 ) ;
#116 = CARTESIAN_POINT ( 'NONE',  ( 2.449999999999999734, 0.000000000000000000, 3.199999999999994404 ) ) ;
#117 = EDGE_CURVE ( 'NONE', #29, #192, #193, .T. ) ;
#118 = AXIS2_PLACEMENT_3D ( 'NONE', #177, #270, #62 ) ;
#119 = LINE ( 'NONE', #162, #174 ) ;
#120 = CARTESIAN_POINT ( 'NONE',  ( 0.000000000000000000, 0.000000000000000000, 3.000000000000000000 ) ) ;
#121 = DIRECTION ( 'NONE',  ( -0.000000000000000000, -0.000000000000000000, -1.000000000000000000 ) ) ;
#122 = TOROIDAL_SURFACE ( 'NONE', #11, 2.449999999999999734, 0.2000000000000000111 ) ;
#123 = MECHANICAL_CONTEXT ( 'NONE', #181, 'mechanical' ) ;
#124 = CALENDAR_DATE ( 2022, 20, 6 ) ;
#125 = DATE_AND_TIME ( #53, #89 ) ;
#126 = PERSON_AND_ORGANIZATION_ROLE ( 'design_owner' ) ;
#127 = DIRECTION ( 'NONE',  ( -0.000000000000000000, -0.000000000000000000, -1.000000000000000000 ) ) ;
#128 = PERSON_AND_ORGANIZATION ( #94, #295 ) ;
#129 = EDGE_LOOP ( 'NONE', ( #202, #39, #240, #233 ) ) ;
#130 = DATE_AND_TIME ( #124, #155 ) ;
#131 = CIRCLE ( 'NONE', #187, 2.250000000000000000 ) ;
#132 = UNCERTAINTY_MEASURE_WITH_UNIT (LENGTH_MEASURE( 1.000000000000000082E-05 ), #191, 'distance_accuracy_value', 'NONE');
#133 = CARTESIAN_POINT ( 'NONE',  ( 4.000000000000000000, 4.898587196589412829E-16, 0.000000000000000000 ) ) ;
#134 = VERTEX_POINT ( 'NONE', #194 ) ;
#135 = DIRECTION ( 'NONE',  ( -0.000000000000000000, -0.000000000000000000, -1.000000000000000000 ) ) ;
#136 = EDGE_LOOP ( 'NONE', ( #246, #164 ) ) ;
#137 = DIRECTION ( 'NONE',  ( 0.000000000000000000, 0.000000000000000000, 1.000000000000000000 ) ) ;
#138 = EDGE_CURVE ( 'NONE', #305, #278, #282, .T. ) ;
#139 = CIRCLE ( 'NONE', #168, 2.250000000000000000 ) ;
#140 = DIRECTION ( 'NONE',  ( 0.000000000000000000, 0.000000000000000000, -1.000000000000000000 ) ) ;
#141 = ORIENTED_EDGE ( 'NONE', *, *, #138, .T. ) ;
#142 = EDGE_LOOP ( 'NONE', ( #213, #158 ) ) ;
#143 = CARTESIAN_POINT ( 'NONE',  ( 0.000000000000000000, 0.000000000000000000, 3.000000000000000000 ) ) ;
#144 = ADVANCED_FACE ( 'NONE', ( #160, #256 ), #70, .T. ) ;
#145 = AXIS2_PLACEMENT_3D ( 'NONE', #210, #137, #216 ) ;
#146 = ORIENTED_EDGE ( 'NONE', *, *, #232, .T. ) ;
#147 = CARTESIAN_POINT ( 'NONE',  ( 2.250000000000000000, 2.755455298081544285E-16, 128.0000000000000000 ) ) ;
#148 = DIRECTION ( 'NONE',  ( 1.000000000000000000, 0.000000000000000000, 0.000000000000000000 ) ) ;
#149 = PERSON_AND_ORGANIZATION ( #94, #295 ) ;
#150 = ORIENTED_EDGE ( 'NONE', *, *, #169, .T. ) ;
#151 = PRODUCT_DEFINITION_FORMATION_WITH_SPECIFIED_SOURCE ( 'LIBOVOLNÝ', '', #182, .NOT_KNOWN. ) ;
#152 = CARTESIAN_POINT ( 'NONE',  ( 2.449999999999999734, 0.000000000000000000, 2.999999999999997335 ) ) ;
#153 = CC_DESIGN_APPROVAL ( #154, ( #218 ) ) ;
#154 = APPROVAL ( #6, 'NEURÈENÝ' ) ;
#155 = LOCAL_TIME ( 12, 6, 10.00000000000000000, #61 ) ;
#156 = CARTESIAN_POINT ( 'NONE',  ( 0.000000000000000000, 0.000000000000000000, 128.0000000000000000 ) ) ;
#157 = DIRECTION ( 'NONE',  ( 0.000000000000000000, 0.000000000000000000, 1.000000000000000000 ) ) ;
#158 = ORIENTED_EDGE ( 'NONE', *, *, #303, .T. ) ;
#159 = DIRECTION ( 'NONE',  ( 1.000000000000000000, 0.000000000000000000, 0.000000000000000000 ) ) ;
#160 = FACE_BOUND ( 'NONE', #219, .T. ) ;
#161 = EDGE_LOOP ( 'NONE', ( #264, #54 ) ) ;
#162 = CARTESIAN_POINT ( 'NONE',  ( -4.000000000000000000, 0.000000000000000000, 3.000000000000000000 ) ) ;
#163 = DIRECTION ( 'NONE',  ( 1.000000000000000000, 0.000000000000000000, 0.000000000000000000 ) ) ;
#164 = ORIENTED_EDGE ( 'NONE', *, *, #287, .F. ) ;
#165 = DIRECTION ( 'NONE',  ( -0.000000000000000000, -0.000000000000000000, -1.000000000000000000 ) ) ;
#166 = DIRECTION ( 'NONE',  ( 0.000000000000000000, 0.000000000000000000, 1.000000000000000000 ) ) ;
#167 = PERSON_AND_ORGANIZATION ( #94, #295 ) ;
#168 = AXIS2_PLACEMENT_3D ( 'NONE', #63, #112, #252 ) ;
#169 = EDGE_CURVE ( 'NONE', #16, #77, #64, .T. ) ;
#170 = PERSON_AND_ORGANIZATION ( #94, #295 ) ;
#171 = DIRECTION ( 'NONE',  ( 0.000000000000000000, 0.000000000000000000, 1.000000000000000000 ) ) ;
#172 = CC_DESIGN_DATE_AND_TIME_ASSIGNMENT ( #125, #26, ( #41 ) ) ;
#173 = APPROVAL_DATE_TIME ( #130, #189 ) ;
#174 = VECTOR ( 'NONE', #286, 1000.000000000000000 ) ;
#175 = AXIS2_PLACEMENT_3D ( 'NONE', #156, #92, #279 ) ;
#176 = APPROVAL_DATE_TIME ( #58, #296 ) ;
#177 = CARTESIAN_POINT ( 'NONE',  ( 0.000000000000000000, 0.000000000000000000, 3.199999999999994404 ) ) ;
#178 = EDGE_CURVE ( 'NONE', #195, #71, #236, .T. ) ;
#179 = DIRECTION ( 'NONE',  ( -0.000000000000000000, -0.000000000000000000, -1.000000000000000000 ) ) ;
#180 = CC_DESIGN_APPROVAL ( #296, ( #151 ) ) ;
#181 = APPLICATION_CONTEXT ( 'configuration controlled 3d designs of mechanical parts and assemblies' ) ;
#182 = PRODUCT ( '769b', '769b', '', ( #123 ) ) ;
#183 = CYLINDRICAL_SURFACE ( 'NONE', #175, 2.250000000000000000 ) ;
#184 = AXIS2_PLACEMENT_3D ( 'NONE', #284, #166, #237 ) ;
#185 = ORIENTED_EDGE ( 'NONE', *, *, #34, .F. ) ;
#186 = DIRECTION ( 'NONE',  ( 1.000000000000000000, 0.000000000000000000, 0.000000000000000000 ) ) ;
#187 = AXIS2_PLACEMENT_3D ( 'NONE', #260, #201, #1 ) ;
#188 = AXIS2_PLACEMENT_3D ( 'NONE', #203, #171, #10 ) ;
#189 = APPROVAL ( #247, 'NEURÈENÝ' ) ;
#190 = EDGE_LOOP ( 'NONE', ( #199, #146, #44, #97 ) ) ;
#191 =( LENGTH_UNIT ( ) NAMED_UNIT ( * ) SI_UNIT ( .MILLI., .METRE. ) );
#192 = VERTEX_POINT ( 'NONE', #258 ) ;
#193 = CIRCLE ( 'NONE', #76, 4.000000000000000000 ) ;
#194 = CARTESIAN_POINT ( 'NONE',  ( -2.449999999999999734, 3.000384657911015370E-16, 2.999999999999997335 ) ) ;
#195 = VERTEX_POINT ( 'NONE', #23 ) ;
#196 = EDGE_CURVE ( 'NONE', #305, #238, #115, .T. ) ;
#197 = CARTESIAN_POINT ( 'NONE',  ( 0.000000000000000000, 0.000000000000000000, 0.000000000000000000 ) ) ;
#198 = PRODUCT_DEFINITION_SHAPE ( 'NONE', 'NONE',  #218 ) ;
#199 = ORIENTED_EDGE ( 'NONE', *, *, #303, .F. ) ;
#200 = PLANE ( 'NONE',  #184 ) ;
#201 = DIRECTION ( 'NONE',  ( 0.000000000000000000, 0.000000000000000000, 1.000000000000000000 ) ) ;
#202 = ORIENTED_EDGE ( 'NONE', *, *, #55, .F. ) ;
#203 = CARTESIAN_POINT ( 'NONE',  ( 0.000000000000000000, 0.000000000000000000, 128.0000000000000000 ) ) ;
#204 = APPROVAL_DATE_TIME ( #205, #154 ) ;
#205 = DATE_AND_TIME ( #207, #36 ) ;
#206 = CIRCLE ( 'NONE', #59, 4.000000000000000000 ) ;
#207 = CALENDAR_DATE ( 2022, 20, 6 ) ;
#208 = ADVANCED_FACE ( 'NONE', ( #214 ), #122, .F. ) ;
#209 = CC_DESIGN_PERSON_AND_ORGANIZATION_ASSIGNMENT ( #104, #111, ( #151 ) ) ;
#210 = CARTESIAN_POINT ( 'NONE',  ( 0.000000000000000000, 0.000000000000000000, 128.0000000000000000 ) ) ;
#211 = DIRECTION ( 'NONE',  ( -1.000000000000000000, 1.224646799147353207E-16, 0.000000000000000000 ) ) ;
#212 = CC_DESIGN_PERSON_AND_ORGANIZATION_ASSIGNMENT ( #32, #126, ( #182 ) ) ;
#213 = ORIENTED_EDGE ( 'NONE', *, *, #196, .T. ) ;
#214 = FACE_OUTER_BOUND ( 'NONE', #25, .T. ) ;
#215 = TOROIDAL_SURFACE ( 'NONE', #118, 2.449999999999999734, 0.2000000000000000111 ) ;
#216 = DIRECTION ( 'NONE',  ( 1.000000000000000000, 0.000000000000000000, 0.000000000000000000 ) ) ;
#217 = CARTESIAN_POINT ( 'NONE',  ( 0.000000000000000000, 0.000000000000000000, 3.000000000000000000 ) ) ;
#218 = PRODUCT_DEFINITION ( 'NEZNÁMÝ', '', #151, #13 ) ;
#219 = EDGE_LOOP ( 'NONE', ( #280, #73 ) ) ;
#220 = CARTESIAN_POINT ( 'NONE',  ( -2.250000000000000000, 0.000000000000000000, 3.199999999999994404 ) ) ;
#221 = LOCAL_TIME ( 12, 6, 10.00000000000000000, #84 ) ;
#222 = CARTESIAN_POINT ( 'NONE',  ( 0.000000000000000000, 0.000000000000000000, 3.000000000000000000 ) ) ;
#223 = DATE_TIME_ROLE ( 'creation_date' ) ;
#224 = ADVANCED_BREP_SHAPE_REPRESENTATION ( '769b', ( #307, #229 ), #28 ) ;
#225 = PERSON_AND_ORGANIZATION ( #94, #295 ) ;
#226 = CARTESIAN_POINT ( 'NONE',  ( 0.000000000000000000, 0.000000000000000000, 128.0000000000000000 ) ) ;
#227 = EDGE_CURVE ( 'NONE', #29, #195, #119, .T. ) ;
#228 = ORIENTED_EDGE ( 'NONE', *, *, #85, .F. ) ;
#229 = AXIS2_PLACEMENT_3D ( 'NONE', #197, #81, #49 ) ;
#230 = CIRCLE ( 'NONE', #95, 4.000000000000000000 ) ;
#231 = CC_DESIGN_APPROVAL ( #189, ( #41 ) ) ;
#232 = EDGE_CURVE ( 'NONE', #238, #16, #72, .T. ) ;
#233 = ORIENTED_EDGE ( 'NONE', *, *, #178, .T. ) ;
#234 = ORIENTED_EDGE ( 'NONE', *, *, #227, .F. ) ;
#235 = DIRECTION ( 'NONE',  ( -1.000000000000000000, 0.000000000000000000, 0.000000000000000000 ) ) ;
#236 = CIRCLE ( 'NONE', #15, 4.000000000000000000 ) ;
#237 = DIRECTION ( 'NONE',  ( 1.000000000000000000, 0.000000000000000000, -0.000000000000000000 ) ) ;
#238 = VERTEX_POINT ( 'NONE', #51 ) ;
#239 = DIRECTION ( 'NONE',  ( 0.000000000000000000, 0.000000000000000000, 1.000000000000000000 ) ) ;
#240 = ORIENTED_EDGE ( 'NONE', *, *, #227, .T. ) ;
#241 = DIRECTION ( 'NONE',  ( 1.000000000000000000, 0.000000000000000000, 0.000000000000000000 ) ) ;
#242 = COORDINATED_UNIVERSAL_TIME_OFFSET ( 1, 0, .AHEAD. ) ;
#243 = DIRECTION ( 'NONE',  ( -1.000000000000000000, 0.000000000000000000, 0.000000000000000000 ) ) ;
#244 = APPROVAL_STATUS ( 'not_yet_approved' ) ;
#245 = AXIS2_PLACEMENT_3D ( 'NONE', #217, #239, #277 ) ;
#246 = ORIENTED_EDGE ( 'NONE', *, *, #178, .F. ) ;
#247 = APPROVAL_STATUS ( 'not_yet_approved' ) ;
#248 = CC_DESIGN_PERSON_AND_ORGANIZATION_ASSIGNMENT ( #263, #107, ( #151 ) ) ;
#249 = CARTESIAN_POINT ( 'NONE',  ( -2.449999999999999734, 3.000384657911015370E-16, 3.199999999999994404 ) ) ;
#250 = AXIS2_PLACEMENT_3D ( 'NONE', #249, #274, #211 ) ;
#251 = ADVANCED_FACE ( 'NONE', ( #42 ), #200, .F. ) ;
#252 = DIRECTION ( 'NONE',  ( 1.000000000000000000, 0.000000000000000000, 0.000000000000000000 ) ) ;
#253 = AXIS2_PLACEMENT_3D ( 'NONE', #116, #43, #140 ) ;
#254 = CARTESIAN_POINT ( 'NONE',  ( 0.000000000000000000, 0.000000000000000000, 0.000000000000000000 ) ) ;
#255 = DIRECTION ( 'NONE',  ( 0.000000000000000000, 0.000000000000000000, 1.000000000000000000 ) ) ;
#256 = FACE_OUTER_BOUND ( 'NONE', #161, .T. ) ;
#257 = ORIENTED_EDGE ( 'NONE', *, *, #232, .F. ) ;
#258 = CARTESIAN_POINT ( 'NONE',  ( 4.000000000000000000, 4.898587196589412829E-16, 3.000000000000000000 ) ) ;
#259 = DIRECTION ( 'NONE',  ( -0.000000000000000000, -0.000000000000000000, -1.000000000000000000 ) ) ;
#260 = CARTESIAN_POINT ( 'NONE',  ( 0.000000000000000000, 0.000000000000000000, 3.199999999999994404 ) ) ;
#261 = CARTESIAN_POINT ( 'NONE',  ( 0.000000000000000000, 0.000000000000000000, 3.000000000000000000 ) ) ;
#262 = CYLINDRICAL_SURFACE ( 'NONE', #108, 2.250000000000000000 ) ;
#263 = PERSON_AND_ORGANIZATION ( #94, #295 ) ;
#264 = ORIENTED_EDGE ( 'NONE', *, *, #117, .T. ) ;
#265 = CALENDAR_DATE ( 2022, 20, 6 ) ;
#266 = ADVANCED_FACE ( 'NONE', ( #74 ), #46, .T. ) ;
#267 = CIRCLE ( 'NONE', #113, 2.449999999999999734 ) ;
#268 = ORIENTED_EDGE ( 'NONE', *, *, #196, .F. ) ;
#269 = APPROVAL_ROLE ( '' ) ;
#270 = DIRECTION ( 'NONE',  ( 0.000000000000000000, 0.000000000000000000, 1.000000000000000000 ) ) ;
#271 = EDGE_CURVE ( 'NONE', #77, #134, #267, .T. ) ;
#272 = VECTOR ( 'NONE', #165, 1000.000000000000000 ) ;
#273 = AXIS2_PLACEMENT_3D ( 'NONE', #222, #110, #82 ) ;
#274 = DIRECTION ( 'NONE',  ( 1.224646799147353207E-16, 1.000000000000000000, -0.000000000000000000 ) ) ;
#275 = VECTOR ( 'NONE', #75, 1000.000000000000000 ) ;
#276 = DIRECTION ( 'NONE',  ( 0.000000000000000000, 0.000000000000000000, 1.000000000000000000 ) ) ;
#277 = DIRECTION ( 'NONE',  ( 1.000000000000000000, 0.000000000000000000, -0.000000000000000000 ) ) ;
#278 = VERTEX_POINT ( 'NONE', #220 ) ;
#279 = DIRECTION ( 'NONE',  ( -1.000000000000000000, 0.000000000000000000, 0.000000000000000000 ) ) ;
#280 = ORIENTED_EDGE ( 'NONE', *, *, #271, .T. ) ;
#281 =( NAMED_UNIT ( * ) PLANE_ANGLE_UNIT ( ) SI_UNIT ( $, .RADIAN. ) );
#282 = LINE ( 'NONE', #297, #275 ) ;
#283 = ORIENTED_EDGE ( 'NONE', *, *, #287, .T. ) ;
#284 = CARTESIAN_POINT ( 'NONE',  ( 0.000000000000000000, 0.000000000000000000, 0.000000000000000000 ) ) ;
#285 = ORIENTED_EDGE ( 'NONE', *, *, #85, .T. ) ;
#286 = DIRECTION ( 'NONE',  ( -0.000000000000000000, -0.000000000000000000, -1.000000000000000000 ) ) ;
#287 = EDGE_CURVE ( 'NONE', #71, #195, #206, .T. ) ;
#288 = CARTESIAN_POINT ( 'NONE',  ( 0.000000000000000000, 0.000000000000000000, 3.000000000000000000 ) ) ;
#289 = COORDINATED_UNIVERSAL_TIME_OFFSET ( 1, 0, .AHEAD. ) ;
#290 = SHAPE_DEFINITION_REPRESENTATION ( #198, #224 ) ;
#291 = FACE_OUTER_BOUND ( 'NONE', #18, .T. ) ;
#292 = DATE_AND_TIME ( #265, #37 ) ;
#293 = APPROVAL_PERSON_ORGANIZATION ( #149, #189, #269 ) ;
#294 = PERSON_AND_ORGANIZATION_ROLE ( 'creator' ) ;
#295 = ORGANIZATION ( 'NEURÈENÝ', 'NEURÈENÝ', '' ) ;
#296 = APPROVAL ( #244, 'NEURÈENÝ' ) ;
#297 = CARTESIAN_POINT ( 'NONE',  ( -2.250000000000000000, 0.000000000000000000, 128.0000000000000000 ) ) ;
#298 = CC_DESIGN_SECURITY_CLASSIFICATION ( #41, ( #151 ) ) ;
#299 = DIRECTION ( 'NONE',  ( 1.000000000000000000, 0.000000000000000000, 0.000000000000000000 ) ) ;
#300 = ORIENTED_EDGE ( 'NONE', *, *, #24, .T. ) ;
#301 = VECTOR ( 'NONE', #179, 1000.000000000000000 ) ;
#302 = CARTESIAN_POINT ( 'NONE',  ( 0.000000000000000000, 0.000000000000000000, 3.199999999999994404 ) ) ;
#303 = EDGE_CURVE ( 'NONE', #238, #305, #105, .T. ) ;
#304 = PRODUCT_RELATED_PRODUCT_CATEGORY ( 'detail', '', ( #182 ) ) ;
#305 = VERTEX_POINT ( 'NONE', #99 ) ;
#306 = APPLICATION_PROTOCOL_DEFINITION ( 'international standard', 'config_control_design', 1994, #181 ) ;
#307 = MANIFOLD_SOLID_BREP ( 'Zaoblit1', #12 ) ;
ENDSEC;
END-ISO-10303-21;
