ISO-10303-21;
HEADER;
FILE_DESCRIPTION (( 'STEP AP203' ),
    '1' );
FILE_NAME ('7a39.STEP',
    '2022-06-20T09:55:34',
    ( '' ),
    ( '' ),
    'SwSTEP 2.0',
    'SolidWorks 2019',
    '' );
FILE_SCHEMA (( 'CONFIG_CONTROL_DESIGN' ));
ENDSEC;

DATA;
#1 = FACE_OUTER_BOUND ( 'NONE', #66, .T. ) ;
#2 = UNCERTAINTY_MEASURE_WITH_UNIT (LENGTH_MEASURE( 1.000000000000000082E-05 ), #279, 'distance_accuracy_value', 'NONE');
#3 = CARTESIAN_POINT ( 'NONE',  ( 0.000000000000000000, 0.000000000000000000, 5.199999999999982414 ) ) ;
#4 = CC_DESIGN_PERSON_AND_ORGANIZATION_ASSIGNMENT ( #55, #149, ( #163 ) ) ;
#5 = CALENDAR_DATE ( 2022, 20, 6 ) ;
#6 = CARTESIAN_POINT ( 'NONE',  ( -3.299999999999999822, 4.041334437186265510E-16, 5.199999999999982414 ) ) ;
#7 = DIRECTION ( 'NONE',  ( 1.000000000000000000, 0.000000000000000000, 0.000000000000000000 ) ) ;
#8 = CARTESIAN_POINT ( 'NONE',  ( 3.100000000000000089, 3.796405077356794918E-16, 505.0000000000000000 ) ) ;
#9 = APPROVAL_DATE_TIME ( #244, #167 ) ;
#10 = DIRECTION ( 'NONE',  ( -0.000000000000000000, -0.000000000000000000, -1.000000000000000000 ) ) ;
#11 = DIRECTION ( 'NONE',  ( -0.000000000000000000, -0.000000000000000000, -1.000000000000000000 ) ) ;
#12 = CARTESIAN_POINT ( 'NONE',  ( 6.000000000000000888, 7.347880794884120722E-16, 0.000000000000000000 ) ) ;
#13 = DIRECTION ( 'NONE',  ( 1.000000000000000000, 0.000000000000000000, 0.000000000000000000 ) ) ;
#14 = EDGE_LOOP ( 'NONE', ( #210, #230, #213, #140 ) ) ;
#15 = EDGE_LOOP ( 'NONE', ( #42, #225, #136, #51 ) ) ;
#16 = ADVANCED_FACE ( 'NONE', ( #115 ), #19, .F. ) ;
#17 = ORIENTED_EDGE ( 'NONE', *, *, #223, .F. ) ;
#18 = ADVANCED_FACE ( 'NONE', ( #235 ), #45, .F. ) ;
#19 = PLANE ( 'NONE',  #254 ) ;
#20 = DIRECTION ( 'NONE',  ( 0.000000000000000000, 0.000000000000000000, -1.000000000000000000 ) ) ;
#21 = AXIS2_PLACEMENT_3D ( 'NONE', #222, #112, #7 ) ;
#22 = DIRECTION ( 'NONE',  ( 0.000000000000000000, 0.000000000000000000, 1.000000000000000000 ) ) ;
#23 = PRODUCT_RELATED_PRODUCT_CATEGORY ( 'detail', '', ( #270 ) ) ;
#24 = ORIENTED_EDGE ( 'NONE', *, *, #48, .T. ) ;
#25 = SECURITY_CLASSIFICATION ( '', '', #29 ) ;
#26 = CALENDAR_DATE ( 2022, 20, 6 ) ;
#27 = CARTESIAN_POINT ( 'NONE',  ( 0.000000000000000000, 0.000000000000000000, 5.000000000000000000 ) ) ;
#28 = CARTESIAN_POINT ( 'NONE',  ( 0.000000000000000000, 0.000000000000000000, 505.0000000000000000 ) ) ;
#29 = SECURITY_CLASSIFICATION_LEVEL ( 'unclassified' ) ;
#30 = CIRCLE ( 'NONE', #80, 6.000000000000000888 ) ;
#31 = PERSON_AND_ORGANIZATION ( #69, #302 ) ;
#32 = APPLICATION_CONTEXT ( 'configuration controlled 3d designs of mechanical parts and assemblies' ) ;
#33 = CARTESIAN_POINT ( 'NONE',  ( -3.100000000000000089, 0.000000000000000000, 505.0000000000000000 ) ) ;
#34 = CC_DESIGN_PERSON_AND_ORGANIZATION_ASSIGNMENT ( #151, #247, ( #163 ) ) ;
#35 = DIRECTION ( 'NONE',  ( 1.000000000000000000, 0.000000000000000000, 0.000000000000000000 ) ) ;
#36 = AXIS2_PLACEMENT_3D ( 'NONE', #49, #143, #239 ) ;
#37 = SHAPE_DEFINITION_REPRESENTATION ( #196, #85 ) ;
#38 = VERTEX_POINT ( 'NONE', #166 ) ;
#39 = ADVANCED_FACE ( 'NONE', ( #219 ), #294, .F. ) ;
#40 = CYLINDRICAL_SURFACE ( 'NONE', #117, 6.000000000000000888 ) ;
#41 = VERTEX_POINT ( 'NONE', #144 ) ;
#42 = ORIENTED_EDGE ( 'NONE', *, *, #48, .F. ) ;
#43 = VECTOR ( 'NONE', #59, 1000.000000000000000 ) ;
#44 = ORIENTED_EDGE ( 'NONE', *, *, #237, .F. ) ;
#45 = TOROIDAL_SURFACE ( 'NONE', #130, 3.299999999999999822, 0.2000000000000000111 ) ;
#46 = DIRECTION ( 'NONE',  ( 0.000000000000000000, -1.000000000000000000, 0.000000000000000000 ) ) ;
#47 = DIRECTION ( 'NONE',  ( 0.000000000000000000, 0.000000000000000000, 1.000000000000000000 ) ) ;
#48 = EDGE_CURVE ( 'NONE', #72, #108, #157, .T. ) ;
#49 = CARTESIAN_POINT ( 'NONE',  ( 0.000000000000000000, 0.000000000000000000, 5.000000000000000000 ) ) ;
#50 = PERSON_AND_ORGANIZATION_ROLE ( 'creator' ) ;
#51 = ORIENTED_EDGE ( 'NONE', *, *, #189, .F. ) ;
#52 = CARTESIAN_POINT ( 'NONE',  ( 0.000000000000000000, 0.000000000000000000, 5.000000000000000000 ) ) ;
#53 = DIRECTION ( 'NONE',  ( 0.000000000000000000, 0.000000000000000000, 1.000000000000000000 ) ) ;
#54 = APPROVAL_PERSON_ORGANIZATION ( #31, #139, #159 ) ;
#55 = PERSON_AND_ORGANIZATION ( #69, #302 ) ;
#56 = LINE ( 'NONE', #33, #43 ) ;
#57 = AXIS2_PLACEMENT_3D ( 'NONE', #3, #47, #266 ) ;
#58 = DIRECTION ( 'NONE',  ( 1.000000000000000000, 0.000000000000000000, -0.000000000000000000 ) ) ;
#59 = DIRECTION ( 'NONE',  ( -0.000000000000000000, -0.000000000000000000, -1.000000000000000000 ) ) ;
#60 = AXIS2_PLACEMENT_3D ( 'NONE', #197, #292, #78 ) ;
#61 = EDGE_CURVE ( 'NONE', #285, #232, #301, .T. ) ;
#62 = DATE_AND_TIME ( #84, #145 ) ;
#63 = APPLICATION_CONTEXT ( 'configuration controlled 3d designs of mechanical parts and assemblies' ) ;
#64 = EDGE_CURVE ( 'NONE', #107, #67, #165, .T. ) ;
#65 = CIRCLE ( 'NONE', #96, 3.100000000000000089 ) ;
#66 = EDGE_LOOP ( 'NONE', ( #303, #188, #233, #17 ) ) ;
#67 = VERTEX_POINT ( 'NONE', #195 ) ;
#68 = ORIENTED_EDGE ( 'NONE', *, *, #116, .T. ) ;
#69 = PERSON ( 'NEURÈENÝ', 'NEURÈENÝ', 'NEURÈENÝ', ('NEURÈENÝ'), ('NEURÈENÝ'), ('NEURÈENÝ') ) ;
#70 = CARTESIAN_POINT ( 'NONE',  ( 0.000000000000000000, 0.000000000000000000, 505.0000000000000000 ) ) ;
#71 = CYLINDRICAL_SURFACE ( 'NONE', #231, 3.100000000000000089 ) ;
#72 = VERTEX_POINT ( 'NONE', #243 ) ;
#73 = CARTESIAN_POINT ( 'NONE',  ( 3.299999999999999822, 0.000000000000000000, 5.199999999999982414 ) ) ;
#74 = APPROVAL_DATE_TIME ( #202, #182 ) ;
#75 = DATE_TIME_ROLE ( 'creation_date' ) ;
#76 = CLOSED_SHELL ( 'NONE', ( #39, #132, #175, #262, #227, #16, #201, #291, #18 ) ) ;
#77 = DIRECTION ( 'NONE',  ( -1.000000000000000000, 0.000000000000000000, 0.000000000000000000 ) ) ;
#78 = DIRECTION ( 'NONE',  ( 1.000000000000000000, 0.000000000000000000, 0.000000000000000000 ) ) ;
#79 = DIRECTION ( 'NONE',  ( -0.000000000000000000, -0.000000000000000000, -1.000000000000000000 ) ) ;
#80 = AXIS2_PLACEMENT_3D ( 'NONE', #103, #208, #300 ) ;
#81 = CC_DESIGN_DATE_AND_TIME_ASSIGNMENT ( #251, #284, ( #25 ) ) ;
#82 = APPROVAL_STATUS ( 'not_yet_approved' ) ;
#83 = CARTESIAN_POINT ( 'NONE',  ( 0.000000000000000000, 0.000000000000000000, 505.0000000000000000 ) ) ;
#84 = CALENDAR_DATE ( 2022, 20, 6 ) ;
#85 = ADVANCED_BREP_SHAPE_REPRESENTATION ( '7a39', ( #191, #60 ), #258 ) ;
#86 = VERTEX_POINT ( 'NONE', #92 ) ;
#87 = AXIS2_PLACEMENT_3D ( 'NONE', #150, #11, #125 ) ;
#88 = ORIENTED_EDGE ( 'NONE', *, *, #89, .T. ) ;
#89 = EDGE_CURVE ( 'NONE', #41, #38, #246, .T. ) ;
#90 = ORIENTED_EDGE ( 'NONE', *, *, #156, .F. ) ;
#91 = EDGE_CURVE ( 'NONE', #72, #86, #288, .T. ) ;
#92 = CARTESIAN_POINT ( 'NONE',  ( 3.100000000000000089, 3.796405077356794918E-16, 5.199999999999982414 ) ) ;
#93 = CIRCLE ( 'NONE', #178, 0.1999999999999996503 ) ;
#94 = DIRECTION ( 'NONE',  ( 1.000000000000000000, 0.000000000000000000, 0.000000000000000000 ) ) ;
#95 = AXIS2_PLACEMENT_3D ( 'NONE', #255, #206, #226 ) ;
#96 = AXIS2_PLACEMENT_3D ( 'NONE', #141, #53, #171 ) ;
#97 = FACE_OUTER_BOUND ( 'NONE', #185, .T. ) ;
#98 = DIRECTION ( 'NONE',  ( 1.224646799147353207E-16, 1.000000000000000000, -0.000000000000000000 ) ) ;
#99 = COORDINATED_UNIVERSAL_TIME_OFFSET ( 1, 0, .AHEAD. ) ;
#100 = CARTESIAN_POINT ( 'NONE',  ( -3.299999999999999822, 4.041334437186265510E-16, 4.999999999999991118 ) ) ;
#101 = CC_DESIGN_APPROVAL ( #182, ( #163 ) ) ;
#102 = PERSON_AND_ORGANIZATION ( #69, #302 ) ;
#103 = CARTESIAN_POINT ( 'NONE',  ( 0.000000000000000000, 0.000000000000000000, 0.000000000000000000 ) ) ;
#104 = EDGE_CURVE ( 'NONE', #86, #261, #93, .T. ) ;
#105 = PRODUCT_DEFINITION ( 'NEZNÁMÝ', '', #163, #267 ) ;
#106 = AXIS2_PLACEMENT_3D ( 'NONE', #293, #268, #94 ) ;
#107 = VERTEX_POINT ( 'NONE', #172 ) ;
#108 = VERTEX_POINT ( 'NONE', #100 ) ;
#109 = ORIENTED_EDGE ( 'NONE', *, *, #250, .F. ) ;
#110 = CIRCLE ( 'NONE', #211, 3.100000000000000089 ) ;
#111 = EDGE_CURVE ( 'NONE', #86, #72, #65, .T. ) ;
#112 = DIRECTION ( 'NONE',  ( 0.000000000000000000, 0.000000000000000000, 1.000000000000000000 ) ) ;
#113 = DIRECTION ( 'NONE',  ( -0.000000000000000000, -0.000000000000000000, -1.000000000000000000 ) ) ;
#114 = COORDINATED_UNIVERSAL_TIME_OFFSET ( 1, 0, .AHEAD. ) ;
#115 = FACE_OUTER_BOUND ( 'NONE', #265, .T. ) ;
#116 = EDGE_CURVE ( 'NONE', #38, #232, #273, .T. ) ;
#117 = AXIS2_PLACEMENT_3D ( 'NONE', #52, #148, #77 ) ;
#118 = LOCAL_TIME ( 11, 55, 34.00000000000000000, #114 ) ;
#119 = APPLICATION_PROTOCOL_DEFINITION ( 'international standard', 'config_control_design', 1994, #63 ) ;
#120 = ORIENTED_EDGE ( 'NONE', *, *, #91, .T. ) ;
#121 = CC_DESIGN_PERSON_AND_ORGANIZATION_ASSIGNMENT ( #102, #205, ( #25 ) ) ;
#122 = COORDINATED_UNIVERSAL_TIME_OFFSET ( 1, 0, .AHEAD. ) ;
#123 = DIRECTION ( 'NONE',  ( -0.000000000000000000, -0.000000000000000000, -1.000000000000000000 ) ) ;
#124 = AXIS2_PLACEMENT_3D ( 'NONE', #6, #98, #200 ) ;
#125 = DIRECTION ( 'NONE',  ( -1.000000000000000000, 0.000000000000000000, 0.000000000000000000 ) ) ;
#126 = EDGE_CURVE ( 'NONE', #261, #108, #169, .T. ) ;
#127 = APPROVAL_ROLE ( '' ) ;
#128 = CYLINDRICAL_SURFACE ( 'NONE', #87, 6.000000000000000888 ) ;
#129 = FACE_OUTER_BOUND ( 'NONE', #214, .T. ) ;
#130 = AXIS2_PLACEMENT_3D ( 'NONE', #215, #307, #240 ) ;
#131 = FACE_OUTER_BOUND ( 'NONE', #134, .T. ) ;
#132 = ADVANCED_FACE ( 'NONE', ( #1 ), #71, .T. ) ;
#133 =( NAMED_UNIT ( * ) SI_UNIT ( $, .STERADIAN. ) SOLID_ANGLE_UNIT ( ) );
#134 = EDGE_LOOP ( 'NONE', ( #88, #287 ) ) ;
#135 = AXIS2_PLACEMENT_3D ( 'NONE', #295, #289, #168 ) ;
#136 = ORIENTED_EDGE ( 'NONE', *, *, #104, .T. ) ;
#137 = ORIENTED_EDGE ( 'NONE', *, *, #91, .F. ) ;
#138 = AXIS2_PLACEMENT_3D ( 'NONE', #28, #181, #58 ) ;
#139 = APPROVAL ( #82, 'NEURÈENÝ' ) ;
#140 = ORIENTED_EDGE ( 'NONE', *, *, #61, .T. ) ;
#141 = CARTESIAN_POINT ( 'NONE',  ( 0.000000000000000000, 0.000000000000000000, 5.199999999999982414 ) ) ;
#142 = DIRECTION ( 'NONE',  ( 1.000000000000000000, 0.000000000000000000, 0.000000000000000000 ) ) ;
#143 = DIRECTION ( 'NONE',  ( 0.000000000000000000, 0.000000000000000000, 1.000000000000000000 ) ) ;
#144 = CARTESIAN_POINT ( 'NONE',  ( -6.000000000000000888, 0.000000000000000000, 5.000000000000000000 ) ) ;
#145 = LOCAL_TIME ( 11, 55, 34.00000000000000000, #257 ) ;
#146 = MECHANICAL_CONTEXT ( 'NONE', #32, 'mechanical' ) ;
#147 = CARTESIAN_POINT ( 'NONE',  ( 6.000000000000000888, 7.347880794884120722E-16, 5.000000000000000000 ) ) ;
#148 = DIRECTION ( 'NONE',  ( -0.000000000000000000, -0.000000000000000000, -1.000000000000000000 ) ) ;
#149 = PERSON_AND_ORGANIZATION_ROLE ( 'creator' ) ;
#150 = CARTESIAN_POINT ( 'NONE',  ( 0.000000000000000000, 0.000000000000000000, 5.000000000000000000 ) ) ;
#151 = PERSON_AND_ORGANIZATION ( #69, #302 ) ;
#152 = DIRECTION ( 'NONE',  ( -0.000000000000000000, -0.000000000000000000, -1.000000000000000000 ) ) ;
#153 = AXIS2_PLACEMENT_3D ( 'NONE', #280, #209, #184 ) ;
#154 = LOCAL_TIME ( 11, 55, 34.00000000000000000, #297 ) ;
#155 = LINE ( 'NONE', #8, #256 ) ;
#156 = EDGE_CURVE ( 'NONE', #38, #41, #220, .T. ) ;
#157 = CIRCLE ( 'NONE', #124, 0.2000000000000000944 ) ;
#158 =( NAMED_UNIT ( * ) PLANE_ANGLE_UNIT ( ) SI_UNIT ( $, .RADIAN. ) );
#159 = APPROVAL_ROLE ( '' ) ;
#160 = CARTESIAN_POINT ( 'NONE',  ( 3.299999999999999822, 0.000000000000000000, 4.999999999999991118 ) ) ;
#161 = EDGE_LOOP ( 'NONE', ( #304, #228 ) ) ;
#162 = ORIENTED_EDGE ( 'NONE', *, *, #189, .T. ) ;
#163 = PRODUCT_DEFINITION_FORMATION_WITH_SPECIFIED_SOURCE ( 'LIBOVOLNÝ', '', #270, .NOT_KNOWN. ) ;
#164 = ORIENTED_EDGE ( 'NONE', *, *, #126, .T. ) ;
#165 = CIRCLE ( 'NONE', #193, 3.100000000000000089 ) ;
#166 = CARTESIAN_POINT ( 'NONE',  ( 6.000000000000000888, 7.347880794884120722E-16, 5.000000000000000000 ) ) ;
#167 = APPROVAL ( #204, 'NEURÈENÝ' ) ;
#168 = DIRECTION ( 'NONE',  ( 1.000000000000000000, 0.000000000000000000, 0.000000000000000000 ) ) ;
#169 = CIRCLE ( 'NONE', #305, 3.299999999999999822 ) ;
#170 = CARTESIAN_POINT ( 'NONE',  ( 0.000000000000000000, 0.000000000000000000, 505.0000000000000000 ) ) ;
#171 = DIRECTION ( 'NONE',  ( 1.000000000000000000, 0.000000000000000000, 0.000000000000000000 ) ) ;
#172 = CARTESIAN_POINT ( 'NONE',  ( 3.100000000000000089, 3.796405077356794918E-16, 505.0000000000000000 ) ) ;
#173 = PLANE ( 'NONE',  #138 ) ;
#174 = PERSON_AND_ORGANIZATION ( #69, #302 ) ;
#175 = ADVANCED_FACE ( 'NONE', ( #97 ), #128, .T. ) ;
#176 = LINE ( 'NONE', #252, #248 ) ;
#177 = CC_DESIGN_PERSON_AND_ORGANIZATION_ASSIGNMENT ( #271, #50, ( #105 ) ) ;
#178 = AXIS2_PLACEMENT_3D ( 'NONE', #73, #46, #20 ) ;
#179 = VECTOR ( 'NONE', #123, 1000.000000000000000 ) ;
#180 = CYLINDRICAL_SURFACE ( 'NONE', #153, 3.100000000000000089 ) ;
#181 = DIRECTION ( 'NONE',  ( 0.000000000000000000, 0.000000000000000000, 1.000000000000000000 ) ) ;
#182 = APPROVAL ( #224, 'NEURÈENÝ' ) ;
#183 = APPROVAL_DATE_TIME ( #62, #139 ) ;
#184 = DIRECTION ( 'NONE',  ( -1.000000000000000000, 0.000000000000000000, 0.000000000000000000 ) ) ;
#185 = EDGE_LOOP ( 'NONE', ( #90, #68, #283, #212 ) ) ;
#186 = EDGE_CURVE ( 'NONE', #41, #285, #176, .T. ) ;
#187 = EDGE_LOOP ( 'NONE', ( #137, #24, #192, #286 ) ) ;
#188 = ORIENTED_EDGE ( 'NONE', *, *, #216, .T. ) ;
#189 = EDGE_CURVE ( 'NONE', #108, #261, #207, .T. ) ;
#190 = ORIENTED_EDGE ( 'NONE', *, *, #223, .T. ) ;
#191 = MANIFOLD_SOLID_BREP ( 'Zaoblit1', #76 ) ;
#192 = ORIENTED_EDGE ( 'NONE', *, *, #126, .F. ) ;
#193 = AXIS2_PLACEMENT_3D ( 'NONE', #70, #198, #142 ) ;
#194 = CARTESIAN_POINT ( 'NONE',  ( 0.000000000000000000, 0.000000000000000000, 0.000000000000000000 ) ) ;
#195 = CARTESIAN_POINT ( 'NONE',  ( -3.100000000000000089, 0.000000000000000000, 505.0000000000000000 ) ) ;
#196 = PRODUCT_DEFINITION_SHAPE ( 'NONE', 'NONE',  #105 ) ;
#197 = CARTESIAN_POINT ( 'NONE',  ( 0.000000000000000000, 0.000000000000000000, 0.000000000000000000 ) ) ;
#198 = DIRECTION ( 'NONE',  ( 0.000000000000000000, 0.000000000000000000, 1.000000000000000000 ) ) ;
#199 = PERSON_AND_ORGANIZATION ( #69, #302 ) ;
#200 = DIRECTION ( 'NONE',  ( -1.000000000000000000, 1.224646799147353207E-16, 0.000000000000000000 ) ) ;
#201 = ADVANCED_FACE ( 'NONE', ( #129 ), #180, .T. ) ;
#202 = DATE_AND_TIME ( #275, #290 ) ;
#203 = DIRECTION ( 'NONE',  ( -1.000000000000000000, 0.000000000000000000, 0.000000000000000000 ) ) ;
#204 = APPROVAL_STATUS ( 'not_yet_approved' ) ;
#205 = PERSON_AND_ORGANIZATION_ROLE ( 'classification_officer' ) ;
#206 = DIRECTION ( 'NONE',  ( 0.000000000000000000, 0.000000000000000000, 1.000000000000000000 ) ) ;
#207 = CIRCLE ( 'NONE', #298, 3.299999999999999822 ) ;
#208 = DIRECTION ( 'NONE',  ( 0.000000000000000000, 0.000000000000000000, 1.000000000000000000 ) ) ;
#209 = DIRECTION ( 'NONE',  ( -0.000000000000000000, -0.000000000000000000, -1.000000000000000000 ) ) ;
#210 = ORIENTED_EDGE ( 'NONE', *, *, #116, .F. ) ;
#211 = AXIS2_PLACEMENT_3D ( 'NONE', #83, #245, #35 ) ;
#212 = ORIENTED_EDGE ( 'NONE', *, *, #186, .F. ) ;
#213 = ORIENTED_EDGE ( 'NONE', *, *, #186, .T. ) ;
#214 = EDGE_LOOP ( 'NONE', ( #264, #109, #190, #120 ) ) ;
#215 = CARTESIAN_POINT ( 'NONE',  ( 0.000000000000000000, 0.000000000000000000, 5.199999999999982414 ) ) ;
#216 = EDGE_CURVE ( 'NONE', #107, #86, #155, .T. ) ;
#217 = DIRECTION ( 'NONE',  ( 1.000000000000000000, 0.000000000000000000, 0.000000000000000000 ) ) ;
#218 = CALENDAR_DATE ( 2022, 20, 6 ) ;
#219 = FACE_OUTER_BOUND ( 'NONE', #187, .T. ) ;
#220 = CIRCLE ( 'NONE', #36, 6.000000000000000888 ) ;
#221 = APPROVAL_ROLE ( '' ) ;
#222 = CARTESIAN_POINT ( 'NONE',  ( 0.000000000000000000, 0.000000000000000000, 5.199999999999982414 ) ) ;
#223 = EDGE_CURVE ( 'NONE', #67, #72, #56, .T. ) ;
#224 = APPROVAL_STATUS ( 'not_yet_approved' ) ;
#225 = ORIENTED_EDGE ( 'NONE', *, *, #111, .F. ) ;
#226 = DIRECTION ( 'NONE',  ( 1.000000000000000000, 0.000000000000000000, -0.000000000000000000 ) ) ;
#227 = ADVANCED_FACE ( 'NONE', ( #281, #131 ), #276, .T. ) ;
#228 = ORIENTED_EDGE ( 'NONE', *, *, #64, .T. ) ;
#229 = CC_DESIGN_PERSON_AND_ORGANIZATION_ASSIGNMENT ( #199, #242, ( #270 ) ) ;
#230 = ORIENTED_EDGE ( 'NONE', *, *, #89, .F. ) ;
#231 = AXIS2_PLACEMENT_3D ( 'NONE', #170, #269, #203 ) ;
#232 = VERTEX_POINT ( 'NONE', #12 ) ;
#233 = ORIENTED_EDGE ( 'NONE', *, *, #111, .T. ) ;
#234 = APPLICATION_PROTOCOL_DEFINITION ( 'international standard', 'config_control_design', 1994, #32 ) ;
#235 = FACE_OUTER_BOUND ( 'NONE', #15, .T. ) ;
#236 = CC_DESIGN_SECURITY_CLASSIFICATION ( #25, ( #163 ) ) ;
#237 = EDGE_CURVE ( 'NONE', #232, #285, #30, .T. ) ;
#238 = EDGE_LOOP ( 'NONE', ( #164, #162 ) ) ;
#239 = DIRECTION ( 'NONE',  ( 1.000000000000000000, 0.000000000000000000, 0.000000000000000000 ) ) ;
#240 = DIRECTION ( 'NONE',  ( 1.000000000000000000, 0.000000000000000000, 0.000000000000000000 ) ) ;
#241 = CC_DESIGN_APPROVAL ( #139, ( #25 ) ) ;
#242 = PERSON_AND_ORGANIZATION_ROLE ( 'design_owner' ) ;
#243 = CARTESIAN_POINT ( 'NONE',  ( -3.100000000000000089, 0.000000000000000000, 5.199999999999982414 ) ) ;
#244 = DATE_AND_TIME ( #26, #263 ) ;
#245 = DIRECTION ( 'NONE',  ( 0.000000000000000000, 0.000000000000000000, 1.000000000000000000 ) ) ;
#246 = CIRCLE ( 'NONE', #106, 6.000000000000000888 ) ;
#247 = PERSON_AND_ORGANIZATION_ROLE ( 'design_supplier' ) ;
#248 = VECTOR ( 'NONE', #79, 1000.000000000000000 ) ;
#249 = FACE_OUTER_BOUND ( 'NONE', #161, .T. ) ;
#250 = EDGE_CURVE ( 'NONE', #67, #107, #110, .T. ) ;
#251 = DATE_AND_TIME ( #218, #154 ) ;
#252 = CARTESIAN_POINT ( 'NONE',  ( -6.000000000000000888, 0.000000000000000000, 5.000000000000000000 ) ) ;
#253 = CARTESIAN_POINT ( 'NONE',  ( 0.000000000000000000, 0.000000000000000000, 5.000000000000000000 ) ) ;
#254 = AXIS2_PLACEMENT_3D ( 'NONE', #194, #22, #272 ) ;
#255 = CARTESIAN_POINT ( 'NONE',  ( 0.000000000000000000, 0.000000000000000000, 5.000000000000000000 ) ) ;
#256 = VECTOR ( 'NONE', #10, 1000.000000000000000 ) ;
#257 = COORDINATED_UNIVERSAL_TIME_OFFSET ( 1, 0, .AHEAD. ) ;
#258 =( GEOMETRIC_REPRESENTATION_CONTEXT ( 3 ) GLOBAL_UNCERTAINTY_ASSIGNED_CONTEXT ( ( #2 ) ) GLOBAL_UNIT_ASSIGNED_CONTEXT ( ( #279, #158, #133 ) ) REPRESENTATION_CONTEXT ( 'NONE', 'WORKASPACE' ) );
#259 = ORIENTED_EDGE ( 'NONE', *, *, #61, .F. ) ;
#260 = FACE_OUTER_BOUND ( 'NONE', #14, .T. ) ;
#261 = VERTEX_POINT ( 'NONE', #160 ) ;
#262 = ADVANCED_FACE ( 'NONE', ( #260 ), #40, .T. ) ;
#263 = LOCAL_TIME ( 11, 55, 34.00000000000000000, #122 ) ;
#264 = ORIENTED_EDGE ( 'NONE', *, *, #216, .F. ) ;
#265 = EDGE_LOOP ( 'NONE', ( #259, #44 ) ) ;
#266 = DIRECTION ( 'NONE',  ( 1.000000000000000000, 0.000000000000000000, 0.000000000000000000 ) ) ;
#267 = DESIGN_CONTEXT ( 'detailed design', #63, 'design' ) ;
#268 = DIRECTION ( 'NONE',  ( 0.000000000000000000, 0.000000000000000000, 1.000000000000000000 ) ) ;
#269 = DIRECTION ( 'NONE',  ( -0.000000000000000000, -0.000000000000000000, -1.000000000000000000 ) ) ;
#270 = PRODUCT ( '7a39', '7a39', '', ( #146 ) ) ;
#271 = PERSON_AND_ORGANIZATION ( #69, #302 ) ;
#272 = DIRECTION ( 'NONE',  ( 1.000000000000000000, 0.000000000000000000, -0.000000000000000000 ) ) ;
#273 = LINE ( 'NONE', #147, #179 ) ;
#274 = PERSON_AND_ORGANIZATION ( #69, #302 ) ;
#275 = CALENDAR_DATE ( 2022, 20, 6 ) ;
#276 = PLANE ( 'NONE',  #95 ) ;
#277 = CARTESIAN_POINT ( 'NONE',  ( -6.000000000000000888, 0.000000000000000000, 0.000000000000000000 ) ) ;
#278 = DATE_AND_TIME ( #5, #118 ) ;
#279 =( LENGTH_UNIT ( ) NAMED_UNIT ( * ) SI_UNIT ( .MILLI., .METRE. ) );
#280 = CARTESIAN_POINT ( 'NONE',  ( 0.000000000000000000, 0.000000000000000000, 505.0000000000000000 ) ) ;
#281 = FACE_BOUND ( 'NONE', #238, .T. ) ;
#282 = CC_DESIGN_APPROVAL ( #167, ( #105 ) ) ;
#283 = ORIENTED_EDGE ( 'NONE', *, *, #237, .T. ) ;
#284 = DATE_TIME_ROLE ( 'classification_date' ) ;
#285 = VERTEX_POINT ( 'NONE', #277 ) ;
#286 = ORIENTED_EDGE ( 'NONE', *, *, #104, .F. ) ;
#287 = ORIENTED_EDGE ( 'NONE', *, *, #156, .T. ) ;
#288 = CIRCLE ( 'NONE', #57, 3.100000000000000089 ) ;
#289 = DIRECTION ( 'NONE',  ( 0.000000000000000000, 0.000000000000000000, 1.000000000000000000 ) ) ;
#290 = LOCAL_TIME ( 11, 55, 34.00000000000000000, #99 ) ;
#291 = ADVANCED_FACE ( 'NONE', ( #249 ), #173, .T. ) ;
#292 = DIRECTION ( 'NONE',  ( 0.000000000000000000, 0.000000000000000000, 1.000000000000000000 ) ) ;
#293 = CARTESIAN_POINT ( 'NONE',  ( 0.000000000000000000, 0.000000000000000000, 5.000000000000000000 ) ) ;
#294 = TOROIDAL_SURFACE ( 'NONE', #21, 3.299999999999999822, 0.2000000000000000111 ) ;
#295 = CARTESIAN_POINT ( 'NONE',  ( 0.000000000000000000, 0.000000000000000000, 0.000000000000000000 ) ) ;
#296 = APPROVAL_PERSON_ORGANIZATION ( #174, #167, #221 ) ;
#297 = COORDINATED_UNIVERSAL_TIME_OFFSET ( 1, 0, .AHEAD. ) ;
#298 = AXIS2_PLACEMENT_3D ( 'NONE', #253, #152, #13 ) ;
#299 = APPROVAL_PERSON_ORGANIZATION ( #274, #182, #127 ) ;
#300 = DIRECTION ( 'NONE',  ( 1.000000000000000000, 0.000000000000000000, 0.000000000000000000 ) ) ;
#301 = CIRCLE ( 'NONE', #135, 6.000000000000000888 ) ;
#302 = ORGANIZATION ( 'NEURÈENÝ', 'NEURÈENÝ', '' ) ;
#303 = ORIENTED_EDGE ( 'NONE', *, *, #64, .F. ) ;
#304 = ORIENTED_EDGE ( 'NONE', *, *, #250, .T. ) ;
#305 = AXIS2_PLACEMENT_3D ( 'NONE', #27, #113, #217 ) ;
#306 = CC_DESIGN_DATE_AND_TIME_ASSIGNMENT ( #278, #75, ( #105 ) ) ;
#307 = DIRECTION ( 'NONE',  ( 0.000000000000000000, 0.000000000000000000, 1.000000000000000000 ) ) ;
ENDSEC;
END-ISO-10303-21;
