ISO-10303-21;
HEADER;
FILE_DESCRIPTION (( 'STEP AP203' ),
    '1' );
FILE_NAME ('0688.STEP',
    '2022-06-20T09:37:03',
    ( '' ),
    ( '' ),
    'SwSTEP 2.0',
    'SolidWorks 2019',
    '' );
FILE_SCHEMA (( 'CONFIG_CONTROL_DESIGN' ));
ENDSEC;

DATA;
#1 = DIRECTION ( 'NONE',  ( 0.000000000000000000, 0.000000000000000000, 1.000000000000000000 ) ) ;
#2 = CALENDAR_DATE ( 2022, 20, 6 ) ;
#3 = DATE_AND_TIME ( #282, #98 ) ;
#4 = AXIS2_PLACEMENT_3D ( 'NONE', #123, #5, #242 ) ;
#5 = DIRECTION ( 'NONE',  ( 0.000000000000000000, 0.000000000000000000, 1.000000000000000000 ) ) ;
#6 = AXIS2_PLACEMENT_3D ( 'NONE', #43, #261, #45 ) ;
#7 = CARTESIAN_POINT ( 'NONE',  ( 0.000000000000000000, 0.000000000000000000, 5.199999999999982414 ) ) ;
#8 = CARTESIAN_POINT ( 'NONE',  ( 0.000000000000000000, 0.000000000000000000, 5.000000000000000000 ) ) ;
#9 = CYLINDRICAL_SURFACE ( 'NONE', #281, 8.000000000000000000 ) ;
#10 = AXIS2_PLACEMENT_3D ( 'NONE', #248, #105, #270 ) ;
#11 = CARTESIAN_POINT ( 'NONE',  ( 5.450000000000001066, 0.000000000000000000, 4.999999999999991118 ) ) ;
#12 = DIRECTION ( 'NONE',  ( 1.000000000000000000, 0.000000000000000000, 0.000000000000000000 ) ) ;
#13 = AXIS2_PLACEMENT_3D ( 'NONE', #33, #130, #294 ) ;
#14 = AXIS2_PLACEMENT_3D ( 'NONE', #229, #82, #60 ) ;
#15 = EDGE_CURVE ( 'NONE', #66, #142, #73, .T. ) ;
#16 = DIRECTION ( 'NONE',  ( 0.000000000000000000, 0.000000000000000000, 1.000000000000000000 ) ) ;
#17 = AXIS2_PLACEMENT_3D ( 'NONE', #188, #68, #118 ) ;
#18 = DIRECTION ( 'NONE',  ( -1.000000000000000000, 1.224646799147353454E-16, 0.000000000000000000 ) ) ;
#19 = ORIENTED_EDGE ( 'NONE', *, *, #249, .T. ) ;
#20 = FACE_OUTER_BOUND ( 'NONE', #241, .T. ) ;
#21 = FACE_OUTER_BOUND ( 'NONE', #187, .T. ) ;
#22 = ORIENTED_EDGE ( 'NONE', *, *, #223, .T. ) ;
#23 = CIRCLE ( 'NONE', #202, 5.250000000000000888 ) ;
#24 = PLANE ( 'NONE',  #163 ) ;
#25 = EDGE_CURVE ( 'NONE', #259, #234, #146, .T. ) ;
#26 = MANIFOLD_SOLID_BREP ( 'Zaoblit1', #295 ) ;
#27 = CALENDAR_DATE ( 2022, 20, 6 ) ;
#28 = SECURITY_CLASSIFICATION_LEVEL ( 'unclassified' ) ;
#29 = CARTESIAN_POINT ( 'NONE',  ( -8.000000000000000000, 0.000000000000000000, 0.000000000000000000 ) ) ;
#30 = AXIS2_PLACEMENT_3D ( 'NONE', #233, #112, #158 ) ;
#31 = DIRECTION ( 'NONE',  ( 1.000000000000000000, 0.000000000000000000, 0.000000000000000000 ) ) ;
#32 = ORIENTED_EDGE ( 'NONE', *, *, #250, .T. ) ;
#33 = CARTESIAN_POINT ( 'NONE',  ( 0.000000000000000000, 0.000000000000000000, 5.000000000000000000 ) ) ;
#34 = DIRECTION ( 'NONE',  ( 0.000000000000000000, 0.000000000000000000, 1.000000000000000000 ) ) ;
#35 = TOROIDAL_SURFACE ( 'NONE', #30, 5.450000000000001066, 0.2000000000000000111 ) ;
#36 = LOCAL_TIME ( 11, 37, 3.000000000000000000, #197 ) ;
#37 = DIRECTION ( 'NONE',  ( 0.000000000000000000, 0.000000000000000000, 1.000000000000000000 ) ) ;
#38 = PERSON_AND_ORGANIZATION ( #287, #50 ) ;
#39 = VERTEX_POINT ( 'NONE', #103 ) ;
#40 = UNCERTAINTY_MEASURE_WITH_UNIT (LENGTH_MEASURE( 1.000000000000000082E-05 ), #116, 'distance_accuracy_value', 'NONE');
#41 = ADVANCED_BREP_SHAPE_REPRESENTATION ( '0688', ( #26, #6 ), #260 ) ;
#42 = ADVANCED_FACE ( 'NONE', ( #204 ), #24, .F. ) ;
#43 = CARTESIAN_POINT ( 'NONE',  ( 0.000000000000000000, 0.000000000000000000, 0.000000000000000000 ) ) ;
#44 = ORIENTED_EDGE ( 'NONE', *, *, #101, .T. ) ;
#45 = DIRECTION ( 'NONE',  ( 1.000000000000000000, 0.000000000000000000, 0.000000000000000000 ) ) ;
#46 = EDGE_CURVE ( 'NONE', #66, #161, #209, .T. ) ;
#47 = ORIENTED_EDGE ( 'NONE', *, *, #215, .T. ) ;
#48 = LINE ( 'NONE', #300, #285 ) ;
#49 = VERTEX_POINT ( 'NONE', #153 ) ;
#50 = ORGANIZATION ( 'NEURÈENÝ', 'NEURÈENÝ', '' ) ;
#51 = APPROVAL_ROLE ( '' ) ;
#52 = APPROVAL_DATE_TIME ( #3, #58 ) ;
#53 = ORIENTED_EDGE ( 'NONE', *, *, #46, .F. ) ;
#54 = CC_DESIGN_DATE_AND_TIME_ASSIGNMENT ( #288, #97, ( #217 ) ) ;
#55 = CIRCLE ( 'NONE', #13, 5.450000000000001066 ) ;
#56 = DIRECTION ( 'NONE',  ( 1.000000000000000000, 0.000000000000000000, 0.000000000000000000 ) ) ;
#57 = CIRCLE ( 'NONE', #135, 0.1999999999999996503 ) ;
#58 = APPROVAL ( #243, 'NEURÈENÝ' ) ;
#59 = EDGE_CURVE ( 'NONE', #237, #259, #106, .T. ) ;
#60 = DIRECTION ( 'NONE',  ( -1.000000000000000000, 0.000000000000000000, 0.000000000000000000 ) ) ;
#61 = DIRECTION ( 'NONE',  ( -1.000000000000000000, 0.000000000000000000, 0.000000000000000000 ) ) ;
#62 = PRODUCT ( '0688', '0688', '', ( #240 ) ) ;
#63 = AXIS2_PLACEMENT_3D ( 'NONE', #303, #16, #238 ) ;
#64 = DIRECTION ( 'NONE',  ( 1.000000000000000000, 0.000000000000000000, 0.000000000000000000 ) ) ;
#65 =( NAMED_UNIT ( * ) SI_UNIT ( $, .STERADIAN. ) SOLID_ANGLE_UNIT ( ) );
#66 = VERTEX_POINT ( 'NONE', #253 ) ;
#67 = CIRCLE ( 'NONE', #81, 5.250000000000000888 ) ;
#68 = DIRECTION ( 'NONE',  ( 0.000000000000000000, 0.000000000000000000, 1.000000000000000000 ) ) ;
#69 = APPROVAL_PERSON_ORGANIZATION ( #38, #277, #102 ) ;
#70 = ORIENTED_EDGE ( 'NONE', *, *, #211, .T. ) ;
#71 = CARTESIAN_POINT ( 'NONE',  ( 5.450000000000001066, 0.000000000000000000, 5.199999999999982414 ) ) ;
#72 = ORIENTED_EDGE ( 'NONE', *, *, #201, .T. ) ;
#73 = CIRCLE ( 'NONE', #4, 8.000000000000000000 ) ;
#74 = DATE_TIME_ROLE ( 'creation_date' ) ;
#75 = ORIENTED_EDGE ( 'NONE', *, *, #179, .F. ) ;
#76 = EDGE_LOOP ( 'NONE', ( #22, #47 ) ) ;
#77 = EDGE_CURVE ( 'NONE', #39, #184, #55, .T. ) ;
#78 = APPROVAL_DATE_TIME ( #268, #302 ) ;
#79 = CARTESIAN_POINT ( 'NONE',  ( 0.000000000000000000, 0.000000000000000000, 5.199999999999982414 ) ) ;
#80 = AXIS2_PLACEMENT_3D ( 'NONE', #290, #34, #291 ) ;
#81 = AXIS2_PLACEMENT_3D ( 'NONE', #114, #90, #186 ) ;
#82 = DIRECTION ( 'NONE',  ( -0.000000000000000000, -0.000000000000000000, -1.000000000000000000 ) ) ;
#83 = DIRECTION ( 'NONE',  ( -0.000000000000000000, -0.000000000000000000, -1.000000000000000000 ) ) ;
#84 = PRODUCT_DEFINITION ( 'NEZNÁMÝ', '', #145, #178 ) ;
#85 = DIRECTION ( 'NONE',  ( -0.000000000000000000, -0.000000000000000000, -1.000000000000000000 ) ) ;
#86 = DIRECTION ( 'NONE',  ( -0.000000000000000000, -0.000000000000000000, -1.000000000000000000 ) ) ;
#87 = APPLICATION_CONTEXT ( 'configuration controlled 3d designs of mechanical parts and assemblies' ) ;
#88 = FACE_OUTER_BOUND ( 'NONE', #117, .T. ) ;
#89 = CARTESIAN_POINT ( 'NONE',  ( 5.250000000000000888, 6.429395695523605139E-16, 405.0000000000000000 ) ) ;
#90 = DIRECTION ( 'NONE',  ( 0.000000000000000000, 0.000000000000000000, 1.000000000000000000 ) ) ;
#91 = PRODUCT_DEFINITION_SHAPE ( 'NONE', 'NONE',  #84 ) ;
#92 = FACE_BOUND ( 'NONE', #93, .T. ) ;
#93 = EDGE_LOOP ( 'NONE', ( #126, #157 ) ) ;
#94 = AXIS2_PLACEMENT_3D ( 'NONE', #8, #226, #12 ) ;
#95 = CC_DESIGN_PERSON_AND_ORGANIZATION_ASSIGNMENT ( #222, #124, ( #217 ) ) ;
#96 = CALENDAR_DATE ( 2022, 20, 6 ) ;
#97 = DATE_TIME_ROLE ( 'classification_date' ) ;
#98 = LOCAL_TIME ( 11, 37, 3.000000000000000000, #192 ) ;
#99 = ORIENTED_EDGE ( 'NONE', *, *, #223, .F. ) ;
#100 = DATE_AND_TIME ( #96, #36 ) ;
#101 = EDGE_CURVE ( 'NONE', #159, #161, #262, .T. ) ;
#102 = APPROVAL_ROLE ( '' ) ;
#103 = CARTESIAN_POINT ( 'NONE',  ( -5.450000000000001066, 6.674325055353076224E-16, 4.999999999999991118 ) ) ;
#104 = CIRCLE ( 'NONE', #297, 8.000000000000000000 ) ;
#105 = DIRECTION ( 'NONE',  ( -0.000000000000000000, -0.000000000000000000, -1.000000000000000000 ) ) ;
#106 = LINE ( 'NONE', #171, #140 ) ;
#107 = EDGE_LOOP ( 'NONE', ( #239, #264 ) ) ;
#108 = CARTESIAN_POINT ( 'NONE',  ( 8.000000000000000000, 9.797174393178825657E-16, 5.000000000000000000 ) ) ;
#109 = ADVANCED_FACE ( 'NONE', ( #88 ), #172, .F. ) ;
#110 = CARTESIAN_POINT ( 'NONE',  ( -5.250000000000000888, 0.000000000000000000, 405.0000000000000000 ) ) ;
#111 = DIRECTION ( 'NONE',  ( 0.000000000000000000, 0.000000000000000000, 1.000000000000000000 ) ) ;
#112 = DIRECTION ( 'NONE',  ( 0.000000000000000000, 0.000000000000000000, 1.000000000000000000 ) ) ;
#113 = CIRCLE ( 'NONE', #94, 5.450000000000001066 ) ;
#114 = CARTESIAN_POINT ( 'NONE',  ( 0.000000000000000000, 0.000000000000000000, 405.0000000000000000 ) ) ;
#115 = ORIENTED_EDGE ( 'NONE', *, *, #185, .T. ) ;
#116 =( LENGTH_UNIT ( ) NAMED_UNIT ( * ) SI_UNIT ( .MILLI., .METRE. ) );
#117 = EDGE_LOOP ( 'NONE', ( #289, #247, #32, #162 ) ) ;
#118 = DIRECTION ( 'NONE',  ( 1.000000000000000000, 0.000000000000000000, 0.000000000000000000 ) ) ;
#119 = APPLICATION_CONTEXT ( 'configuration controlled 3d designs of mechanical parts and assemblies' ) ;
#120 = DIRECTION ( 'NONE',  ( 1.224646799147353207E-16, 1.000000000000000000, -0.000000000000000000 ) ) ;
#121 = AXIS2_PLACEMENT_3D ( 'NONE', #79, #221, #169 ) ;
#122 = COORDINATED_UNIVERSAL_TIME_OFFSET ( 1, 0, .AHEAD. ) ;
#123 = CARTESIAN_POINT ( 'NONE',  ( 0.000000000000000000, 0.000000000000000000, 5.000000000000000000 ) ) ;
#124 = PERSON_AND_ORGANIZATION_ROLE ( 'classification_officer' ) ;
#125 = LOCAL_TIME ( 11, 37, 3.000000000000000000, #122 ) ;
#126 = ORIENTED_EDGE ( 'NONE', *, *, #167, .T. ) ;
#127 = CARTESIAN_POINT ( 'NONE',  ( 8.000000000000000000, 9.797174393178825657E-16, 0.000000000000000000 ) ) ;
#128 = CC_DESIGN_APPROVAL ( #58, ( #145 ) ) ;
#129 = FACE_OUTER_BOUND ( 'NONE', #194, .T. ) ;
#130 = DIRECTION ( 'NONE',  ( -0.000000000000000000, -0.000000000000000000, -1.000000000000000000 ) ) ;
#131 = FACE_OUTER_BOUND ( 'NONE', #189, .T. ) ;
#132 = DIRECTION ( 'NONE',  ( -1.000000000000000000, 0.000000000000000000, 0.000000000000000000 ) ) ;
#133 = APPROVAL_STATUS ( 'not_yet_approved' ) ;
#134 = PERSON_AND_ORGANIZATION_ROLE ( 'design_owner' ) ;
#135 = AXIS2_PLACEMENT_3D ( 'NONE', #71, #298, #274 ) ;
#136 = DIRECTION ( 'NONE',  ( 0.000000000000000000, 0.000000000000000000, 1.000000000000000000 ) ) ;
#137 = ORIENTED_EDGE ( 'NONE', *, *, #249, .F. ) ;
#138 = CC_DESIGN_PERSON_AND_ORGANIZATION_ASSIGNMENT ( #200, #218, ( #145 ) ) ;
#139 = EDGE_LOOP ( 'NONE', ( #258, #252, #216, #198 ) ) ;
#140 = VECTOR ( 'NONE', #85, 1000.000000000000000 ) ;
#141 = APPLICATION_PROTOCOL_DEFINITION ( 'international standard', 'config_control_design', 1994, #87 ) ;
#142 = VERTEX_POINT ( 'NONE', #108 ) ;
#143 = ADVANCED_FACE ( 'NONE', ( #152 ), #9, .T. ) ;
#144 = APPROVAL_DATE_TIME ( #100, #277 ) ;
#145 = PRODUCT_DEFINITION_FORMATION_WITH_SPECIFIED_SOURCE ( 'LIBOVOLNÝ', '', #62, .NOT_KNOWN. ) ;
#146 = CIRCLE ( 'NONE', #121, 5.250000000000000888 ) ;
#147 = COORDINATED_UNIVERSAL_TIME_OFFSET ( 1, 0, .AHEAD. ) ;
#148 = CALENDAR_DATE ( 2022, 20, 6 ) ;
#149 = ORIENTED_EDGE ( 'NONE', *, *, #59, .F. ) ;
#150 = CC_DESIGN_PERSON_AND_ORGANIZATION_ASSIGNMENT ( #164, #224, ( #145 ) ) ;
#151 = ADVANCED_FACE ( 'NONE', ( #129 ), #254, .T. ) ;
#152 = FACE_OUTER_BOUND ( 'NONE', #257, .T. ) ;
#153 = CARTESIAN_POINT ( 'NONE',  ( -5.250000000000000888, 0.000000000000000000, 405.0000000000000000 ) ) ;
#154 = FACE_OUTER_BOUND ( 'NONE', #76, .T. ) ;
#155 = APPLICATION_PROTOCOL_DEFINITION ( 'international standard', 'config_control_design', 1994, #119 ) ;
#156 = DIRECTION ( 'NONE',  ( 1.000000000000000000, 0.000000000000000000, 0.000000000000000000 ) ) ;
#157 = ORIENTED_EDGE ( 'NONE', *, *, #77, .T. ) ;
#158 = DIRECTION ( 'NONE',  ( 1.000000000000000000, 0.000000000000000000, 0.000000000000000000 ) ) ;
#159 = VERTEX_POINT ( 'NONE', #127 ) ;
#160 = ADVANCED_FACE ( 'NONE', ( #175 ), #227, .T. ) ;
#161 = VERTEX_POINT ( 'NONE', #29 ) ;
#162 = ORIENTED_EDGE ( 'NONE', *, *, #77, .F. ) ;
#163 = AXIS2_PLACEMENT_3D ( 'NONE', #219, #1, #177 ) ;
#164 = PERSON_AND_ORGANIZATION ( #287, #50 ) ;
#165 = CIRCLE ( 'NONE', #170, 8.000000000000000000 ) ;
#166 = ADVANCED_FACE ( 'NONE', ( #154 ), #206, .T. ) ;
#167 = EDGE_CURVE ( 'NONE', #184, #39, #113, .T. ) ;
#168 = SHAPE_DEFINITION_REPRESENTATION ( #91, #41 ) ;
#169 = DIRECTION ( 'NONE',  ( 1.000000000000000000, 0.000000000000000000, 0.000000000000000000 ) ) ;
#170 = AXIS2_PLACEMENT_3D ( 'NONE', #214, #136, #156 ) ;
#171 = CARTESIAN_POINT ( 'NONE',  ( 5.250000000000000888, 6.429395695523605139E-16, 405.0000000000000000 ) ) ;
#172 = TOROIDAL_SURFACE ( 'NONE', #225, 5.450000000000001066, 0.2000000000000000111 ) ;
#173 = DIRECTION ( 'NONE',  ( -0.000000000000000000, -0.000000000000000000, -1.000000000000000000 ) ) ;
#174 = DIRECTION ( 'NONE',  ( 1.000000000000000000, 0.000000000000000000, 0.000000000000000000 ) ) ;
#175 = FACE_OUTER_BOUND ( 'NONE', #139, .T. ) ;
#176 = AXIS2_PLACEMENT_3D ( 'NONE', #271, #111, #31 ) ;
#177 = DIRECTION ( 'NONE',  ( 1.000000000000000000, 0.000000000000000000, -0.000000000000000000 ) ) ;
#178 = DESIGN_CONTEXT ( 'detailed design', #119, 'design' ) ;
#179 = EDGE_CURVE ( 'NONE', #142, #66, #104, .T. ) ;
#180 = PERSON_AND_ORGANIZATION ( #287, #50 ) ;
#181 = ADVANCED_FACE ( 'NONE', ( #131 ), #230, .T. ) ;
#182 =( NAMED_UNIT ( * ) PLANE_ANGLE_UNIT ( ) SI_UNIT ( $, .RADIAN. ) );
#183 = CARTESIAN_POINT ( 'NONE',  ( 5.250000000000000888, 6.429395695523605139E-16, 5.199999999999982414 ) ) ;
#184 = VERTEX_POINT ( 'NONE', #11 ) ;
#185 = EDGE_CURVE ( 'NONE', #49, #234, #205, .T. ) ;
#186 = DIRECTION ( 'NONE',  ( 1.000000000000000000, 0.000000000000000000, 0.000000000000000000 ) ) ;
#187 = EDGE_LOOP ( 'NONE', ( #137, #72, #301, #191 ) ) ;
#188 = CARTESIAN_POINT ( 'NONE',  ( 0.000000000000000000, 0.000000000000000000, 5.199999999999982414 ) ) ;
#189 = EDGE_LOOP ( 'NONE', ( #307, #235, #263, #266 ) ) ;
#190 = COORDINATED_UNIVERSAL_TIME_OFFSET ( 1, 0, .AHEAD. ) ;
#191 = ORIENTED_EDGE ( 'NONE', *, *, #250, .F. ) ;
#192 = COORDINATED_UNIVERSAL_TIME_OFFSET ( 1, 0, .AHEAD. ) ;
#193 = EDGE_CURVE ( 'NONE', #161, #159, #165, .T. ) ;
#194 = EDGE_LOOP ( 'NONE', ( #149, #99, #115, #19 ) ) ;
#195 = CIRCLE ( 'NONE', #245, 0.1999999999999996503 ) ;
#196 = PERSON_AND_ORGANIZATION ( #287, #50 ) ;
#197 = COORDINATED_UNIVERSAL_TIME_OFFSET ( 1, 0, .AHEAD. ) ;
#198 = ORIENTED_EDGE ( 'NONE', *, *, #193, .T. ) ;
#199 = CC_DESIGN_PERSON_AND_ORGANIZATION_ASSIGNMENT ( #180, #134, ( #62 ) ) ;
#200 = PERSON_AND_ORGANIZATION ( #287, #50 ) ;
#201 = EDGE_CURVE ( 'NONE', #234, #39, #195, .T. ) ;
#202 = AXIS2_PLACEMENT_3D ( 'NONE', #213, #276, #64 ) ;
#203 = CC_DESIGN_APPROVAL ( #302, ( #217 ) ) ;
#204 = FACE_OUTER_BOUND ( 'NONE', #107, .T. ) ;
#205 = LINE ( 'NONE', #110, #304 ) ;
#206 = PLANE ( 'NONE',  #80 ) ;
#207 = ADVANCED_FACE ( 'NONE', ( #21 ), #35, .F. ) ;
#208 = CARTESIAN_POINT ( 'NONE',  ( 0.000000000000000000, 0.000000000000000000, 5.000000000000000000 ) ) ;
#209 = LINE ( 'NONE', #273, #272 ) ;
#210 = CC_DESIGN_DATE_AND_TIME_ASSIGNMENT ( #246, #74, ( #84 ) ) ;
#211 = EDGE_CURVE ( 'NONE', #142, #159, #48, .T. ) ;
#212 = DIRECTION ( 'NONE',  ( 0.000000000000000000, 0.000000000000000000, 1.000000000000000000 ) ) ;
#213 = CARTESIAN_POINT ( 'NONE',  ( 0.000000000000000000, 0.000000000000000000, 405.0000000000000000 ) ) ;
#214 = CARTESIAN_POINT ( 'NONE',  ( 0.000000000000000000, 0.000000000000000000, 0.000000000000000000 ) ) ;
#215 = EDGE_CURVE ( 'NONE', #237, #49, #67, .T. ) ;
#216 = ORIENTED_EDGE ( 'NONE', *, *, #46, .T. ) ;
#217 = SECURITY_CLASSIFICATION ( '', '', #28 ) ;
#218 = PERSON_AND_ORGANIZATION_ROLE ( 'design_supplier' ) ;
#219 = CARTESIAN_POINT ( 'NONE',  ( 0.000000000000000000, 0.000000000000000000, 0.000000000000000000 ) ) ;
#220 = PERSON_AND_ORGANIZATION ( #287, #50 ) ;
#221 = DIRECTION ( 'NONE',  ( 0.000000000000000000, 0.000000000000000000, 1.000000000000000000 ) ) ;
#222 = PERSON_AND_ORGANIZATION ( #287, #50 ) ;
#223 = EDGE_CURVE ( 'NONE', #49, #237, #23, .T. ) ;
#224 = PERSON_AND_ORGANIZATION_ROLE ( 'creator' ) ;
#225 = AXIS2_PLACEMENT_3D ( 'NONE', #7, #37, #56 ) ;
#226 = DIRECTION ( 'NONE',  ( -0.000000000000000000, -0.000000000000000000, -1.000000000000000000 ) ) ;
#227 = CYLINDRICAL_SURFACE ( 'NONE', #255, 8.000000000000000000 ) ;
#228 = ADVANCED_FACE ( 'NONE', ( #92, #20 ), #278, .T. ) ;
#229 = CARTESIAN_POINT ( 'NONE',  ( 0.000000000000000000, 0.000000000000000000, 405.0000000000000000 ) ) ;
#230 = CYLINDRICAL_SURFACE ( 'NONE', #10, 5.250000000000000888 ) ;
#231 = CC_DESIGN_APPROVAL ( #277, ( #84 ) ) ;
#232 = CARTESIAN_POINT ( 'NONE',  ( 0.000000000000000000, 0.000000000000000000, 5.000000000000000000 ) ) ;
#233 = CARTESIAN_POINT ( 'NONE',  ( 0.000000000000000000, 0.000000000000000000, 5.199999999999982414 ) ) ;
#234 = VERTEX_POINT ( 'NONE', #280 ) ;
#235 = ORIENTED_EDGE ( 'NONE', *, *, #59, .T. ) ;
#236 = CARTESIAN_POINT ( 'NONE',  ( -5.450000000000001066, 6.674325055353076224E-16, 5.199999999999982414 ) ) ;
#237 = VERTEX_POINT ( 'NONE', #89 ) ;
#238 = DIRECTION ( 'NONE',  ( 1.000000000000000000, 0.000000000000000000, -0.000000000000000000 ) ) ;
#239 = ORIENTED_EDGE ( 'NONE', *, *, #193, .F. ) ;
#240 = MECHANICAL_CONTEXT ( 'NONE', #87, 'mechanical' ) ;
#241 = EDGE_LOOP ( 'NONE', ( #283, #299 ) ) ;
#242 = DIRECTION ( 'NONE',  ( 1.000000000000000000, 0.000000000000000000, 0.000000000000000000 ) ) ;
#243 = APPROVAL_STATUS ( 'not_yet_approved' ) ;
#244 = CC_DESIGN_PERSON_AND_ORGANIZATION_ASSIGNMENT ( #267, #265, ( #84 ) ) ;
#245 = AXIS2_PLACEMENT_3D ( 'NONE', #236, #120, #18 ) ;
#246 = DATE_AND_TIME ( #148, #125 ) ;
#247 = ORIENTED_EDGE ( 'NONE', *, *, #25, .F. ) ;
#248 = CARTESIAN_POINT ( 'NONE',  ( 0.000000000000000000, 0.000000000000000000, 405.0000000000000000 ) ) ;
#249 = EDGE_CURVE ( 'NONE', #234, #259, #275, .T. ) ;
#250 = EDGE_CURVE ( 'NONE', #259, #184, #57, .T. ) ;
#251 = CC_DESIGN_SECURITY_CLASSIFICATION ( #217, ( #145 ) ) ;
#252 = ORIENTED_EDGE ( 'NONE', *, *, #15, .F. ) ;
#253 = CARTESIAN_POINT ( 'NONE',  ( -8.000000000000000000, 0.000000000000000000, 5.000000000000000000 ) ) ;
#254 = CYLINDRICAL_SURFACE ( 'NONE', #14, 5.250000000000000888 ) ;
#255 = AXIS2_PLACEMENT_3D ( 'NONE', #232, #83, #61 ) ;
#256 = APPROVAL_PERSON_ORGANIZATION ( #220, #58, #306 ) ;
#257 = EDGE_LOOP ( 'NONE', ( #75, #70, #44, #53 ) ) ;
#258 = ORIENTED_EDGE ( 'NONE', *, *, #211, .F. ) ;
#259 = VERTEX_POINT ( 'NONE', #183 ) ;
#260 =( GEOMETRIC_REPRESENTATION_CONTEXT ( 3 ) GLOBAL_UNCERTAINTY_ASSIGNED_CONTEXT ( ( #40 ) ) GLOBAL_UNIT_ASSIGNED_CONTEXT ( ( #116, #182, #65 ) ) REPRESENTATION_CONTEXT ( 'NONE', 'WORKASPACE' ) );
#261 = DIRECTION ( 'NONE',  ( 0.000000000000000000, 0.000000000000000000, 1.000000000000000000 ) ) ;
#262 = CIRCLE ( 'NONE', #176, 8.000000000000000000 ) ;
#263 = ORIENTED_EDGE ( 'NONE', *, *, #25, .T. ) ;
#264 = ORIENTED_EDGE ( 'NONE', *, *, #101, .F. ) ;
#265 = PERSON_AND_ORGANIZATION_ROLE ( 'creator' ) ;
#266 = ORIENTED_EDGE ( 'NONE', *, *, #185, .F. ) ;
#267 = PERSON_AND_ORGANIZATION ( #287, #50 ) ;
#268 = DATE_AND_TIME ( #27, #305 ) ;
#269 = CARTESIAN_POINT ( 'NONE',  ( 0.000000000000000000, 0.000000000000000000, 5.000000000000000000 ) ) ;
#270 = DIRECTION ( 'NONE',  ( -1.000000000000000000, 0.000000000000000000, 0.000000000000000000 ) ) ;
#271 = CARTESIAN_POINT ( 'NONE',  ( 0.000000000000000000, 0.000000000000000000, 0.000000000000000000 ) ) ;
#272 = VECTOR ( 'NONE', #86, 1000.000000000000000 ) ;
#273 = CARTESIAN_POINT ( 'NONE',  ( -8.000000000000000000, 0.000000000000000000, 5.000000000000000000 ) ) ;
#274 = DIRECTION ( 'NONE',  ( 0.000000000000000000, 0.000000000000000000, -1.000000000000000000 ) ) ;
#275 = CIRCLE ( 'NONE', #17, 5.250000000000000888 ) ;
#276 = DIRECTION ( 'NONE',  ( 0.000000000000000000, 0.000000000000000000, 1.000000000000000000 ) ) ;
#277 = APPROVAL ( #133, 'NEURÈENÝ' ) ;
#278 = PLANE ( 'NONE',  #63 ) ;
#279 = LOCAL_TIME ( 11, 37, 3.000000000000000000, #147 ) ;
#280 = CARTESIAN_POINT ( 'NONE',  ( -5.250000000000000888, 0.000000000000000000, 5.199999999999982414 ) ) ;
#281 = AXIS2_PLACEMENT_3D ( 'NONE', #208, #293, #132 ) ;
#282 = CALENDAR_DATE ( 2022, 20, 6 ) ;
#283 = ORIENTED_EDGE ( 'NONE', *, *, #15, .T. ) ;
#284 = PRODUCT_RELATED_PRODUCT_CATEGORY ( 'detail', '', ( #62 ) ) ;
#285 = VECTOR ( 'NONE', #296, 1000.000000000000000 ) ;
#286 = APPROVAL_STATUS ( 'not_yet_approved' ) ;
#287 = PERSON ( 'NEURÈENÝ', 'NEURÈENÝ', 'NEURÈENÝ', ('NEURÈENÝ'), ('NEURÈENÝ'), ('NEURÈENÝ') ) ;
#288 = DATE_AND_TIME ( #2, #279 ) ;
#289 = ORIENTED_EDGE ( 'NONE', *, *, #201, .F. ) ;
#290 = CARTESIAN_POINT ( 'NONE',  ( 0.000000000000000000, 0.000000000000000000, 405.0000000000000000 ) ) ;
#291 = DIRECTION ( 'NONE',  ( 1.000000000000000000, 0.000000000000000000, -0.000000000000000000 ) ) ;
#292 = APPROVAL_PERSON_ORGANIZATION ( #196, #302, #51 ) ;
#293 = DIRECTION ( 'NONE',  ( -0.000000000000000000, -0.000000000000000000, -1.000000000000000000 ) ) ;
#294 = DIRECTION ( 'NONE',  ( 1.000000000000000000, 0.000000000000000000, 0.000000000000000000 ) ) ;
#295 = CLOSED_SHELL ( 'NONE', ( #207, #181, #143, #160, #228, #42, #151, #166, #109 ) ) ;
#296 = DIRECTION ( 'NONE',  ( -0.000000000000000000, -0.000000000000000000, -1.000000000000000000 ) ) ;
#297 = AXIS2_PLACEMENT_3D ( 'NONE', #269, #212, #174 ) ;
#298 = DIRECTION ( 'NONE',  ( 0.000000000000000000, -1.000000000000000000, 0.000000000000000000 ) ) ;
#299 = ORIENTED_EDGE ( 'NONE', *, *, #179, .T. ) ;
#300 = CARTESIAN_POINT ( 'NONE',  ( 8.000000000000000000, 9.797174393178825657E-16, 5.000000000000000000 ) ) ;
#301 = ORIENTED_EDGE ( 'NONE', *, *, #167, .F. ) ;
#302 = APPROVAL ( #286, 'NEURÈENÝ' ) ;
#303 = CARTESIAN_POINT ( 'NONE',  ( 0.000000000000000000, 0.000000000000000000, 5.000000000000000000 ) ) ;
#304 = VECTOR ( 'NONE', #173, 1000.000000000000000 ) ;
#305 = LOCAL_TIME ( 11, 37, 3.000000000000000000, #190 ) ;
#306 = APPROVAL_ROLE ( '' ) ;
#307 = ORIENTED_EDGE ( 'NONE', *, *, #215, .F. ) ;
ENDSEC;
END-ISO-10303-21;
