ISO-10303-21;
HEADER;
FILE_DESCRIPTION (( 'STEP AP203' ),
    '1' );
FILE_NAME ('2f7d.STEP',
    '2022-06-20T09:30:33',
    ( '' ),
    ( '' ),
    'SwSTEP 2.0',
    'SolidWorks 2019',
    '' );
FILE_SCHEMA (( 'CONFIG_CONTROL_DESIGN' ));
ENDSEC;

DATA;
#1 = VERTEX_POINT ( 'NONE', #265 ) ;
#2 = PERSON_AND_ORGANIZATION ( #36, #89 ) ;
#3 = ORIENTED_EDGE ( 'NONE', *, *, #231, .F. ) ;
#4 = EDGE_CURVE ( 'NONE', #263, #159, #287, .T. ) ;
#5 = ORIENTED_EDGE ( 'NONE', *, *, #180, .T. ) ;
#6 = CIRCLE ( 'NONE', #235, 6.299999999999998934 ) ;
#7 = ORIENTED_EDGE ( 'NONE', *, *, #238, .F. ) ;
#8 = ORIENTED_EDGE ( 'NONE', *, *, #219, .F. ) ;
#9 = EDGE_CURVE ( 'NONE', #26, #289, #256, .T. ) ;
#10 = DIRECTION ( 'NONE',  ( 1.000000000000000000, 0.000000000000000000, 0.000000000000000000 ) ) ;
#11 = DIRECTION ( 'NONE',  ( 1.000000000000000000, 0.000000000000000000, 0.000000000000000000 ) ) ;
#12 = MECHANICAL_CONTEXT ( 'NONE', #298, 'mechanical' ) ;
#13 = ADVANCED_FACE ( 'NONE', ( #151 ), #115, .T. ) ;
#14 = DIRECTION ( 'NONE',  ( -0.000000000000000000, -0.000000000000000000, -1.000000000000000000 ) ) ;
#15 = DIRECTION ( 'NONE',  ( -0.000000000000000000, -0.000000000000000000, -1.000000000000000000 ) ) ;
#16 = AXIS2_PLACEMENT_3D ( 'NONE', #155, #299, #174 ) ;
#17 = AXIS2_PLACEMENT_3D ( 'NONE', #150, #32, #132 ) ;
#18 = LINE ( 'NONE', #108, #226 ) ;
#19 = DIRECTION ( 'NONE',  ( 1.000000000000000000, 0.000000000000000000, 0.000000000000000000 ) ) ;
#20 = ORIENTED_EDGE ( 'NONE', *, *, #219, .T. ) ;
#21 = AXIS2_PLACEMENT_3D ( 'NONE', #250, #31, #67 ) ;
#22 = EDGE_CURVE ( 'NONE', #263, #209, #45, .T. ) ;
#23 = CARTESIAN_POINT ( 'NONE',  ( -9.000000000000000000, 0.000000000000000000, 0.000000000000000000 ) ) ;
#24 = DATE_AND_TIME ( #49, #292 ) ;
#25 = EDGE_LOOP ( 'NONE', ( #82, #29, #5, #28 ) ) ;
#26 = VERTEX_POINT ( 'NONE', #245 ) ;
#27 = EDGE_CURVE ( 'NONE', #1, #107, #210, .T. ) ;
#28 = ORIENTED_EDGE ( 'NONE', *, *, #127, .F. ) ;
#29 = ORIENTED_EDGE ( 'NONE', *, *, #4, .T. ) ;
#30 = ORIENTED_EDGE ( 'NONE', *, *, #97, .F. ) ;
#31 = DIRECTION ( 'NONE',  ( 0.000000000000000000, 0.000000000000000000, 1.000000000000000000 ) ) ;
#32 = DIRECTION ( 'NONE',  ( 0.000000000000000000, 0.000000000000000000, 1.000000000000000000 ) ) ;
#33 = COORDINATED_UNIVERSAL_TIME_OFFSET ( 1, 0, .AHEAD. ) ;
#34 = DIRECTION ( 'NONE',  ( 1.000000000000000000, 0.000000000000000000, -0.000000000000000000 ) ) ;
#35 = FACE_OUTER_BOUND ( 'NONE', #164, .T. ) ;
#36 = PERSON ( 'NEURÈENÝ', 'NEURÈENÝ', 'NEURÈENÝ', ('NEURÈENÝ'), ('NEURÈENÝ'), ('NEURÈENÝ') ) ;
#37 = DIRECTION ( 'NONE',  ( 1.000000000000000000, 0.000000000000000000, 0.000000000000000000 ) ) ;
#38 = CARTESIAN_POINT ( 'NONE',  ( 0.000000000000000000, 0.000000000000000000, 7.000000000000000000 ) ) ;
#39 = DIRECTION ( 'NONE',  ( 1.000000000000000000, 0.000000000000000000, 0.000000000000000000 ) ) ;
#40 = DIRECTION ( 'NONE',  ( 1.000000000000000000, 0.000000000000000000, 0.000000000000000000 ) ) ;
#41 = PRODUCT ( '2f7d', '2f7d', '', ( #12 ) ) ;
#42 = EDGE_CURVE ( 'NONE', #289, #26, #50, .T. ) ;
#43 = COORDINATED_UNIVERSAL_TIME_OFFSET ( 1, 0, .AHEAD. ) ;
#44 = CYLINDRICAL_SURFACE ( 'NONE', #83, 9.000000000000000000 ) ;
#45 = CIRCLE ( 'NONE', #69, 9.000000000000000000 ) ;
#46 = TOROIDAL_SURFACE ( 'NONE', #212, 6.299999999999998934, 0.2000000000000000111 ) ;
#47 = CALENDAR_DATE ( 2022, 20, 6 ) ;
#48 = PERSON_AND_ORGANIZATION_ROLE ( 'design_supplier' ) ;
#49 = CALENDAR_DATE ( 2022, 20, 6 ) ;
#50 = CIRCLE ( 'NONE', #96, 6.099999999999999645 ) ;
#51 = AXIS2_PLACEMENT_3D ( 'NONE', #63, #190, #37 ) ;
#52 = CC_DESIGN_SECURITY_CLASSIFICATION ( #195, ( #71 ) ) ;
#53 = EDGE_LOOP ( 'NONE', ( #30, #189, #185, #7 ) ) ;
#54 = PRODUCT_DEFINITION ( 'NEZNÁMÝ', '', #71, #281 ) ;
#55 = AXIS2_PLACEMENT_3D ( 'NONE', #158, #129, #301 ) ;
#56 = VECTOR ( 'NONE', #248, 1000.000000000000000 ) ;
#57 = ORIENTED_EDGE ( 'NONE', *, *, #259, .T. ) ;
#58 = FACE_OUTER_BOUND ( 'NONE', #25, .T. ) ;
#59 = LINE ( 'NONE', #110, #56 ) ;
#60 = ADVANCED_FACE ( 'NONE', ( #217, #112 ), #196, .T. ) ;
#61 = APPROVAL_DATE_TIME ( #111, #306 ) ;
#62 = CIRCLE ( 'NONE', #106, 6.099999999999999645 ) ;
#63 = CARTESIAN_POINT ( 'NONE',  ( 0.000000000000000000, 0.000000000000000000, 7.199999999999984190 ) ) ;
#64 = CARTESIAN_POINT ( 'NONE',  ( 0.000000000000000000, 0.000000000000000000, 637.0000000000000000 ) ) ;
#65 = PERSON_AND_ORGANIZATION ( #36, #89 ) ;
#66 = ADVANCED_FACE ( 'NONE', ( #58 ), #253, .T. ) ;
#67 = DIRECTION ( 'NONE',  ( 1.000000000000000000, 0.000000000000000000, 0.000000000000000000 ) ) ;
#68 = CARTESIAN_POINT ( 'NONE',  ( 0.000000000000000000, 0.000000000000000000, 637.0000000000000000 ) ) ;
#69 = AXIS2_PLACEMENT_3D ( 'NONE', #193, #191, #93 ) ;
#70 = CLOSED_SHELL ( 'NONE', ( #282, #13, #66, #206, #60, #91, #274, #171, #147 ) ) ;
#71 = PRODUCT_DEFINITION_FORMATION_WITH_SPECIFIED_SOURCE ( 'LIBOVOLNÝ', '', #41, .NOT_KNOWN. ) ;
#72 = PERSON_AND_ORGANIZATION_ROLE ( 'creator' ) ;
#73 = APPROVAL_STATUS ( 'not_yet_approved' ) ;
#74 = EDGE_CURVE ( 'NONE', #289, #1, #59, .T. ) ;
#75 = PRODUCT_RELATED_PRODUCT_CATEGORY ( 'detail', '', ( #41 ) ) ;
#76 = CIRCLE ( 'NONE', #247, 0.1999999999999996503 ) ;
#77 = ORIENTED_EDGE ( 'NONE', *, *, #231, .T. ) ;
#78 = AXIS2_PLACEMENT_3D ( 'NONE', #229, #295, #40 ) ;
#79 = CARTESIAN_POINT ( 'NONE',  ( 9.000000000000000000, 1.102182119232617714E-15, 7.000000000000000000 ) ) ;
#80 = EDGE_CURVE ( 'NONE', #26, #179, #18, .T. ) ;
#81 = ORIENTED_EDGE ( 'NONE', *, *, #4, .F. ) ;
#82 = ORIENTED_EDGE ( 'NONE', *, *, #22, .F. ) ;
#83 = AXIS2_PLACEMENT_3D ( 'NONE', #157, #255, #137 ) ;
#84 = PLANE ( 'NONE',  #201 ) ;
#85 = DIRECTION ( 'NONE',  ( 0.000000000000000000, 0.000000000000000000, 1.000000000000000000 ) ) ;
#86 = DIRECTION ( 'NONE',  ( 1.000000000000000000, 0.000000000000000000, 0.000000000000000000 ) ) ;
#87 = DIRECTION ( 'NONE',  ( -1.000000000000000000, 0.000000000000000000, 0.000000000000000000 ) ) ;
#88 = DIRECTION ( 'NONE',  ( 0.000000000000000000, 0.000000000000000000, 1.000000000000000000 ) ) ;
#89 = ORGANIZATION ( 'NEURÈENÝ', 'NEURÈENÝ', '' ) ;
#90 = CARTESIAN_POINT ( 'NONE',  ( -6.099999999999999645, 0.000000000000000000, 7.199999999999984190 ) ) ;
#91 = ADVANCED_FACE ( 'NONE', ( #153 ), #84, .F. ) ;
#92 =( NAMED_UNIT ( * ) SI_UNIT ( $, .STERADIAN. ) SOLID_ANGLE_UNIT ( ) );
#93 = DIRECTION ( 'NONE',  ( 1.000000000000000000, 0.000000000000000000, 0.000000000000000000 ) ) ;
#94 = DIRECTION ( 'NONE',  ( 0.000000000000000000, 0.000000000000000000, 1.000000000000000000 ) ) ;
#95 = PERSON_AND_ORGANIZATION ( #36, #89 ) ;
#96 = AXIS2_PLACEMENT_3D ( 'NONE', #278, #271, #10 ) ;
#97 = EDGE_CURVE ( 'NONE', #179, #268, #76, .T. ) ;
#98 = APPROVAL_DATE_TIME ( #307, #149 ) ;
#99 = UNCERTAINTY_MEASURE_WITH_UNIT (LENGTH_MEASURE( 1.000000000000000082E-05 ), #154, 'distance_accuracy_value', 'NONE');
#100 = AXIS2_PLACEMENT_3D ( 'NONE', #192, #94, #19 ) ;
#101 = APPROVAL_PERSON_ORGANIZATION ( #65, #306, #246 ) ;
#102 = PERSON_AND_ORGANIZATION ( #36, #89 ) ;
#103 = ORIENTED_EDGE ( 'NONE', *, *, #97, .T. ) ;
#104 = ORIENTED_EDGE ( 'NONE', *, *, #123, .F. ) ;
#105 = ORIENTED_EDGE ( 'NONE', *, *, #80, .T. ) ;
#106 = AXIS2_PLACEMENT_3D ( 'NONE', #297, #88, #228 ) ;
#107 = VERTEX_POINT ( 'NONE', #294 ) ;
#108 = CARTESIAN_POINT ( 'NONE',  ( -6.099999999999999645, 0.000000000000000000, 637.0000000000000000 ) ) ;
#109 = AXIS2_PLACEMENT_3D ( 'NONE', #296, #215, #221 ) ;
#110 = CARTESIAN_POINT ( 'NONE',  ( 6.099999999999999645, 7.470345474798854293E-16, 637.0000000000000000 ) ) ;
#111 = DATE_AND_TIME ( #272, #242 ) ;
#112 = FACE_OUTER_BOUND ( 'NONE', #165, .T. ) ;
#113 = CARTESIAN_POINT ( 'NONE',  ( 9.000000000000000000, 1.102182119232617714E-15, 0.000000000000000000 ) ) ;
#114 = CIRCLE ( 'NONE', #78, 6.099999999999999645 ) ;
#115 = CYLINDRICAL_SURFACE ( 'NONE', #284, 6.099999999999999645 ) ;
#116 = CARTESIAN_POINT ( 'NONE',  ( -6.299999999999998934, 7.715274834628324392E-16, 6.999999999999992006 ) ) ;
#117 = APPLICATION_PROTOCOL_DEFINITION ( 'international standard', 'config_control_design', 1994, #298 ) ;
#118 = PERSON_AND_ORGANIZATION_ROLE ( 'creator' ) ;
#119 = CC_DESIGN_APPROVAL ( #138, ( #71 ) ) ;
#120 = CALENDAR_DATE ( 2022, 20, 6 ) ;
#121 = ORIENTED_EDGE ( 'NONE', *, *, #9, .T. ) ;
#122 = ORIENTED_EDGE ( 'NONE', *, *, #180, .F. ) ;
#123 = EDGE_CURVE ( 'NONE', #205, #159, #303, .T. ) ;
#124 = AXIS2_PLACEMENT_3D ( 'NONE', #68, #197, #277 ) ;
#125 = ORIENTED_EDGE ( 'NONE', *, *, #74, .T. ) ;
#126 = LINE ( 'NONE', #170, #176 ) ;
#127 = EDGE_CURVE ( 'NONE', #209, #205, #126, .T. ) ;
#128 = FACE_OUTER_BOUND ( 'NONE', #53, .T. ) ;
#129 = DIRECTION ( 'NONE',  ( 0.000000000000000000, 0.000000000000000000, 1.000000000000000000 ) ) ;
#130 = DIRECTION ( 'NONE',  ( 0.000000000000000000, 0.000000000000000000, 1.000000000000000000 ) ) ;
#131 = CYLINDRICAL_SURFACE ( 'NONE', #124, 6.099999999999999645 ) ;
#132 = DIRECTION ( 'NONE',  ( 1.000000000000000000, 0.000000000000000000, -0.000000000000000000 ) ) ;
#133 = DIRECTION ( 'NONE',  ( -0.000000000000000000, -0.000000000000000000, -1.000000000000000000 ) ) ;
#134 = APPROVAL_STATUS ( 'not_yet_approved' ) ;
#135 =( NAMED_UNIT ( * ) PLANE_ANGLE_UNIT ( ) SI_UNIT ( $, .RADIAN. ) );
#136 = DATE_TIME_ROLE ( 'classification_date' ) ;
#137 = DIRECTION ( 'NONE',  ( -1.000000000000000000, 0.000000000000000000, 0.000000000000000000 ) ) ;
#138 = APPROVAL ( #73, 'NEURÈENÝ' ) ;
#139 = CC_DESIGN_PERSON_AND_ORGANIZATION_ASSIGNMENT ( #102, #262, ( #195 ) ) ;
#140 = SHAPE_DEFINITION_REPRESENTATION ( #288, #145 ) ;
#141 = TOROIDAL_SURFACE ( 'NONE', #51, 6.299999999999998934, 0.2000000000000000111 ) ;
#142 = APPROVAL_PERSON_ORGANIZATION ( #183, #138, #181 ) ;
#143 = ORIENTED_EDGE ( 'NONE', *, *, #123, .T. ) ;
#144 = EDGE_LOOP ( 'NONE', ( #200, #163 ) ) ;
#145 = ADVANCED_BREP_SHAPE_REPRESENTATION ( '2f7d', ( #280, #100 ), #225 ) ;
#146 = AXIS2_PLACEMENT_3D ( 'NONE', #213, #130, #169 ) ;
#147 = ADVANCED_FACE ( 'NONE', ( #128 ), #141, .F. ) ;
#148 = ORIENTED_EDGE ( 'NONE', *, *, #267, .F. ) ;
#149 = APPROVAL ( #230, 'NEURÈENÝ' ) ;
#150 = CARTESIAN_POINT ( 'NONE',  ( 0.000000000000000000, 0.000000000000000000, 637.0000000000000000 ) ) ;
#151 = FACE_OUTER_BOUND ( 'NONE', #208, .T. ) ;
#152 = CARTESIAN_POINT ( 'NONE',  ( 0.000000000000000000, 0.000000000000000000, 7.000000000000000000 ) ) ;
#153 = FACE_OUTER_BOUND ( 'NONE', #304, .T. ) ;
#154 =( LENGTH_UNIT ( ) NAMED_UNIT ( * ) SI_UNIT ( .MILLI., .METRE. ) );
#155 = CARTESIAN_POINT ( 'NONE',  ( 0.000000000000000000, 0.000000000000000000, 7.000000000000000000 ) ) ;
#156 = CARTESIAN_POINT ( 'NONE',  ( 0.000000000000000000, 0.000000000000000000, 7.199999999999984190 ) ) ;
#157 = CARTESIAN_POINT ( 'NONE',  ( 0.000000000000000000, 0.000000000000000000, 7.000000000000000000 ) ) ;
#158 = CARTESIAN_POINT ( 'NONE',  ( 0.000000000000000000, 0.000000000000000000, 7.000000000000000000 ) ) ;
#159 = VERTEX_POINT ( 'NONE', #113 ) ;
#160 = APPROVAL_DATE_TIME ( #24, #138 ) ;
#161 = EDGE_LOOP ( 'NONE', ( #81, #3, #186, #143 ) ) ;
#162 = CIRCLE ( 'NONE', #285, 6.299999999999998934 ) ;
#163 = ORIENTED_EDGE ( 'NONE', *, *, #238, .T. ) ;
#164 = EDGE_LOOP ( 'NONE', ( #8, #103, #148, #214 ) ) ;
#165 = EDGE_LOOP ( 'NONE', ( #77, #236 ) ) ;
#166 = CC_DESIGN_PERSON_AND_ORGANIZATION_ASSIGNMENT ( #261, #72, ( #71 ) ) ;
#167 = ORIENTED_EDGE ( 'NONE', *, *, #42, .F. ) ;
#168 = CARTESIAN_POINT ( 'NONE',  ( -6.299999999999998934, 7.715274834628324392E-16, 7.199999999999984190 ) ) ;
#169 = DIRECTION ( 'NONE',  ( 1.000000000000000000, 0.000000000000000000, 0.000000000000000000 ) ) ;
#170 = CARTESIAN_POINT ( 'NONE',  ( -9.000000000000000000, 0.000000000000000000, 7.000000000000000000 ) ) ;
#171 = ADVANCED_FACE ( 'NONE', ( #293 ), #273, .T. ) ;
#172 = DIRECTION ( 'NONE',  ( -0.000000000000000000, -0.000000000000000000, -1.000000000000000000 ) ) ;
#173 = APPLICATION_PROTOCOL_DEFINITION ( 'international standard', 'config_control_design', 1994, #257 ) ;
#174 = DIRECTION ( 'NONE',  ( 1.000000000000000000, 0.000000000000000000, -0.000000000000000000 ) ) ;
#175 = DIRECTION ( 'NONE',  ( 0.000000000000000000, 0.000000000000000000, 1.000000000000000000 ) ) ;
#176 = VECTOR ( 'NONE', #14, 1000.000000000000000 ) ;
#177 = PERSON_AND_ORGANIZATION_ROLE ( 'design_owner' ) ;
#178 = LOCAL_TIME ( 11, 30, 33.00000000000000000, #204 ) ;
#179 = VERTEX_POINT ( 'NONE', #90 ) ;
#180 = EDGE_CURVE ( 'NONE', #159, #205, #216, .T. ) ;
#181 = APPROVAL_ROLE ( '' ) ;
#182 = LOCAL_TIME ( 11, 30, 33.00000000000000000, #283 ) ;
#183 = PERSON_AND_ORGANIZATION ( #36, #89 ) ;
#184 = ORIENTED_EDGE ( 'NONE', *, *, #9, .F. ) ;
#185 = ORIENTED_EDGE ( 'NONE', *, *, #27, .T. ) ;
#186 = ORIENTED_EDGE ( 'NONE', *, *, #127, .T. ) ;
#187 = EDGE_LOOP ( 'NONE', ( #239, #184, #105, #20 ) ) ;
#188 = CC_DESIGN_DATE_AND_TIME_ASSIGNMENT ( #260, #207, ( #54 ) ) ;
#189 = ORIENTED_EDGE ( 'NONE', *, *, #259, .F. ) ;
#190 = DIRECTION ( 'NONE',  ( 0.000000000000000000, 0.000000000000000000, 1.000000000000000000 ) ) ;
#191 = DIRECTION ( 'NONE',  ( 0.000000000000000000, 0.000000000000000000, 1.000000000000000000 ) ) ;
#192 = CARTESIAN_POINT ( 'NONE',  ( 0.000000000000000000, 0.000000000000000000, 0.000000000000000000 ) ) ;
#193 = CARTESIAN_POINT ( 'NONE',  ( 0.000000000000000000, 0.000000000000000000, 7.000000000000000000 ) ) ;
#194 = DIRECTION ( 'NONE',  ( -1.000000000000000000, 0.000000000000000000, 0.000000000000000000 ) ) ;
#195 = SECURITY_CLASSIFICATION ( '', '', #203 ) ;
#196 = PLANE ( 'NONE',  #16 ) ;
#197 = DIRECTION ( 'NONE',  ( -0.000000000000000000, -0.000000000000000000, -1.000000000000000000 ) ) ;
#198 = CC_DESIGN_DATE_AND_TIME_ASSIGNMENT ( #305, #136, ( #195 ) ) ;
#199 = FACE_OUTER_BOUND ( 'NONE', #187, .T. ) ;
#200 = ORIENTED_EDGE ( 'NONE', *, *, #267, .T. ) ;
#201 = AXIS2_PLACEMENT_3D ( 'NONE', #224, #302, #34 ) ;
#202 = APPROVAL_ROLE ( '' ) ;
#203 = SECURITY_CLASSIFICATION_LEVEL ( 'unclassified' ) ;
#204 = COORDINATED_UNIVERSAL_TIME_OFFSET ( 1, 0, .AHEAD. ) ;
#205 = VERTEX_POINT ( 'NONE', #23 ) ;
#206 = ADVANCED_FACE ( 'NONE', ( #232 ), #44, .T. ) ;
#207 = DATE_TIME_ROLE ( 'creation_date' ) ;
#208 = EDGE_LOOP ( 'NONE', ( #167, #125, #57, #243 ) ) ;
#209 = VERTEX_POINT ( 'NONE', #249 ) ;
#210 = CIRCLE ( 'NONE', #109, 0.1999999999999996503 ) ;
#211 = CC_DESIGN_PERSON_AND_ORGANIZATION_ASSIGNMENT ( #95, #177, ( #41 ) ) ;
#212 = AXIS2_PLACEMENT_3D ( 'NONE', #156, #175, #39 ) ;
#213 = CARTESIAN_POINT ( 'NONE',  ( 0.000000000000000000, 0.000000000000000000, 637.0000000000000000 ) ) ;
#214 = ORIENTED_EDGE ( 'NONE', *, *, #27, .F. ) ;
#215 = DIRECTION ( 'NONE',  ( 0.000000000000000000, -1.000000000000000000, 0.000000000000000000 ) ) ;
#216 = CIRCLE ( 'NONE', #241, 9.000000000000000000 ) ;
#217 = FACE_BOUND ( 'NONE', #144, .T. ) ;
#218 = APPROVAL_PERSON_ORGANIZATION ( #2, #149, #202 ) ;
#219 = EDGE_CURVE ( 'NONE', #179, #1, #114, .T. ) ;
#220 = CARTESIAN_POINT ( 'NONE',  ( 9.000000000000000000, 1.102182119232617714E-15, 7.000000000000000000 ) ) ;
#221 = DIRECTION ( 'NONE',  ( 0.000000000000000000, 0.000000000000000000, -1.000000000000000000 ) ) ;
#222 = CARTESIAN_POINT ( 'NONE',  ( 6.099999999999999645, 7.470345474798854293E-16, 637.0000000000000000 ) ) ;
#223 = DIRECTION ( 'NONE',  ( -0.000000000000000000, -0.000000000000000000, -1.000000000000000000 ) ) ;
#224 = CARTESIAN_POINT ( 'NONE',  ( 0.000000000000000000, 0.000000000000000000, 0.000000000000000000 ) ) ;
#225 =( GEOMETRIC_REPRESENTATION_CONTEXT ( 3 ) GLOBAL_UNCERTAINTY_ASSIGNED_CONTEXT ( ( #99 ) ) GLOBAL_UNIT_ASSIGNED_CONTEXT ( ( #154, #135, #92 ) ) REPRESENTATION_CONTEXT ( 'NONE', 'WORKASPACE' ) );
#226 = VECTOR ( 'NONE', #133, 1000.000000000000000 ) ;
#227 = LOCAL_TIME ( 11, 30, 33.00000000000000000, #43 ) ;
#228 = DIRECTION ( 'NONE',  ( 1.000000000000000000, 0.000000000000000000, 0.000000000000000000 ) ) ;
#229 = CARTESIAN_POINT ( 'NONE',  ( 0.000000000000000000, 0.000000000000000000, 7.199999999999984190 ) ) ;
#230 = APPROVAL_STATUS ( 'not_yet_approved' ) ;
#231 = EDGE_CURVE ( 'NONE', #209, #263, #291, .T. ) ;
#232 = FACE_OUTER_BOUND ( 'NONE', #161, .T. ) ;
#233 = COORDINATED_UNIVERSAL_TIME_OFFSET ( 1, 0, .AHEAD. ) ;
#234 = CALENDAR_DATE ( 2022, 20, 6 ) ;
#235 = AXIS2_PLACEMENT_3D ( 'NONE', #279, #15, #251 ) ;
#236 = ORIENTED_EDGE ( 'NONE', *, *, #22, .T. ) ;
#237 = ORIENTED_EDGE ( 'NONE', *, *, #42, .T. ) ;
#238 = EDGE_CURVE ( 'NONE', #268, #107, #6, .T. ) ;
#239 = ORIENTED_EDGE ( 'NONE', *, *, #74, .F. ) ;
#240 = VECTOR ( 'NONE', #266, 1000.000000000000000 ) ;
#241 = AXIS2_PLACEMENT_3D ( 'NONE', #276, #85, #11 ) ;
#242 = LOCAL_TIME ( 11, 30, 33.00000000000000000, #33 ) ;
#243 = ORIENTED_EDGE ( 'NONE', *, *, #80, .F. ) ;
#244 = DIRECTION ( 'NONE',  ( -1.000000000000000000, 1.224646799147353454E-16, 0.000000000000000000 ) ) ;
#245 = CARTESIAN_POINT ( 'NONE',  ( -6.099999999999999645, 0.000000000000000000, 637.0000000000000000 ) ) ;
#246 = APPROVAL_ROLE ( '' ) ;
#247 = AXIS2_PLACEMENT_3D ( 'NONE', #168, #270, #244 ) ;
#248 = DIRECTION ( 'NONE',  ( -0.000000000000000000, -0.000000000000000000, -1.000000000000000000 ) ) ;
#249 = CARTESIAN_POINT ( 'NONE',  ( -9.000000000000000000, 0.000000000000000000, 7.000000000000000000 ) ) ;
#250 = CARTESIAN_POINT ( 'NONE',  ( 0.000000000000000000, 0.000000000000000000, 0.000000000000000000 ) ) ;
#251 = DIRECTION ( 'NONE',  ( 1.000000000000000000, 0.000000000000000000, 0.000000000000000000 ) ) ;
#252 = CC_DESIGN_PERSON_AND_ORGANIZATION_ASSIGNMENT ( #275, #118, ( #54 ) ) ;
#253 = CYLINDRICAL_SURFACE ( 'NONE', #264, 9.000000000000000000 ) ;
#254 = DIRECTION ( 'NONE',  ( -0.000000000000000000, -0.000000000000000000, -1.000000000000000000 ) ) ;
#255 = DIRECTION ( 'NONE',  ( -0.000000000000000000, -0.000000000000000000, -1.000000000000000000 ) ) ;
#256 = CIRCLE ( 'NONE', #146, 6.099999999999999645 ) ;
#257 = APPLICATION_CONTEXT ( 'configuration controlled 3d designs of mechanical parts and assemblies' ) ;
#258 = PERSON_AND_ORGANIZATION ( #36, #89 ) ;
#259 = EDGE_CURVE ( 'NONE', #1, #179, #62, .T. ) ;
#260 = DATE_AND_TIME ( #120, #182 ) ;
#261 = PERSON_AND_ORGANIZATION ( #36, #89 ) ;
#262 = PERSON_AND_ORGANIZATION_ROLE ( 'classification_officer' ) ;
#263 = VERTEX_POINT ( 'NONE', #220 ) ;
#264 = AXIS2_PLACEMENT_3D ( 'NONE', #38, #172, #87 ) ;
#265 = CARTESIAN_POINT ( 'NONE',  ( 6.099999999999999645, 7.470345474798854293E-16, 7.199999999999984190 ) ) ;
#266 = DIRECTION ( 'NONE',  ( -0.000000000000000000, -0.000000000000000000, -1.000000000000000000 ) ) ;
#267 = EDGE_CURVE ( 'NONE', #107, #268, #162, .T. ) ;
#268 = VERTEX_POINT ( 'NONE', #116 ) ;
#269 = CC_DESIGN_APPROVAL ( #306, ( #54 ) ) ;
#270 = DIRECTION ( 'NONE',  ( 1.224646799147353207E-16, 1.000000000000000000, -0.000000000000000000 ) ) ;
#271 = DIRECTION ( 'NONE',  ( 0.000000000000000000, 0.000000000000000000, 1.000000000000000000 ) ) ;
#272 = CALENDAR_DATE ( 2022, 20, 6 ) ;
#273 = PLANE ( 'NONE',  #17 ) ;
#274 = ADVANCED_FACE ( 'NONE', ( #199 ), #131, .T. ) ;
#275 = PERSON_AND_ORGANIZATION ( #36, #89 ) ;
#276 = CARTESIAN_POINT ( 'NONE',  ( 0.000000000000000000, 0.000000000000000000, 0.000000000000000000 ) ) ;
#277 = DIRECTION ( 'NONE',  ( -1.000000000000000000, 0.000000000000000000, 0.000000000000000000 ) ) ;
#278 = CARTESIAN_POINT ( 'NONE',  ( 0.000000000000000000, 0.000000000000000000, 637.0000000000000000 ) ) ;
#279 = CARTESIAN_POINT ( 'NONE',  ( 0.000000000000000000, 0.000000000000000000, 7.000000000000000000 ) ) ;
#280 = MANIFOLD_SOLID_BREP ( 'Zaoblit1', #70 ) ;
#281 = DESIGN_CONTEXT ( 'detailed design', #257, 'design' ) ;
#282 = ADVANCED_FACE ( 'NONE', ( #35 ), #46, .F. ) ;
#283 = COORDINATED_UNIVERSAL_TIME_OFFSET ( 1, 0, .AHEAD. ) ;
#284 = AXIS2_PLACEMENT_3D ( 'NONE', #64, #223, #194 ) ;
#285 = AXIS2_PLACEMENT_3D ( 'NONE', #152, #254, #86 ) ;
#286 = CC_DESIGN_APPROVAL ( #149, ( #195 ) ) ;
#287 = LINE ( 'NONE', #79, #240 ) ;
#288 = PRODUCT_DEFINITION_SHAPE ( 'NONE', 'NONE',  #54 ) ;
#289 = VERTEX_POINT ( 'NONE', #222 ) ;
#290 = EDGE_LOOP ( 'NONE', ( #121, #237 ) ) ;
#291 = CIRCLE ( 'NONE', #55, 9.000000000000000000 ) ;
#292 = LOCAL_TIME ( 11, 30, 33.00000000000000000, #233 ) ;
#293 = FACE_OUTER_BOUND ( 'NONE', #290, .T. ) ;
#294 = CARTESIAN_POINT ( 'NONE',  ( 6.299999999999998934, 0.000000000000000000, 6.999999999999992006 ) ) ;
#295 = DIRECTION ( 'NONE',  ( 0.000000000000000000, 0.000000000000000000, 1.000000000000000000 ) ) ;
#296 = CARTESIAN_POINT ( 'NONE',  ( 6.299999999999998934, 0.000000000000000000, 7.199999999999984190 ) ) ;
#297 = CARTESIAN_POINT ( 'NONE',  ( 0.000000000000000000, 0.000000000000000000, 7.199999999999984190 ) ) ;
#298 = APPLICATION_CONTEXT ( 'configuration controlled 3d designs of mechanical parts and assemblies' ) ;
#299 = DIRECTION ( 'NONE',  ( 0.000000000000000000, 0.000000000000000000, 1.000000000000000000 ) ) ;
#300 = CC_DESIGN_PERSON_AND_ORGANIZATION_ASSIGNMENT ( #258, #48, ( #71 ) ) ;
#301 = DIRECTION ( 'NONE',  ( 1.000000000000000000, 0.000000000000000000, 0.000000000000000000 ) ) ;
#302 = DIRECTION ( 'NONE',  ( 0.000000000000000000, 0.000000000000000000, 1.000000000000000000 ) ) ;
#303 = CIRCLE ( 'NONE', #21, 9.000000000000000000 ) ;
#304 = EDGE_LOOP ( 'NONE', ( #104, #122 ) ) ;
#305 = DATE_AND_TIME ( #47, #227 ) ;
#306 = APPROVAL ( #134, 'NEURÈENÝ' ) ;
#307 = DATE_AND_TIME ( #234, #178 ) ;
ENDSEC;
END-ISO-10303-21;
