ISO-10303-21;
HEADER;
FILE_DESCRIPTION (( 'STEP AP203' ),
    '1' );
FILE_NAME ('a134.STEP',
    '2022-06-20T09:28:21',
    ( '' ),
    ( '' ),
    'SwSTEP 2.0',
    'SolidWorks 2019',
    '' );
FILE_SCHEMA (( 'CONFIG_CONTROL_DESIGN' ));
ENDSEC;

DATA;
#1 = CARTESIAN_POINT ( 'NONE',  ( 0.000000000000000000, 0.000000000000000000, 7.000000000000000000 ) ) ;
#2 = AXIS2_PLACEMENT_3D ( 'NONE', #287, #263, #290 ) ;
#3 = FACE_OUTER_BOUND ( 'NONE', #66, .T. ) ;
#4 = CARTESIAN_POINT ( 'NONE',  ( -6.250000000000000000, 0.000000000000000000, 322.0000000000000000 ) ) ;
#5 = DIRECTION ( 'NONE',  ( 0.000000000000000000, 0.000000000000000000, 1.000000000000000000 ) ) ;
#6 = AXIS2_PLACEMENT_3D ( 'NONE', #1, #8, #99 ) ;
#7 = CC_DESIGN_APPROVAL ( #46, ( #262 ) ) ;
#8 = DIRECTION ( 'NONE',  ( -0.000000000000000000, -0.000000000000000000, -1.000000000000000000 ) ) ;
#9 = EDGE_CURVE ( 'NONE', #279, #68, #123, .T. ) ;
#10 = CARTESIAN_POINT ( 'NONE',  ( 6.250000000000000000, 7.654042494670957606E-16, 322.0000000000000000 ) ) ;
#11 = CARTESIAN_POINT ( 'NONE',  ( 0.000000000000000000, 0.000000000000000000, 0.000000000000000000 ) ) ;
#12 = AXIS2_PLACEMENT_3D ( 'NONE', #269, #298, #175 ) ;
#13 = EDGE_LOOP ( 'NONE', ( #188, #168 ) ) ;
#14 = ADVANCED_FACE ( 'NONE', ( #45 ), #87, .T. ) ;
#15 = PERSON_AND_ORGANIZATION_ROLE ( 'creator' ) ;
#16 = CIRCLE ( 'NONE', #191, 6.450000000000000178 ) ;
#17 = VECTOR ( 'NONE', #150, 1000.000000000000000 ) ;
#18 = DATE_AND_TIME ( #302, #142 ) ;
#19 = ORIENTED_EDGE ( 'NONE', *, *, #225, .F. ) ;
#20 = VERTEX_POINT ( 'NONE', #139 ) ;
#21 = VERTEX_POINT ( 'NONE', #213 ) ;
#22 = AXIS2_PLACEMENT_3D ( 'NONE', #92, #63, #254 ) ;
#23 = AXIS2_PLACEMENT_3D ( 'NONE', #117, #35, #125 ) ;
#24 = LOCAL_TIME ( 11, 28, 21.00000000000000000, #61 ) ;
#25 = ORIENTED_EDGE ( 'NONE', *, *, #179, .T. ) ;
#26 = CC_DESIGN_PERSON_AND_ORGANIZATION_ASSIGNMENT ( #294, #15, ( #41 ) ) ;
#27 = DIRECTION ( 'NONE',  ( 0.000000000000000000, 0.000000000000000000, -1.000000000000000000 ) ) ;
#28 = DIRECTION ( 'NONE',  ( -0.000000000000000000, -0.000000000000000000, -1.000000000000000000 ) ) ;
#29 = CIRCLE ( 'NONE', #75, 6.250000000000000000 ) ;
#30 = LINE ( 'NONE', #240, #17 ) ;
#31 = DIRECTION ( 'NONE',  ( -1.000000000000000000, 1.224646799147353454E-16, 0.000000000000000000 ) ) ;
#32 = CARTESIAN_POINT ( 'NONE',  ( -6.250000000000000000, 0.000000000000000000, 7.199999999999984190 ) ) ;
#33 = CIRCLE ( 'NONE', #277, 0.1999999999999996503 ) ;
#34 =( LENGTH_UNIT ( ) NAMED_UNIT ( * ) SI_UNIT ( .MILLI., .METRE. ) );
#35 = DIRECTION ( 'NONE',  ( 0.000000000000000000, 0.000000000000000000, 1.000000000000000000 ) ) ;
#36 = AXIS2_PLACEMENT_3D ( 'NONE', #95, #241, #149 ) ;
#37 = EDGE_CURVE ( 'NONE', #68, #279, #74, .T. ) ;
#38 = APPROVAL_ROLE ( '' ) ;
#39 =( NAMED_UNIT ( * ) SI_UNIT ( $, .STERADIAN. ) SOLID_ANGLE_UNIT ( ) );
#40 = PRODUCT_DEFINITION_SHAPE ( 'NONE', 'NONE',  #41 ) ;
#41 = PRODUCT_DEFINITION ( 'NEZNÁMÝ', '', #153, #62 ) ;
#42 = DIRECTION ( 'NONE',  ( 0.000000000000000000, 0.000000000000000000, 1.000000000000000000 ) ) ;
#43 = CIRCLE ( 'NONE', #266, 9.000000000000000000 ) ;
#44 = ORIENTED_EDGE ( 'NONE', *, *, #170, .F. ) ;
#45 = FACE_OUTER_BOUND ( 'NONE', #280, .T. ) ;
#46 = APPROVAL ( #300, 'NEURÈENÝ' ) ;
#47 = ADVANCED_BREP_SHAPE_REPRESENTATION ( 'a134', ( #215, #102 ), #250 ) ;
#48 = ORIENTED_EDGE ( 'NONE', *, *, #246, .F. ) ;
#49 = EDGE_LOOP ( 'NONE', ( #19, #282, #176, #130 ) ) ;
#50 = CARTESIAN_POINT ( 'NONE',  ( -9.000000000000000000, 0.000000000000000000, 0.000000000000000000 ) ) ;
#51 = CARTESIAN_POINT ( 'NONE',  ( 0.000000000000000000, 0.000000000000000000, 7.199999999999984190 ) ) ;
#52 = CARTESIAN_POINT ( 'NONE',  ( 0.000000000000000000, 0.000000000000000000, 7.199999999999984190 ) ) ;
#53 = LINE ( 'NONE', #196, #299 ) ;
#54 = CARTESIAN_POINT ( 'NONE',  ( 0.000000000000000000, 0.000000000000000000, 7.199999999999984190 ) ) ;
#55 = AXIS2_PLACEMENT_3D ( 'NONE', #185, #42, #229 ) ;
#56 = TOROIDAL_SURFACE ( 'NONE', #305, 6.450000000000000178, 0.2000000000000000111 ) ;
#57 = APPROVAL_DATE_TIME ( #78, #167 ) ;
#58 = EDGE_CURVE ( 'NONE', #276, #301, #16, .T. ) ;
#59 = PERSON_AND_ORGANIZATION ( #286, #200 ) ;
#60 = DATE_TIME_ROLE ( 'creation_date' ) ;
#61 = COORDINATED_UNIVERSAL_TIME_OFFSET ( 1, 0, .AHEAD. ) ;
#62 = DESIGN_CONTEXT ( 'detailed design', #267, 'design' ) ;
#63 = DIRECTION ( 'NONE',  ( 0.000000000000000000, 0.000000000000000000, 1.000000000000000000 ) ) ;
#64 = ORIENTED_EDGE ( 'NONE', *, *, #219, .T. ) ;
#65 = CC_DESIGN_APPROVAL ( #222, ( #41 ) ) ;
#66 = EDGE_LOOP ( 'NONE', ( #109, #211, #103, #64 ) ) ;
#67 = ADVANCED_FACE ( 'NONE', ( #91, #307 ), #108, .T. ) ;
#68 = VERTEX_POINT ( 'NONE', #88 ) ;
#69 = EDGE_LOOP ( 'NONE', ( #164, #112 ) ) ;
#70 = VECTOR ( 'NONE', #198, 1000.000000000000000 ) ;
#71 = CARTESIAN_POINT ( 'NONE',  ( 6.450000000000000178, 0.000000000000000000, 6.999999999999992006 ) ) ;
#72 = DIRECTION ( 'NONE',  ( 0.000000000000000000, 0.000000000000000000, 1.000000000000000000 ) ) ;
#73 = CYLINDRICAL_SURFACE ( 'NONE', #6, 9.000000000000000000 ) ;
#74 = CIRCLE ( 'NONE', #156, 9.000000000000000000 ) ;
#75 = AXIS2_PLACEMENT_3D ( 'NONE', #120, #169, #77 ) ;
#76 = DIRECTION ( 'NONE',  ( 1.224646799147353207E-16, 1.000000000000000000, -0.000000000000000000 ) ) ;
#77 = DIRECTION ( 'NONE',  ( 1.000000000000000000, 0.000000000000000000, 0.000000000000000000 ) ) ;
#78 = DATE_AND_TIME ( #220, #238 ) ;
#79 = CALENDAR_DATE ( 2022, 20, 6 ) ;
#80 = COORDINATED_UNIVERSAL_TIME_OFFSET ( 1, 0, .AHEAD. ) ;
#81 = APPROVAL_DATE_TIME ( #158, #222 ) ;
#82 = ADVANCED_FACE ( 'NONE', ( #138 ), #252, .T. ) ;
#83 = APPROVAL_PERSON_ORGANIZATION ( #273, #222, #292 ) ;
#84 = CYLINDRICAL_SURFACE ( 'NONE', #146, 6.250000000000000000 ) ;
#85 = PRODUCT ( 'a134', 'a134', '', ( #155 ) ) ;
#86 = COORDINATED_UNIVERSAL_TIME_OFFSET ( 1, 0, .AHEAD. ) ;
#87 = CYLINDRICAL_SURFACE ( 'NONE', #288, 9.000000000000000000 ) ;
#88 = CARTESIAN_POINT ( 'NONE',  ( -9.000000000000000000, 0.000000000000000000, 7.000000000000000000 ) ) ;
#89 = CC_DESIGN_APPROVAL ( #167, ( #153 ) ) ;
#90 = ORIENTED_EDGE ( 'NONE', *, *, #278, .F. ) ;
#91 = FACE_BOUND ( 'NONE', #248, .T. ) ;
#92 = CARTESIAN_POINT ( 'NONE',  ( 0.000000000000000000, 0.000000000000000000, 7.000000000000000000 ) ) ;
#93 = CARTESIAN_POINT ( 'NONE',  ( 6.250000000000000000, 7.654042494670957606E-16, 322.0000000000000000 ) ) ;
#94 = AXIS2_PLACEMENT_3D ( 'NONE', #52, #261, #193 ) ;
#95 = CARTESIAN_POINT ( 'NONE',  ( 0.000000000000000000, 0.000000000000000000, 0.000000000000000000 ) ) ;
#96 = CARTESIAN_POINT ( 'NONE',  ( 0.000000000000000000, 0.000000000000000000, 0.000000000000000000 ) ) ;
#97 = DIRECTION ( 'NONE',  ( 1.000000000000000000, 0.000000000000000000, 0.000000000000000000 ) ) ;
#98 = CC_DESIGN_DATE_AND_TIME_ASSIGNMENT ( #110, #133, ( #262 ) ) ;
#99 = DIRECTION ( 'NONE',  ( -1.000000000000000000, 0.000000000000000000, 0.000000000000000000 ) ) ;
#100 = DIRECTION ( 'NONE',  ( 1.000000000000000000, 0.000000000000000000, 0.000000000000000000 ) ) ;
#101 =( NAMED_UNIT ( * ) PLANE_ANGLE_UNIT ( ) SI_UNIT ( $, .RADIAN. ) );
#102 = AXIS2_PLACEMENT_3D ( 'NONE', #11, #199, #100 ) ;
#103 = ORIENTED_EDGE ( 'NONE', *, *, #161, .T. ) ;
#104 = CARTESIAN_POINT ( 'NONE',  ( -6.450000000000000178, 7.898971854500428692E-16, 6.999999999999992006 ) ) ;
#105 = CLOSED_SHELL ( 'NONE', ( #152, #297, #14, #195, #67, #291, #121, #82, #259 ) ) ;
#106 = AXIS2_PLACEMENT_3D ( 'NONE', #119, #28, #265 ) ;
#107 = SECURITY_CLASSIFICATION_LEVEL ( 'unclassified' ) ;
#108 = PLANE ( 'NONE',  #55 ) ;
#109 = ORIENTED_EDGE ( 'NONE', *, *, #111, .F. ) ;
#110 = DATE_AND_TIME ( #230, #24 ) ;
#111 = EDGE_CURVE ( 'NONE', #279, #21, #30, .T. ) ;
#112 = ORIENTED_EDGE ( 'NONE', *, *, #272, .F. ) ;
#113 = AXIS2_PLACEMENT_3D ( 'NONE', #54, #197, #217 ) ;
#114 = VERTEX_POINT ( 'NONE', #216 ) ;
#115 = ORIENTED_EDGE ( 'NONE', *, *, #111, .T. ) ;
#116 = DIRECTION ( 'NONE',  ( 0.000000000000000000, 0.000000000000000000, 1.000000000000000000 ) ) ;
#117 = CARTESIAN_POINT ( 'NONE',  ( 0.000000000000000000, 0.000000000000000000, 322.0000000000000000 ) ) ;
#118 = APPROVAL_PERSON_ORGANIZATION ( #245, #167, #38 ) ;
#119 = CARTESIAN_POINT ( 'NONE',  ( 0.000000000000000000, 0.000000000000000000, 322.0000000000000000 ) ) ;
#120 = CARTESIAN_POINT ( 'NONE',  ( 0.000000000000000000, 0.000000000000000000, 322.0000000000000000 ) ) ;
#121 = ADVANCED_FACE ( 'NONE', ( #174 ), #239, .T. ) ;
#122 = CARTESIAN_POINT ( 'NONE',  ( 0.000000000000000000, 0.000000000000000000, 7.199999999999984190 ) ) ;
#123 = CIRCLE ( 'NONE', #22, 9.000000000000000000 ) ;
#124 = LOCAL_TIME ( 11, 28, 21.00000000000000000, #80 ) ;
#125 = DIRECTION ( 'NONE',  ( 1.000000000000000000, 0.000000000000000000, 0.000000000000000000 ) ) ;
#126 = PERSON_AND_ORGANIZATION ( #286, #200 ) ;
#127 = FACE_OUTER_BOUND ( 'NONE', #69, .T. ) ;
#128 = AXIS2_PLACEMENT_3D ( 'NONE', #186, #144, #237 ) ;
#129 = FACE_OUTER_BOUND ( 'NONE', #207, .T. ) ;
#130 = ORIENTED_EDGE ( 'NONE', *, *, #233, .T. ) ;
#131 = APPLICATION_PROTOCOL_DEFINITION ( 'international standard', 'config_control_design', 1994, #226 ) ;
#132 = PRODUCT_RELATED_PRODUCT_CATEGORY ( 'detail', '', ( #85 ) ) ;
#133 = DATE_TIME_ROLE ( 'classification_date' ) ;
#134 = ORIENTED_EDGE ( 'NONE', *, *, #173, .F. ) ;
#135 = PERSON_AND_ORGANIZATION ( #286, #200 ) ;
#136 = ORIENTED_EDGE ( 'NONE', *, *, #9, .F. ) ;
#137 = APPROVAL_ROLE ( '' ) ;
#138 = FACE_OUTER_BOUND ( 'NONE', #304, .T. ) ;
#139 = CARTESIAN_POINT ( 'NONE',  ( -6.250000000000000000, 0.000000000000000000, 322.0000000000000000 ) ) ;
#140 = AXIS2_PLACEMENT_3D ( 'NONE', #214, #76, #31 ) ;
#141 = CARTESIAN_POINT ( 'NONE',  ( 0.000000000000000000, 0.000000000000000000, 7.000000000000000000 ) ) ;
#142 = LOCAL_TIME ( 11, 28, 21.00000000000000000, #86 ) ;
#143 = DIRECTION ( 'NONE',  ( -0.000000000000000000, -0.000000000000000000, -1.000000000000000000 ) ) ;
#144 = DIRECTION ( 'NONE',  ( 0.000000000000000000, 0.000000000000000000, 1.000000000000000000 ) ) ;
#145 = FACE_OUTER_BOUND ( 'NONE', #258, .T. ) ;
#146 = AXIS2_PLACEMENT_3D ( 'NONE', #180, #295, #268 ) ;
#147 = CIRCLE ( 'NONE', #94, 6.250000000000000000 ) ;
#148 = CC_DESIGN_PERSON_AND_ORGANIZATION_ASSIGNMENT ( #251, #206, ( #262 ) ) ;
#149 = DIRECTION ( 'NONE',  ( 1.000000000000000000, 0.000000000000000000, 0.000000000000000000 ) ) ;
#150 = DIRECTION ( 'NONE',  ( -0.000000000000000000, -0.000000000000000000, -1.000000000000000000 ) ) ;
#151 = DIRECTION ( 'NONE',  ( 0.000000000000000000, -1.000000000000000000, 0.000000000000000000 ) ) ;
#152 = ADVANCED_FACE ( 'NONE', ( #145 ), #56, .F. ) ;
#153 = PRODUCT_DEFINITION_FORMATION_WITH_SPECIFIED_SOURCE ( 'LIBOVOLNÝ', '', #85, .NOT_KNOWN. ) ;
#154 = DATE_AND_TIME ( #271, #244 ) ;
#155 = MECHANICAL_CONTEXT ( 'NONE', #226, 'mechanical' ) ;
#156 = AXIS2_PLACEMENT_3D ( 'NONE', #141, #234, #163 ) ;
#157 = CC_DESIGN_PERSON_AND_ORGANIZATION_ASSIGNMENT ( #126, #221, ( #153 ) ) ;
#158 = DATE_AND_TIME ( #79, #124 ) ;
#159 = PERSON_AND_ORGANIZATION_ROLE ( 'design_supplier' ) ;
#160 = CARTESIAN_POINT ( 'NONE',  ( 0.000000000000000000, 0.000000000000000000, 7.000000000000000000 ) ) ;
#161 = EDGE_CURVE ( 'NONE', #68, #224, #53, .T. ) ;
#162 = PERSON_AND_ORGANIZATION ( #286, #200 ) ;
#163 = DIRECTION ( 'NONE',  ( 1.000000000000000000, 0.000000000000000000, 0.000000000000000000 ) ) ;
#164 = ORIENTED_EDGE ( 'NONE', *, *, #219, .F. ) ;
#165 = ORIENTED_EDGE ( 'NONE', *, *, #225, .T. ) ;
#166 = CIRCLE ( 'NONE', #140, 0.1999999999999996503 ) ;
#167 = APPROVAL ( #178, 'NEURÈENÝ' ) ;
#168 = ORIENTED_EDGE ( 'NONE', *, *, #9, .T. ) ;
#169 = DIRECTION ( 'NONE',  ( 0.000000000000000000, 0.000000000000000000, 1.000000000000000000 ) ) ;
#170 = EDGE_CURVE ( 'NONE', #114, #223, #256, .T. ) ;
#171 = DIRECTION ( 'NONE',  ( 1.000000000000000000, 0.000000000000000000, 0.000000000000000000 ) ) ;
#172 = DIRECTION ( 'NONE',  ( 1.000000000000000000, 0.000000000000000000, 0.000000000000000000 ) ) ;
#173 = EDGE_CURVE ( 'NONE', #223, #301, #166, .T. ) ;
#174 = FACE_OUTER_BOUND ( 'NONE', #49, .T. ) ;
#175 = DIRECTION ( 'NONE',  ( 1.000000000000000000, 0.000000000000000000, -0.000000000000000000 ) ) ;
#176 = ORIENTED_EDGE ( 'NONE', *, *, #246, .T. ) ;
#177 = PLANE ( 'NONE',  #12 ) ;
#178 = APPROVAL_STATUS ( 'not_yet_approved' ) ;
#179 = EDGE_CURVE ( 'NONE', #293, #20, #29, .T. ) ;
#180 = CARTESIAN_POINT ( 'NONE',  ( 0.000000000000000000, 0.000000000000000000, 322.0000000000000000 ) ) ;
#181 = EDGE_LOOP ( 'NONE', ( #134, #44, #189, #249 ) ) ;
#182 = CIRCLE ( 'NONE', #2, 6.450000000000000178 ) ;
#183 = APPLICATION_PROTOCOL_DEFINITION ( 'international standard', 'config_control_design', 1994, #267 ) ;
#184 = SHAPE_DEFINITION_REPRESENTATION ( #40, #47 ) ;
#185 = CARTESIAN_POINT ( 'NONE',  ( 0.000000000000000000, 0.000000000000000000, 7.000000000000000000 ) ) ;
#186 = CARTESIAN_POINT ( 'NONE',  ( 0.000000000000000000, 0.000000000000000000, 322.0000000000000000 ) ) ;
#187 = APPROVAL_PERSON_ORGANIZATION ( #162, #46, #137 ) ;
#188 = ORIENTED_EDGE ( 'NONE', *, *, #37, .T. ) ;
#189 = ORIENTED_EDGE ( 'NONE', *, *, #278, .T. ) ;
#190 = ORIENTED_EDGE ( 'NONE', *, *, #272, .T. ) ;
#191 = AXIS2_PLACEMENT_3D ( 'NONE', #303, #236, #306 ) ;
#192 = TOROIDAL_SURFACE ( 'NONE', #113, 6.450000000000000178, 0.2000000000000000111 ) ;
#193 = DIRECTION ( 'NONE',  ( 1.000000000000000000, 0.000000000000000000, 0.000000000000000000 ) ) ;
#194 = LINE ( 'NONE', #93, #247 ) ;
#195 = ADVANCED_FACE ( 'NONE', ( #3 ), #73, .T. ) ;
#196 = CARTESIAN_POINT ( 'NONE',  ( -9.000000000000000000, 0.000000000000000000, 7.000000000000000000 ) ) ;
#197 = DIRECTION ( 'NONE',  ( 0.000000000000000000, 0.000000000000000000, 1.000000000000000000 ) ) ;
#198 = DIRECTION ( 'NONE',  ( -0.000000000000000000, -0.000000000000000000, -1.000000000000000000 ) ) ;
#199 = DIRECTION ( 'NONE',  ( 0.000000000000000000, 0.000000000000000000, 1.000000000000000000 ) ) ;
#200 = ORGANIZATION ( 'NEURÈENÝ', 'NEURÈENÝ', '' ) ;
#201 = APPROVAL_STATUS ( 'not_yet_approved' ) ;
#202 = CC_DESIGN_PERSON_AND_ORGANIZATION_ASSIGNMENT ( #135, #159, ( #153 ) ) ;
#203 = PERSON_AND_ORGANIZATION_ROLE ( 'design_owner' ) ;
#204 = ORIENTED_EDGE ( 'NONE', *, *, #58, .F. ) ;
#205 = COORDINATED_UNIVERSAL_TIME_OFFSET ( 1, 0, .AHEAD. ) ;
#206 = PERSON_AND_ORGANIZATION_ROLE ( 'classification_officer' ) ;
#207 = EDGE_LOOP ( 'NONE', ( #274, #165, #275, #48 ) ) ;
#208 = ORIENTED_EDGE ( 'NONE', *, *, #58, .T. ) ;
#209 = ORIENTED_EDGE ( 'NONE', *, *, #161, .F. ) ;
#210 = CIRCLE ( 'NONE', #36, 9.000000000000000000 ) ;
#211 = ORIENTED_EDGE ( 'NONE', *, *, #37, .F. ) ;
#212 = CC_DESIGN_PERSON_AND_ORGANIZATION_ASSIGNMENT ( #59, #203, ( #85 ) ) ;
#213 = CARTESIAN_POINT ( 'NONE',  ( 9.000000000000000000, 1.102182119232617714E-15, 0.000000000000000000 ) ) ;
#214 = CARTESIAN_POINT ( 'NONE',  ( -6.450000000000000178, 7.898971854500428692E-16, 7.199999999999984190 ) ) ;
#215 = MANIFOLD_SOLID_BREP ( 'Zaoblit1', #105 ) ;
#216 = CARTESIAN_POINT ( 'NONE',  ( 6.250000000000000000, 7.654042494670957606E-16, 7.199999999999984190 ) ) ;
#217 = DIRECTION ( 'NONE',  ( 1.000000000000000000, 0.000000000000000000, 0.000000000000000000 ) ) ;
#218 = LINE ( 'NONE', #4, #70 ) ;
#219 = EDGE_CURVE ( 'NONE', #224, #21, #210, .T. ) ;
#220 = CALENDAR_DATE ( 2022, 20, 6 ) ;
#221 = PERSON_AND_ORGANIZATION_ROLE ( 'creator' ) ;
#222 = APPROVAL ( #201, 'NEURÈENÝ' ) ;
#223 = VERTEX_POINT ( 'NONE', #32 ) ;
#224 = VERTEX_POINT ( 'NONE', #50 ) ;
#225 = EDGE_CURVE ( 'NONE', #293, #114, #194, .T. ) ;
#226 = APPLICATION_CONTEXT ( 'configuration controlled 3d designs of mechanical parts and assemblies' ) ;
#227 = CIRCLE ( 'NONE', #23, 6.250000000000000000 ) ;
#228 = APPROVAL_DATE_TIME ( #18, #46 ) ;
#229 = DIRECTION ( 'NONE',  ( 1.000000000000000000, 0.000000000000000000, -0.000000000000000000 ) ) ;
#230 = CALENDAR_DATE ( 2022, 20, 6 ) ;
#231 = UNCERTAINTY_MEASURE_WITH_UNIT (LENGTH_MEASURE( 1.000000000000000082E-05 ), #34, 'distance_accuracy_value', 'NONE');
#232 = ORIENTED_EDGE ( 'NONE', *, *, #281, .T. ) ;
#233 = EDGE_CURVE ( 'NONE', #223, #114, #147, .T. ) ;
#234 = DIRECTION ( 'NONE',  ( 0.000000000000000000, 0.000000000000000000, 1.000000000000000000 ) ) ;
#235 = DIRECTION ( 'NONE',  ( -1.000000000000000000, 0.000000000000000000, 0.000000000000000000 ) ) ;
#236 = DIRECTION ( 'NONE',  ( -0.000000000000000000, -0.000000000000000000, -1.000000000000000000 ) ) ;
#237 = DIRECTION ( 'NONE',  ( 1.000000000000000000, 0.000000000000000000, -0.000000000000000000 ) ) ;
#238 = LOCAL_TIME ( 11, 28, 21.00000000000000000, #243 ) ;
#239 = CYLINDRICAL_SURFACE ( 'NONE', #106, 6.250000000000000000 ) ;
#240 = CARTESIAN_POINT ( 'NONE',  ( 9.000000000000000000, 1.102182119232617714E-15, 7.000000000000000000 ) ) ;
#241 = DIRECTION ( 'NONE',  ( 0.000000000000000000, 0.000000000000000000, 1.000000000000000000 ) ) ;
#242 = CC_DESIGN_DATE_AND_TIME_ASSIGNMENT ( #154, #60, ( #41 ) ) ;
#243 = COORDINATED_UNIVERSAL_TIME_OFFSET ( 1, 0, .AHEAD. ) ;
#244 = LOCAL_TIME ( 11, 28, 21.00000000000000000, #205 ) ;
#245 = PERSON_AND_ORGANIZATION ( #286, #200 ) ;
#246 = EDGE_CURVE ( 'NONE', #20, #223, #218, .T. ) ;
#247 = VECTOR ( 'NONE', #285, 1000.000000000000000 ) ;
#248 = EDGE_LOOP ( 'NONE', ( #208, #255 ) ) ;
#249 = ORIENTED_EDGE ( 'NONE', *, *, #253, .F. ) ;
#250 =( GEOMETRIC_REPRESENTATION_CONTEXT ( 3 ) GLOBAL_UNCERTAINTY_ASSIGNED_CONTEXT ( ( #231 ) ) GLOBAL_UNIT_ASSIGNED_CONTEXT ( ( #34, #101, #39 ) ) REPRESENTATION_CONTEXT ( 'NONE', 'WORKASPACE' ) );
#251 = PERSON_AND_ORGANIZATION ( #286, #200 ) ;
#252 = PLANE ( 'NONE',  #128 ) ;
#253 = EDGE_CURVE ( 'NONE', #301, #276, #182, .T. ) ;
#254 = DIRECTION ( 'NONE',  ( 1.000000000000000000, 0.000000000000000000, 0.000000000000000000 ) ) ;
#255 = ORIENTED_EDGE ( 'NONE', *, *, #253, .T. ) ;
#256 = CIRCLE ( 'NONE', #283, 6.250000000000000000 ) ;
#257 = CC_DESIGN_SECURITY_CLASSIFICATION ( #262, ( #153 ) ) ;
#258 = EDGE_LOOP ( 'NONE', ( #270, #296, #204, #90 ) ) ;
#259 = ADVANCED_FACE ( 'NONE', ( #284 ), #192, .F. ) ;
#260 = CARTESIAN_POINT ( 'NONE',  ( 9.000000000000000000, 1.102182119232617714E-15, 7.000000000000000000 ) ) ;
#261 = DIRECTION ( 'NONE',  ( 0.000000000000000000, 0.000000000000000000, 1.000000000000000000 ) ) ;
#262 = SECURITY_CLASSIFICATION ( '', '', #107 ) ;
#263 = DIRECTION ( 'NONE',  ( -0.000000000000000000, -0.000000000000000000, -1.000000000000000000 ) ) ;
#264 = DIRECTION ( 'NONE',  ( -0.000000000000000000, -0.000000000000000000, -1.000000000000000000 ) ) ;
#265 = DIRECTION ( 'NONE',  ( -1.000000000000000000, 0.000000000000000000, 0.000000000000000000 ) ) ;
#266 = AXIS2_PLACEMENT_3D ( 'NONE', #96, #5, #97 ) ;
#267 = APPLICATION_CONTEXT ( 'configuration controlled 3d designs of mechanical parts and assemblies' ) ;
#268 = DIRECTION ( 'NONE',  ( -1.000000000000000000, 0.000000000000000000, 0.000000000000000000 ) ) ;
#269 = CARTESIAN_POINT ( 'NONE',  ( 0.000000000000000000, 0.000000000000000000, 0.000000000000000000 ) ) ;
#270 = ORIENTED_EDGE ( 'NONE', *, *, #233, .F. ) ;
#271 = CALENDAR_DATE ( 2022, 20, 6 ) ;
#272 = EDGE_CURVE ( 'NONE', #21, #224, #43, .T. ) ;
#273 = PERSON_AND_ORGANIZATION ( #286, #200 ) ;
#274 = ORIENTED_EDGE ( 'NONE', *, *, #179, .F. ) ;
#275 = ORIENTED_EDGE ( 'NONE', *, *, #170, .T. ) ;
#276 = VERTEX_POINT ( 'NONE', #71 ) ;
#277 = AXIS2_PLACEMENT_3D ( 'NONE', #289, #151, #27 ) ;
#278 = EDGE_CURVE ( 'NONE', #114, #276, #33, .T. ) ;
#279 = VERTEX_POINT ( 'NONE', #260 ) ;
#280 = EDGE_LOOP ( 'NONE', ( #136, #115, #190, #209 ) ) ;
#281 = EDGE_CURVE ( 'NONE', #20, #293, #227, .T. ) ;
#282 = ORIENTED_EDGE ( 'NONE', *, *, #281, .F. ) ;
#283 = AXIS2_PLACEMENT_3D ( 'NONE', #51, #72, #171 ) ;
#284 = FACE_OUTER_BOUND ( 'NONE', #181, .T. ) ;
#285 = DIRECTION ( 'NONE',  ( -0.000000000000000000, -0.000000000000000000, -1.000000000000000000 ) ) ;
#286 = PERSON ( 'NEURÈENÝ', 'NEURÈENÝ', 'NEURÈENÝ', ('NEURÈENÝ'), ('NEURÈENÝ'), ('NEURÈENÝ') ) ;
#287 = CARTESIAN_POINT ( 'NONE',  ( 0.000000000000000000, 0.000000000000000000, 7.000000000000000000 ) ) ;
#288 = AXIS2_PLACEMENT_3D ( 'NONE', #160, #143, #235 ) ;
#289 = CARTESIAN_POINT ( 'NONE',  ( 6.450000000000000178, 0.000000000000000000, 7.199999999999984190 ) ) ;
#290 = DIRECTION ( 'NONE',  ( 1.000000000000000000, 0.000000000000000000, 0.000000000000000000 ) ) ;
#291 = ADVANCED_FACE ( 'NONE', ( #127 ), #177, .F. ) ;
#292 = APPROVAL_ROLE ( '' ) ;
#293 = VERTEX_POINT ( 'NONE', #10 ) ;
#294 = PERSON_AND_ORGANIZATION ( #286, #200 ) ;
#295 = DIRECTION ( 'NONE',  ( -0.000000000000000000, -0.000000000000000000, -1.000000000000000000 ) ) ;
#296 = ORIENTED_EDGE ( 'NONE', *, *, #173, .T. ) ;
#297 = ADVANCED_FACE ( 'NONE', ( #129 ), #84, .T. ) ;
#298 = DIRECTION ( 'NONE',  ( 0.000000000000000000, 0.000000000000000000, 1.000000000000000000 ) ) ;
#299 = VECTOR ( 'NONE', #264, 1000.000000000000000 ) ;
#300 = APPROVAL_STATUS ( 'not_yet_approved' ) ;
#301 = VERTEX_POINT ( 'NONE', #104 ) ;
#302 = CALENDAR_DATE ( 2022, 20, 6 ) ;
#303 = CARTESIAN_POINT ( 'NONE',  ( 0.000000000000000000, 0.000000000000000000, 7.000000000000000000 ) ) ;
#304 = EDGE_LOOP ( 'NONE', ( #232, #25 ) ) ;
#305 = AXIS2_PLACEMENT_3D ( 'NONE', #122, #116, #172 ) ;
#306 = DIRECTION ( 'NONE',  ( 1.000000000000000000, 0.000000000000000000, 0.000000000000000000 ) ) ;
#307 = FACE_OUTER_BOUND ( 'NONE', #13, .T. ) ;
ENDSEC;
END-ISO-10303-21;
