ISO-10303-21;
HEADER;
FILE_DESCRIPTION (( 'STEP AP203' ),
    '1' );
FILE_NAME ('e8e9.STEP',
    '2022-06-20T10:24:37',
    ( '' ),
    ( '' ),
    'SwSTEP 2.0',
    'SolidWorks 2019',
    '' );
FILE_SCHEMA (( 'CONFIG_CONTROL_DESIGN' ));
ENDSEC;

DATA;
#1 = AXIS2_PLACEMENT_3D ( 'NONE', #59, #58, #156 ) ;
#2 = DIRECTION ( 'NONE',  ( 0.000000000000000000, 0.000000000000000000, 1.000000000000000000 ) ) ;
#3 = AXIS2_PLACEMENT_3D ( 'NONE', #213, #8, #189 ) ;
#4 = ADVANCED_FACE ( 'NONE', ( #162 ), #35, .F. ) ;
#5 = DIRECTION ( 'NONE',  ( 1.000000000000000000, 0.000000000000000000, 0.000000000000000000 ) ) ;
#6 = PLANE ( 'NONE',  #304 ) ;
#7 = DATE_TIME_ROLE ( 'classification_date' ) ;
#8 = DIRECTION ( 'NONE',  ( 0.000000000000000000, 0.000000000000000000, 1.000000000000000000 ) ) ;
#9 = DIRECTION ( 'NONE',  ( 0.000000000000000000, 0.000000000000000000, 1.000000000000000000 ) ) ;
#10 = APPROVAL_STATUS ( 'not_yet_approved' ) ;
#11 = DIRECTION ( 'NONE',  ( 1.000000000000000000, 0.000000000000000000, 0.000000000000000000 ) ) ;
#12 = VERTEX_POINT ( 'NONE', #128 ) ;
#13 = AXIS2_PLACEMENT_3D ( 'NONE', #259, #192, #88 ) ;
#14 = VERTEX_POINT ( 'NONE', #226 ) ;
#15 =( NAMED_UNIT ( * ) SI_UNIT ( $, .STERADIAN. ) SOLID_ANGLE_UNIT ( ) );
#16 = APPROVAL_PERSON_ORGANIZATION ( #154, #134, #301 ) ;
#17 = ORIENTED_EDGE ( 'NONE', *, *, #51, .F. ) ;
#18 = CARTESIAN_POINT ( 'NONE',  ( 0.000000000000000000, 0.000000000000000000, 1.400000000000012346 ) ) ;
#19 = AXIS2_PLACEMENT_3D ( 'NONE', #202, #81, #182 ) ;
#20 = DIRECTION ( 'NONE',  ( 0.000000000000000000, 0.000000000000000000, 1.000000000000000000 ) ) ;
#21 = APPROVAL_PERSON_ORGANIZATION ( #167, #245, #287 ) ;
#22 = EDGE_CURVE ( 'NONE', #219, #37, #30, .T. ) ;
#23 = DIRECTION ( 'NONE',  ( 1.000000000000000000, 0.000000000000000000, 0.000000000000000000 ) ) ;
#24 = PLANE ( 'NONE',  #57 ) ;
#25 = EDGE_CURVE ( 'NONE', #76, #45, #282, .T. ) ;
#26 = APPROVAL_DATE_TIME ( #232, #93 ) ;
#27 = AXIS2_PLACEMENT_3D ( 'NONE', #209, #31, #283 ) ;
#28 = CYLINDRICAL_SURFACE ( 'NONE', #121, 0.5999999999999999778 ) ;
#29 = CYLINDRICAL_SURFACE ( 'NONE', #171, 0.5999999999999999778 ) ;
#30 = CIRCLE ( 'NONE', #102, 0.2000000000000000944 ) ;
#31 = DIRECTION ( 'NONE',  ( 0.000000000000000000, 0.000000000000000000, 1.000000000000000000 ) ) ;
#32 = ADVANCED_FACE ( 'NONE', ( #224 ), #181, .T. ) ;
#33 = AXIS2_PLACEMENT_3D ( 'NONE', #166, #235, #114 ) ;
#34 = VECTOR ( 'NONE', #210, 1000.000000000000000 ) ;
#35 = TOROIDAL_SURFACE ( 'NONE', #258, 0.7999999999999999334, 0.2000000000000000111 ) ;
#36 = CALENDAR_DATE ( 2022, 20, 6 ) ;
#37 = VERTEX_POINT ( 'NONE', #272 ) ;
#38 = ADVANCED_FACE ( 'NONE', ( #180 ), #147, .F. ) ;
#39 = EDGE_LOOP ( 'NONE', ( #123, #172 ) ) ;
#40 = DIRECTION ( 'NONE',  ( -0.000000000000000000, -0.000000000000000000, -1.000000000000000000 ) ) ;
#41 = ORIENTED_EDGE ( 'NONE', *, *, #294, .T. ) ;
#42 = APPROVAL_DATE_TIME ( #157, #134 ) ;
#43 = CARTESIAN_POINT ( 'NONE',  ( -0.5999999999999999778, 0.000000000000000000, 201.2000000000000171 ) ) ;
#44 = UNCERTAINTY_MEASURE_WITH_UNIT (LENGTH_MEASURE( 1.000000000000000082E-05 ), #170, 'distance_accuracy_value', 'NONE');
#45 = VERTEX_POINT ( 'NONE', #106 ) ;
#46 = COORDINATED_UNIVERSAL_TIME_OFFSET ( 1, 0, .AHEAD. ) ;
#47 = CARTESIAN_POINT ( 'NONE',  ( -1.250000000000000000, 0.000000000000000000, 0.000000000000000000 ) ) ;
#48 = DIRECTION ( 'NONE',  ( 1.000000000000000000, 0.000000000000000000, -0.000000000000000000 ) ) ;
#49 = EDGE_CURVE ( 'NONE', #289, #37, #207, .T. ) ;
#50 = CARTESIAN_POINT ( 'NONE',  ( 0.000000000000000000, 0.000000000000000000, 1.199999999999999956 ) ) ;
#51 = EDGE_CURVE ( 'NONE', #219, #145, #109, .T. ) ;
#52 = CARTESIAN_POINT ( 'NONE',  ( 0.000000000000000000, 0.000000000000000000, 0.000000000000000000 ) ) ;
#53 = CARTESIAN_POINT ( 'NONE',  ( 0.000000000000000000, 0.000000000000000000, 1.199999999999999956 ) ) ;
#54 = COORDINATED_UNIVERSAL_TIME_OFFSET ( 1, 0, .AHEAD. ) ;
#55 = EDGE_LOOP ( 'NONE', ( #72, #179, #239, #295 ) ) ;
#56 = ORIENTED_EDGE ( 'NONE', *, *, #75, .F. ) ;
#57 = AXIS2_PLACEMENT_3D ( 'NONE', #143, #87, #68 ) ;
#58 = DIRECTION ( 'NONE',  ( 0.000000000000000000, 0.000000000000000000, 1.000000000000000000 ) ) ;
#59 = CARTESIAN_POINT ( 'NONE',  ( 0.000000000000000000, 0.000000000000000000, 1.400000000000012346 ) ) ;
#60 = CARTESIAN_POINT ( 'NONE',  ( 0.000000000000000000, 0.000000000000000000, 1.199999999999999956 ) ) ;
#61 = CARTESIAN_POINT ( 'NONE',  ( 0.000000000000000000, 0.000000000000000000, 0.000000000000000000 ) ) ;
#62 = EDGE_LOOP ( 'NONE', ( #221, #125 ) ) ;
#63 = SECURITY_CLASSIFICATION ( '', '', #105 ) ;
#64 = EDGE_CURVE ( 'NONE', #132, #45, #107, .T. ) ;
#65 = CARTESIAN_POINT ( 'NONE',  ( 0.7999999999999999334, 0.000000000000000000, 1.200000000000006173 ) ) ;
#66 = FACE_OUTER_BOUND ( 'NONE', #100, .T. ) ;
#67 = CARTESIAN_POINT ( 'NONE',  ( 0.000000000000000000, 0.000000000000000000, 201.2000000000000171 ) ) ;
#68 = DIRECTION ( 'NONE',  ( 1.000000000000000000, 0.000000000000000000, -0.000000000000000000 ) ) ;
#69 = CIRCLE ( 'NONE', #217, 0.7999999999999999334 ) ;
#70 = CALENDAR_DATE ( 2022, 20, 6 ) ;
#71 = PRODUCT_DEFINITION_FORMATION_WITH_SPECIFIED_SOURCE ( 'LIBOVOLNÝ', '', #131, .NOT_KNOWN. ) ;
#72 = ORIENTED_EDGE ( 'NONE', *, *, #64, .F. ) ;
#73 = EDGE_LOOP ( 'NONE', ( #148, #41 ) ) ;
#74 = COORDINATED_UNIVERSAL_TIME_OFFSET ( 1, 0, .AHEAD. ) ;
#75 = EDGE_CURVE ( 'NONE', #14, #219, #255, .T. ) ;
#76 = VERTEX_POINT ( 'NONE', #47 ) ;
#77 = DATE_AND_TIME ( #36, #195 ) ;
#78 = DIRECTION ( 'NONE',  ( 1.224646799147353207E-16, 1.000000000000000000, -0.000000000000000000 ) ) ;
#79 = CARTESIAN_POINT ( 'NONE',  ( 0.000000000000000000, 0.000000000000000000, 1.400000000000012346 ) ) ;
#80 = APPROVAL_PERSON_ORGANIZATION ( #273, #93, #178 ) ;
#81 = DIRECTION ( 'NONE',  ( 0.000000000000000000, 0.000000000000000000, 1.000000000000000000 ) ) ;
#82 = CARTESIAN_POINT ( 'NONE',  ( 1.250000000000000000, 1.530808498934191571E-16, 1.199999999999999956 ) ) ;
#83 = EDGE_CURVE ( 'NONE', #37, #289, #69, .T. ) ;
#84 = CALENDAR_DATE ( 2022, 20, 6 ) ;
#85 = DIRECTION ( 'NONE',  ( 1.000000000000000000, 0.000000000000000000, 0.000000000000000000 ) ) ;
#86 = PERSON_AND_ORGANIZATION ( #212, #177 ) ;
#87 = DIRECTION ( 'NONE',  ( 0.000000000000000000, 0.000000000000000000, 1.000000000000000000 ) ) ;
#88 = DIRECTION ( 'NONE',  ( 1.000000000000000000, 0.000000000000000000, 0.000000000000000000 ) ) ;
#89 = FACE_OUTER_BOUND ( 'NONE', #55, .T. ) ;
#90 = CC_DESIGN_APPROVAL ( #93, ( #97 ) ) ;
#91 = DIRECTION ( 'NONE',  ( -0.000000000000000000, -0.000000000000000000, -1.000000000000000000 ) ) ;
#92 = LINE ( 'NONE', #278, #290 ) ;
#93 = APPROVAL ( #297, 'NEURÈENÝ' ) ;
#94 = EDGE_LOOP ( 'NONE', ( #184, #119 ) ) ;
#95 = CC_DESIGN_APPROVAL ( #134, ( #71 ) ) ;
#96 = EDGE_LOOP ( 'NONE', ( #122, #150, #176, #201 ) ) ;
#97 = PRODUCT_DEFINITION ( 'NEZNÁMÝ', '', #71, #229 ) ;
#98 = CLOSED_SHELL ( 'NONE', ( #4, #262, #32, #160, #149, #238, #211, #101, #38 ) ) ;
#99 = AXIS2_PLACEMENT_3D ( 'NONE', #52, #137, #5 ) ;
#100 = EDGE_LOOP ( 'NONE', ( #174, #199, #129, #56 ) ) ;
#101 = ADVANCED_FACE ( 'NONE', ( #103 ), #248, .T. ) ;
#102 = AXIS2_PLACEMENT_3D ( 'NONE', #270, #78, #186 ) ;
#103 = FACE_OUTER_BOUND ( 'NONE', #94, .T. ) ;
#104 = CIRCLE ( 'NONE', #111, 1.250000000000000000 ) ;
#105 = SECURITY_CLASSIFICATION_LEVEL ( 'unclassified' ) ;
#106 = CARTESIAN_POINT ( 'NONE',  ( 1.250000000000000000, 1.530808498934191571E-16, 0.000000000000000000 ) ) ;
#107 = LINE ( 'NONE', #82, #286 ) ;
#108 = AXIS2_PLACEMENT_3D ( 'NONE', #60, #40, #206 ) ;
#109 = CIRCLE ( 'NONE', #247, 0.5999999999999999778 ) ;
#110 = LINE ( 'NONE', #208, #34 ) ;
#111 = AXIS2_PLACEMENT_3D ( 'NONE', #280, #9, #117 ) ;
#112 = PERSON_AND_ORGANIZATION ( #212, #177 ) ;
#113 = DIRECTION ( 'NONE',  ( -1.000000000000000000, 0.000000000000000000, 0.000000000000000000 ) ) ;
#114 = DIRECTION ( 'NONE',  ( 0.000000000000000000, 0.000000000000000000, -1.000000000000000000 ) ) ;
#115 = CARTESIAN_POINT ( 'NONE',  ( 0.000000000000000000, 0.000000000000000000, 201.2000000000000171 ) ) ;
#116 = AXIS2_PLACEMENT_3D ( 'NONE', #53, #173, #218 ) ;
#117 = DIRECTION ( 'NONE',  ( 1.000000000000000000, 0.000000000000000000, 0.000000000000000000 ) ) ;
#118 = CC_DESIGN_DATE_AND_TIME_ASSIGNMENT ( #77, #269, ( #97 ) ) ;
#119 = ORIENTED_EDGE ( 'NONE', *, *, #222, .T. ) ;
#120 = COORDINATED_UNIVERSAL_TIME_OFFSET ( 1, 0, .AHEAD. ) ;
#121 = AXIS2_PLACEMENT_3D ( 'NONE', #67, #91, #190 ) ;
#122 = ORIENTED_EDGE ( 'NONE', *, *, #22, .F. ) ;
#123 = ORIENTED_EDGE ( 'NONE', *, *, #49, .T. ) ;
#124 = CALENDAR_DATE ( 2022, 20, 6 ) ;
#125 = ORIENTED_EDGE ( 'NONE', *, *, #216, .F. ) ;
#126 = CIRCLE ( 'NONE', #33, 0.2000000000000000944 ) ;
#127 = CIRCLE ( 'NONE', #99, 1.250000000000000000 ) ;
#128 = CARTESIAN_POINT ( 'NONE',  ( 0.5999999999999999778, 7.347880794884117764E-17, 201.2000000000000171 ) ) ;
#129 = ORIENTED_EDGE ( 'NONE', *, *, #169, .T. ) ;
#130 = PERSON_AND_ORGANIZATION ( #212, #177 ) ;
#131 = PRODUCT ( 'e8e9', 'e8e9', '', ( #288 ) ) ;
#132 = VERTEX_POINT ( 'NONE', #274 ) ;
#133 = ADVANCED_BREP_SHAPE_REPRESENTATION ( 'e8e9', ( #205, #138 ), #144 ) ;
#134 = APPROVAL ( #252, 'NEURÈENÝ' ) ;
#135 = DIRECTION ( 'NONE',  ( -0.000000000000000000, -0.000000000000000000, -1.000000000000000000 ) ) ;
#136 = FACE_OUTER_BOUND ( 'NONE', #62, .T. ) ;
#137 = DIRECTION ( 'NONE',  ( 0.000000000000000000, 0.000000000000000000, 1.000000000000000000 ) ) ;
#138 = AXIS2_PLACEMENT_3D ( 'NONE', #175, #291, #11 ) ;
#139 = APPLICATION_CONTEXT ( 'configuration controlled 3d designs of mechanical parts and assemblies' ) ;
#140 = CARTESIAN_POINT ( 'NONE',  ( 0.000000000000000000, 0.000000000000000000, 1.199999999999999956 ) ) ;
#141 = FACE_OUTER_BOUND ( 'NONE', #305, .T. ) ;
#142 = AXIS2_PLACEMENT_3D ( 'NONE', #61, #2, #23 ) ;
#143 = CARTESIAN_POINT ( 'NONE',  ( 0.000000000000000000, 0.000000000000000000, 0.000000000000000000 ) ) ;
#144 =( GEOMETRIC_REPRESENTATION_CONTEXT ( 3 ) GLOBAL_UNCERTAINTY_ASSIGNED_CONTEXT ( ( #44 ) ) GLOBAL_UNIT_ASSIGNED_CONTEXT ( ( #170, #240, #15 ) ) REPRESENTATION_CONTEXT ( 'NONE', 'WORKASPACE' ) );
#145 = VERTEX_POINT ( 'NONE', #159 ) ;
#146 = DATE_AND_TIME ( #70, #223 ) ;
#147 = TOROIDAL_SURFACE ( 'NONE', #1, 0.7999999999999999334, 0.2000000000000000111 ) ;
#148 = ORIENTED_EDGE ( 'NONE', *, *, #267, .T. ) ;
#149 = ADVANCED_FACE ( 'NONE', ( #306, #256 ), #6, .T. ) ;
#150 = ORIENTED_EDGE ( 'NONE', *, *, #169, .F. ) ;
#151 = APPLICATION_CONTEXT ( 'configuration controlled 3d designs of mechanical parts and assemblies' ) ;
#152 = EDGE_CURVE ( 'NONE', #265, #76, #110, .T. ) ;
#153 = DIRECTION ( 'NONE',  ( 1.000000000000000000, 0.000000000000000000, 0.000000000000000000 ) ) ;
#154 = PERSON_AND_ORGANIZATION ( #212, #177 ) ;
#155 = CIRCLE ( 'NONE', #13, 0.5999999999999999778 ) ;
#156 = DIRECTION ( 'NONE',  ( 1.000000000000000000, 0.000000000000000000, 0.000000000000000000 ) ) ;
#157 = DATE_AND_TIME ( #244, #271 ) ;
#158 = DIRECTION ( 'NONE',  ( 0.000000000000000000, 0.000000000000000000, 1.000000000000000000 ) ) ;
#159 = CARTESIAN_POINT ( 'NONE',  ( 0.5999999999999999778, 7.347880794884117764E-17, 1.400000000000012346 ) ) ;
#160 = ADVANCED_FACE ( 'NONE', ( #89 ), #168, .T. ) ;
#161 = PERSON_AND_ORGANIZATION_ROLE ( 'classification_officer' ) ;
#162 = FACE_OUTER_BOUND ( 'NONE', #292, .T. ) ;
#163 = CIRCLE ( 'NONE', #116, 1.250000000000000000 ) ;
#164 = DIRECTION ( 'NONE',  ( -0.000000000000000000, -0.000000000000000000, -1.000000000000000000 ) ) ;
#165 = CARTESIAN_POINT ( 'NONE',  ( -1.250000000000000000, 0.000000000000000000, 1.199999999999999956 ) ) ;
#166 = CARTESIAN_POINT ( 'NONE',  ( 0.7999999999999999334, 0.000000000000000000, 1.400000000000012346 ) ) ;
#167 = PERSON_AND_ORGANIZATION ( #212, #177 ) ;
#168 = CYLINDRICAL_SURFACE ( 'NONE', #225, 1.250000000000000000 ) ;
#169 = EDGE_CURVE ( 'NONE', #145, #219, #187, .T. ) ;
#170 =( LENGTH_UNIT ( ) NAMED_UNIT ( * ) SI_UNIT ( .MILLI., .METRE. ) );
#171 = AXIS2_PLACEMENT_3D ( 'NONE', #115, #257, #279 ) ;
#172 = ORIENTED_EDGE ( 'NONE', *, *, #83, .T. ) ;
#173 = DIRECTION ( 'NONE',  ( 0.000000000000000000, 0.000000000000000000, 1.000000000000000000 ) ) ;
#174 = ORIENTED_EDGE ( 'NONE', *, *, #222, .F. ) ;
#175 = CARTESIAN_POINT ( 'NONE',  ( 0.000000000000000000, 0.000000000000000000, 0.000000000000000000 ) ) ;
#176 = ORIENTED_EDGE ( 'NONE', *, *, #276, .T. ) ;
#177 = ORGANIZATION ( 'NEURÈENÝ', 'NEURÈENÝ', '' ) ;
#178 = APPROVAL_ROLE ( '' ) ;
#179 = ORIENTED_EDGE ( 'NONE', *, *, #267, .F. ) ;
#180 = FACE_OUTER_BOUND ( 'NONE', #96, .T. ) ;
#181 = CYLINDRICAL_SURFACE ( 'NONE', #261, 1.250000000000000000 ) ;
#182 = DIRECTION ( 'NONE',  ( 1.000000000000000000, 0.000000000000000000, -0.000000000000000000 ) ) ;
#183 = CC_DESIGN_DATE_AND_TIME_ASSIGNMENT ( #264, #7, ( #63 ) ) ;
#184 = ORIENTED_EDGE ( 'NONE', *, *, #254, .T. ) ;
#185 = VECTOR ( 'NONE', #135, 1000.000000000000000 ) ;
#186 = DIRECTION ( 'NONE',  ( -1.000000000000000000, 1.224646799147352714E-16, 0.000000000000000000 ) ) ;
#187 = CIRCLE ( 'NONE', #3, 0.5999999999999999778 ) ;
#188 = CC_DESIGN_PERSON_AND_ORGANIZATION_ASSIGNMENT ( #275, #161, ( #63 ) ) ;
#189 = DIRECTION ( 'NONE',  ( 1.000000000000000000, 0.000000000000000000, 0.000000000000000000 ) ) ;
#190 = DIRECTION ( 'NONE',  ( -1.000000000000000000, 0.000000000000000000, 0.000000000000000000 ) ) ;
#191 = DIRECTION ( 'NONE',  ( -0.000000000000000000, -0.000000000000000000, -1.000000000000000000 ) ) ;
#192 = DIRECTION ( 'NONE',  ( 0.000000000000000000, 0.000000000000000000, 1.000000000000000000 ) ) ;
#193 = PRODUCT_RELATED_PRODUCT_CATEGORY ( 'detail', '', ( #131 ) ) ;
#194 = ORIENTED_EDGE ( 'NONE', *, *, #216, .T. ) ;
#195 = LOCAL_TIME ( 12, 24, 37.00000000000000000, #54 ) ;
#196 = ORIENTED_EDGE ( 'NONE', *, *, #51, .T. ) ;
#197 = PERSON_AND_ORGANIZATION ( #212, #177 ) ;
#198 = CC_DESIGN_PERSON_AND_ORGANIZATION_ASSIGNMENT ( #130, #228, ( #71 ) ) ;
#199 = ORIENTED_EDGE ( 'NONE', *, *, #285, .T. ) ;
#200 = ORIENTED_EDGE ( 'NONE', *, *, #49, .F. ) ;
#201 = ORIENTED_EDGE ( 'NONE', *, *, #83, .F. ) ;
#202 = CARTESIAN_POINT ( 'NONE',  ( 0.000000000000000000, 0.000000000000000000, 201.2000000000000171 ) ) ;
#203 = CC_DESIGN_APPROVAL ( #245, ( #63 ) ) ;
#204 = DIRECTION ( 'NONE',  ( 1.000000000000000000, 0.000000000000000000, 0.000000000000000000 ) ) ;
#205 = MANIFOLD_SOLID_BREP ( 'Zaoblit1', #98 ) ;
#206 = DIRECTION ( 'NONE',  ( 1.000000000000000000, 0.000000000000000000, 0.000000000000000000 ) ) ;
#207 = CIRCLE ( 'NONE', #108, 0.7999999999999999334 ) ;
#208 = CARTESIAN_POINT ( 'NONE',  ( -1.250000000000000000, 0.000000000000000000, 1.199999999999999956 ) ) ;
#209 = CARTESIAN_POINT ( 'NONE',  ( 0.000000000000000000, 0.000000000000000000, 201.2000000000000171 ) ) ;
#210 = DIRECTION ( 'NONE',  ( -0.000000000000000000, -0.000000000000000000, -1.000000000000000000 ) ) ;
#211 = ADVANCED_FACE ( 'NONE', ( #141 ), #29, .T. ) ;
#212 = PERSON ( 'NEURÈENÝ', 'NEURÈENÝ', 'NEURÈENÝ', ('NEURÈENÝ'), ('NEURÈENÝ'), ('NEURÈENÝ') ) ;
#213 = CARTESIAN_POINT ( 'NONE',  ( 0.000000000000000000, 0.000000000000000000, 1.400000000000012346 ) ) ;
#214 = APPLICATION_PROTOCOL_DEFINITION ( 'international standard', 'config_control_design', 1994, #139 ) ;
#215 = ORIENTED_EDGE ( 'NONE', *, *, #22, .T. ) ;
#216 = EDGE_CURVE ( 'NONE', #45, #76, #127, .T. ) ;
#217 = AXIS2_PLACEMENT_3D ( 'NONE', #227, #231, #204 ) ;
#218 = DIRECTION ( 'NONE',  ( 1.000000000000000000, 0.000000000000000000, 0.000000000000000000 ) ) ;
#219 = VERTEX_POINT ( 'NONE', #233 ) ;
#220 = ORIENTED_EDGE ( 'NONE', *, *, #285, .F. ) ;
#221 = ORIENTED_EDGE ( 'NONE', *, *, #25, .F. ) ;
#222 = EDGE_CURVE ( 'NONE', #12, #14, #277, .T. ) ;
#223 = LOCAL_TIME ( 12, 24, 37.00000000000000000, #120 ) ;
#224 = FACE_OUTER_BOUND ( 'NONE', #246, .T. ) ;
#225 = AXIS2_PLACEMENT_3D ( 'NONE', #50, #164, #113 ) ;
#226 = CARTESIAN_POINT ( 'NONE',  ( -0.5999999999999999778, 0.000000000000000000, 201.2000000000000171 ) ) ;
#227 = CARTESIAN_POINT ( 'NONE',  ( 0.000000000000000000, 0.000000000000000000, 1.199999999999999956 ) ) ;
#228 = PERSON_AND_ORGANIZATION_ROLE ( 'design_supplier' ) ;
#229 = DESIGN_CONTEXT ( 'detailed design', #151, 'design' ) ;
#230 = DIRECTION ( 'NONE',  ( -1.000000000000000000, 0.000000000000000000, 0.000000000000000000 ) ) ;
#231 = DIRECTION ( 'NONE',  ( -0.000000000000000000, -0.000000000000000000, -1.000000000000000000 ) ) ;
#232 = DATE_AND_TIME ( #124, #284 ) ;
#233 = CARTESIAN_POINT ( 'NONE',  ( -0.5999999999999999778, 0.000000000000000000, 1.400000000000012346 ) ) ;
#234 = PERSON_AND_ORGANIZATION_ROLE ( 'creator' ) ;
#235 = DIRECTION ( 'NONE',  ( 0.000000000000000000, -1.000000000000000000, 0.000000000000000000 ) ) ;
#236 = CC_DESIGN_PERSON_AND_ORGANIZATION_ASSIGNMENT ( #197, #293, ( #131 ) ) ;
#237 = PERSON_AND_ORGANIZATION_ROLE ( 'creator' ) ;
#238 = ADVANCED_FACE ( 'NONE', ( #136 ), #24, .F. ) ;
#239 = ORIENTED_EDGE ( 'NONE', *, *, #152, .T. ) ;
#240 =( NAMED_UNIT ( * ) PLANE_ANGLE_UNIT ( ) SI_UNIT ( $, .RADIAN. ) );
#241 = ORIENTED_EDGE ( 'NONE', *, *, #64, .T. ) ;
#242 = ORIENTED_EDGE ( 'NONE', *, *, #294, .F. ) ;
#243 = ORIENTED_EDGE ( 'NONE', *, *, #254, .F. ) ;
#244 = CALENDAR_DATE ( 2022, 20, 6 ) ;
#245 = APPROVAL ( #10, 'NEURÈENÝ' ) ;
#246 = EDGE_LOOP ( 'NONE', ( #242, #241, #194, #299 ) ) ;
#247 = AXIS2_PLACEMENT_3D ( 'NONE', #18, #158, #153 ) ;
#248 = PLANE ( 'NONE',  #19 ) ;
#249 = CARTESIAN_POINT ( 'NONE',  ( 0.000000000000000000, 0.000000000000000000, 1.199999999999999956 ) ) ;
#250 = APPROVAL_DATE_TIME ( #146, #245 ) ;
#251 = DIRECTION ( 'NONE',  ( -0.000000000000000000, -0.000000000000000000, -1.000000000000000000 ) ) ;
#252 = APPROVAL_STATUS ( 'not_yet_approved' ) ;
#253 = PRODUCT_DEFINITION_SHAPE ( 'NONE', 'NONE',  #97 ) ;
#254 = EDGE_CURVE ( 'NONE', #14, #12, #155, .T. ) ;
#255 = LINE ( 'NONE', #43, #185 ) ;
#256 = FACE_OUTER_BOUND ( 'NONE', #73, .T. ) ;
#257 = DIRECTION ( 'NONE',  ( -0.000000000000000000, -0.000000000000000000, -1.000000000000000000 ) ) ;
#258 = AXIS2_PLACEMENT_3D ( 'NONE', #79, #20, #85 ) ;
#259 = CARTESIAN_POINT ( 'NONE',  ( 0.000000000000000000, 0.000000000000000000, 201.2000000000000171 ) ) ;
#260 = DIRECTION ( 'NONE',  ( 0.000000000000000000, 0.000000000000000000, 1.000000000000000000 ) ) ;
#261 = AXIS2_PLACEMENT_3D ( 'NONE', #249, #302, #230 ) ;
#262 = ADVANCED_FACE ( 'NONE', ( #66 ), #28, .T. ) ;
#263 = ORIENTED_EDGE ( 'NONE', *, *, #276, .F. ) ;
#264 = DATE_AND_TIME ( #84, #296 ) ;
#265 = VERTEX_POINT ( 'NONE', #165 ) ;
#266 = APPLICATION_PROTOCOL_DEFINITION ( 'international standard', 'config_control_design', 1994, #151 ) ;
#267 = EDGE_CURVE ( 'NONE', #265, #132, #104, .T. ) ;
#268 = COORDINATED_UNIVERSAL_TIME_OFFSET ( 1, 0, .AHEAD. ) ;
#269 = DATE_TIME_ROLE ( 'creation_date' ) ;
#270 = CARTESIAN_POINT ( 'NONE',  ( -0.7999999999999999334, 9.797174393178824918E-17, 1.400000000000012346 ) ) ;
#271 = LOCAL_TIME ( 12, 24, 37.00000000000000000, #74 ) ;
#272 = CARTESIAN_POINT ( 'NONE',  ( -0.7999999999999999334, 9.797174393178824918E-17, 1.200000000000006173 ) ) ;
#273 = PERSON_AND_ORGANIZATION ( #212, #177 ) ;
#274 = CARTESIAN_POINT ( 'NONE',  ( 1.250000000000000000, 1.530808498934191571E-16, 1.199999999999999956 ) ) ;
#275 = PERSON_AND_ORGANIZATION ( #212, #177 ) ;
#276 = EDGE_CURVE ( 'NONE', #145, #289, #126, .T. ) ;
#277 = CIRCLE ( 'NONE', #27, 0.5999999999999999778 ) ;
#278 = CARTESIAN_POINT ( 'NONE',  ( 0.5999999999999999778, 7.347880794884117764E-17, 201.2000000000000171 ) ) ;
#279 = DIRECTION ( 'NONE',  ( -1.000000000000000000, 0.000000000000000000, 0.000000000000000000 ) ) ;
#280 = CARTESIAN_POINT ( 'NONE',  ( 0.000000000000000000, 0.000000000000000000, 1.199999999999999956 ) ) ;
#281 = CC_DESIGN_PERSON_AND_ORGANIZATION_ASSIGNMENT ( #86, #234, ( #71 ) ) ;
#282 = CIRCLE ( 'NONE', #142, 1.250000000000000000 ) ;
#283 = DIRECTION ( 'NONE',  ( 1.000000000000000000, 0.000000000000000000, 0.000000000000000000 ) ) ;
#284 = LOCAL_TIME ( 12, 24, 37.00000000000000000, #268 ) ;
#285 = EDGE_CURVE ( 'NONE', #12, #145, #92, .T. ) ;
#286 = VECTOR ( 'NONE', #251, 1000.000000000000000 ) ;
#287 = APPROVAL_ROLE ( '' ) ;
#288 = MECHANICAL_CONTEXT ( 'NONE', #139, 'mechanical' ) ;
#289 = VERTEX_POINT ( 'NONE', #65 ) ;
#290 = VECTOR ( 'NONE', #191, 1000.000000000000000 ) ;
#291 = DIRECTION ( 'NONE',  ( 0.000000000000000000, 0.000000000000000000, 1.000000000000000000 ) ) ;
#292 = EDGE_LOOP ( 'NONE', ( #17, #215, #200, #263 ) ) ;
#293 = PERSON_AND_ORGANIZATION_ROLE ( 'design_owner' ) ;
#294 = EDGE_CURVE ( 'NONE', #132, #265, #163, .T. ) ;
#295 = ORIENTED_EDGE ( 'NONE', *, *, #25, .T. ) ;
#296 = LOCAL_TIME ( 12, 24, 37.00000000000000000, #46 ) ;
#297 = APPROVAL_STATUS ( 'not_yet_approved' ) ;
#298 = ORIENTED_EDGE ( 'NONE', *, *, #75, .T. ) ;
#299 = ORIENTED_EDGE ( 'NONE', *, *, #152, .F. ) ;
#300 = SHAPE_DEFINITION_REPRESENTATION ( #253, #133 ) ;
#301 = APPROVAL_ROLE ( '' ) ;
#302 = DIRECTION ( 'NONE',  ( -0.000000000000000000, -0.000000000000000000, -1.000000000000000000 ) ) ;
#303 = CC_DESIGN_SECURITY_CLASSIFICATION ( #63, ( #71 ) ) ;
#304 = AXIS2_PLACEMENT_3D ( 'NONE', #140, #260, #48 ) ;
#305 = EDGE_LOOP ( 'NONE', ( #220, #243, #298, #196 ) ) ;
#306 = FACE_BOUND ( 'NONE', #39, .T. ) ;
#307 = CC_DESIGN_PERSON_AND_ORGANIZATION_ASSIGNMENT ( #112, #237, ( #97 ) ) ;
ENDSEC;
END-ISO-10303-21;
