ISO-10303-21;
HEADER;
FILE_DESCRIPTION (( 'STEP AP203' ),
    '1' );
FILE_NAME ('061b.STEP',
    '2022-06-20T10:12:10',
    ( '' ),
    ( '' ),
    'SwSTEP 2.0',
    'SolidWorks 2019',
    '' );
FILE_SCHEMA (( 'CONFIG_CONTROL_DESIGN' ));
ENDSEC;

DATA;
#1 = LOCAL_TIME ( 12, 12, 10.00000000000000000, #237 ) ;
#2 = APPROVAL ( #307, 'NEURÈENÝ' ) ;
#3 = CALENDAR_DATE ( 2022, 20, 6 ) ;
#4 = EDGE_CURVE ( 'NONE', #29, #128, #74, .T. ) ;
#5 = ORIENTED_EDGE ( 'NONE', *, *, #256, .F. ) ;
#6 = AXIS2_PLACEMENT_3D ( 'NONE', #76, #302, #60 ) ;
#7 = CARTESIAN_POINT ( 'NONE',  ( 0.000000000000000000, 0.000000000000000000, 3.200000000000008171 ) ) ;
#8 = CARTESIAN_POINT ( 'NONE',  ( 0.000000000000000000, 0.000000000000000000, 0.000000000000000000 ) ) ;
#9 = CARTESIAN_POINT ( 'NONE',  ( 0.000000000000000000, 0.000000000000000000, 3.200000000000008171 ) ) ;
#10 = DIRECTION ( 'NONE',  ( 0.000000000000000000, 0.000000000000000000, 1.000000000000000000 ) ) ;
#11 = CARTESIAN_POINT ( 'NONE',  ( 0.000000000000000000, 0.000000000000000000, 3.000000000000000000 ) ) ;
#12 = APPROVAL ( #87, 'NEURÈENÝ' ) ;
#13 = FACE_OUTER_BOUND ( 'NONE', #274, .T. ) ;
#14 = DIRECTION ( 'NONE',  ( 0.000000000000000000, 0.000000000000000000, 1.000000000000000000 ) ) ;
#15 = MANIFOLD_SOLID_BREP ( 'Zaoblit1', #36 ) ;
#16 = DIRECTION ( 'NONE',  ( -1.000000000000000000, 0.000000000000000000, 0.000000000000000000 ) ) ;
#17 = CARTESIAN_POINT ( 'NONE',  ( -3.500000000000000444, 0.000000000000000000, 0.000000000000000000 ) ) ;
#18 = EDGE_CURVE ( 'NONE', #128, #95, #184, .T. ) ;
#19 = CARTESIAN_POINT ( 'NONE',  ( 0.000000000000000000, 0.000000000000000000, 203.0000000000000000 ) ) ;
#20 = CIRCLE ( 'NONE', #186, 1.950000000000000178 ) ;
#21 = PERSON_AND_ORGANIZATION_ROLE ( 'creator' ) ;
#22 = CC_DESIGN_PERSON_AND_ORGANIZATION_ASSIGNMENT ( #165, #280, ( #121 ) ) ;
#23 = ORIENTED_EDGE ( 'NONE', *, *, #4, .F. ) ;
#24 = CALENDAR_DATE ( 2022, 20, 6 ) ;
#25 = EDGE_LOOP ( 'NONE', ( #32, #192, #56, #132 ) ) ;
#26 = AXIS2_PLACEMENT_3D ( 'NONE', #107, #276, #304 ) ;
#27 = EDGE_CURVE ( 'NONE', #270, #58, #119, .T. ) ;
#28 = ORIENTED_EDGE ( 'NONE', *, *, #144, .F. ) ;
#29 = VERTEX_POINT ( 'NONE', #272 ) ;
#30 = DIRECTION ( 'NONE',  ( 1.000000000000000000, 0.000000000000000000, 0.000000000000000000 ) ) ;
#31 = EDGE_CURVE ( 'NONE', #244, #100, #99, .T. ) ;
#32 = ORIENTED_EDGE ( 'NONE', *, *, #221, .F. ) ;
#33 = CARTESIAN_POINT ( 'NONE',  ( 1.950000000000000178, 0.000000000000000000, 3.000000000000004441 ) ) ;
#34 = CARTESIAN_POINT ( 'NONE',  ( 3.500000000000000444, 4.286263797015737088E-16, 3.000000000000000000 ) ) ;
#35 = ORIENTED_EDGE ( 'NONE', *, *, #256, .T. ) ;
#36 = CLOSED_SHELL ( 'NONE', ( #292, #174, #135, #247, #288, #43, #275, #216, #301 ) ) ;
#37 = DIRECTION ( 'NONE',  ( 1.000000000000000000, 0.000000000000000000, 0.000000000000000000 ) ) ;
#38 = DIRECTION ( 'NONE',  ( -1.000000000000000000, 0.000000000000000000, 0.000000000000000000 ) ) ;
#39 = PRODUCT ( '061b', '061b', '', ( #306 ) ) ;
#40 = AXIS2_PLACEMENT_3D ( 'NONE', #47, #212, #139 ) ;
#41 = CARTESIAN_POINT ( 'NONE',  ( 0.000000000000000000, 0.000000000000000000, 3.000000000000000000 ) ) ;
#42 = LOCAL_TIME ( 12, 12, 10.00000000000000000, #69 ) ;
#43 = ADVANCED_FACE ( 'NONE', ( #13 ), #103, .F. ) ;
#44 = CARTESIAN_POINT ( 'NONE',  ( 0.000000000000000000, 0.000000000000000000, 3.000000000000000000 ) ) ;
#45 = PERSON_AND_ORGANIZATION ( #266, #197 ) ;
#46 = AXIS2_PLACEMENT_3D ( 'NONE', #7, #10, #296 ) ;
#47 = CARTESIAN_POINT ( 'NONE',  ( 0.000000000000000000, 0.000000000000000000, 0.000000000000000000 ) ) ;
#48 = APPLICATION_CONTEXT ( 'configuration controlled 3d designs of mechanical parts and assemblies' ) ;
#49 = APPROVAL_STATUS ( 'not_yet_approved' ) ;
#50 = CC_DESIGN_APPROVAL ( #2, ( #166 ) ) ;
#51 = PERSON_AND_ORGANIZATION_ROLE ( 'design_supplier' ) ;
#52 = CALENDAR_DATE ( 2022, 20, 6 ) ;
#53 = AXIS2_PLACEMENT_3D ( 'NONE', #179, #242, #30 ) ;
#54 = CIRCLE ( 'NONE', #102, 0.1999999999999998723 ) ;
#55 = CC_DESIGN_PERSON_AND_ORGANIZATION_ASSIGNMENT ( #143, #21, ( #205 ) ) ;
#56 = ORIENTED_EDGE ( 'NONE', *, *, #281, .T. ) ;
#57 = DIRECTION ( 'NONE',  ( -0.000000000000000000, -0.000000000000000000, -1.000000000000000000 ) ) ;
#58 = VERTEX_POINT ( 'NONE', #33 ) ;
#59 = EDGE_CURVE ( 'NONE', #95, #128, #295, .T. ) ;
#60 = DIRECTION ( 'NONE',  ( 1.000000000000000000, 0.000000000000000000, 0.000000000000000000 ) ) ;
#61 = CARTESIAN_POINT ( 'NONE',  ( -3.500000000000000444, 0.000000000000000000, 3.000000000000000000 ) ) ;
#62 = FACE_OUTER_BOUND ( 'NONE', #153, .T. ) ;
#63 = AXIS2_PLACEMENT_3D ( 'NONE', #176, #268, #177 ) ;
#64 = ORIENTED_EDGE ( 'NONE', *, *, #168, .T. ) ;
#65 = CARTESIAN_POINT ( 'NONE',  ( 0.000000000000000000, 0.000000000000000000, 203.0000000000000000 ) ) ;
#66 = DIRECTION ( 'NONE',  ( 0.000000000000000000, 0.000000000000000000, 1.000000000000000000 ) ) ;
#67 = DIRECTION ( 'NONE',  ( -0.000000000000000000, -0.000000000000000000, -1.000000000000000000 ) ) ;
#68 = APPROVAL_DATE_TIME ( #141, #72 ) ;
#69 = COORDINATED_UNIVERSAL_TIME_OFFSET ( 1, 0, .AHEAD. ) ;
#70 = CC_DESIGN_PERSON_AND_ORGANIZATION_ASSIGNMENT ( #263, #90, ( #39 ) ) ;
#71 = AXIS2_PLACEMENT_3D ( 'NONE', #81, #151, #245 ) ;
#72 = APPROVAL ( #49, 'NEURÈENÝ' ) ;
#73 = VERTEX_POINT ( 'NONE', #225 ) ;
#74 = LINE ( 'NONE', #175, #146 ) ;
#75 = ORIENTED_EDGE ( 'NONE', *, *, #112, .F. ) ;
#76 = CARTESIAN_POINT ( 'NONE',  ( 0.000000000000000000, 0.000000000000000000, 3.200000000000008171 ) ) ;
#77 = EDGE_LOOP ( 'NONE', ( #123, #130 ) ) ;
#78 = CARTESIAN_POINT ( 'NONE',  ( -3.500000000000000444, 0.000000000000000000, 3.000000000000000000 ) ) ;
#79 = EDGE_LOOP ( 'NONE', ( #28, #200, #291, #23 ) ) ;
#80 = CARTESIAN_POINT ( 'NONE',  ( 0.000000000000000000, 0.000000000000000000, 3.200000000000008171 ) ) ;
#81 = CARTESIAN_POINT ( 'NONE',  ( 0.000000000000000000, 0.000000000000000000, 0.000000000000000000 ) ) ;
#82 = DIRECTION ( 'NONE',  ( -0.000000000000000000, -0.000000000000000000, -1.000000000000000000 ) ) ;
#83 = EDGE_CURVE ( 'NONE', #217, #244, #163, .T. ) ;
#84 = APPLICATION_PROTOCOL_DEFINITION ( 'international standard', 'config_control_design', 1994, #211 ) ;
#85 = LINE ( 'NONE', #182, #164 ) ;
#86 = APPROVAL_ROLE ( '' ) ;
#87 = APPROVAL_STATUS ( 'not_yet_approved' ) ;
#88 = VECTOR ( 'NONE', #57, 1000.000000000000000 ) ;
#89 = PRODUCT_RELATED_PRODUCT_CATEGORY ( 'detail', '', ( #39 ) ) ;
#90 = PERSON_AND_ORGANIZATION_ROLE ( 'design_owner' ) ;
#91 = APPROVAL_ROLE ( '' ) ;
#92 = EDGE_LOOP ( 'NONE', ( #96, #223, #203, #64 ) ) ;
#93 = COORDINATED_UNIVERSAL_TIME_OFFSET ( 1, 0, .AHEAD. ) ;
#94 = AXIS2_PLACEMENT_3D ( 'NONE', #19, #66, #160 ) ;
#95 = VERTEX_POINT ( 'NONE', #305 ) ;
#96 = ORIENTED_EDGE ( 'NONE', *, *, #148, .F. ) ;
#97 = EDGE_CURVE ( 'NONE', #173, #100, #289, .T. ) ;
#98 = FACE_OUTER_BOUND ( 'NONE', #77, .T. ) ;
#99 = LINE ( 'NONE', #61, #88 ) ;
#100 = VERTEX_POINT ( 'NONE', #17 ) ;
#101 = DIRECTION ( 'NONE',  ( -1.000000000000000000, 1.224646799147354686E-16, 0.000000000000000000 ) ) ;
#102 = AXIS2_PLACEMENT_3D ( 'NONE', #207, #126, #101 ) ;
#103 = PLANE ( 'NONE',  #71 ) ;
#104 = LOCAL_TIME ( 12, 12, 10.00000000000000000, #233 ) ;
#105 = FACE_OUTER_BOUND ( 'NONE', #206, .T. ) ;
#106 = DIRECTION ( 'NONE',  ( 0.000000000000000000, -1.000000000000000000, 0.000000000000000000 ) ) ;
#107 = CARTESIAN_POINT ( 'NONE',  ( 0.000000000000000000, 0.000000000000000000, 0.000000000000000000 ) ) ;
#108 = DATE_AND_TIME ( #24, #1 ) ;
#109 =( GEOMETRIC_REPRESENTATION_CONTEXT ( 3 ) GLOBAL_UNCERTAINTY_ASSIGNED_CONTEXT ( ( #259 ) ) GLOBAL_UNIT_ASSIGNED_CONTEXT ( ( #133, #154, #222 ) ) REPRESENTATION_CONTEXT ( 'NONE', 'WORKASPACE' ) );
#110 = DIRECTION ( 'NONE',  ( -0.000000000000000000, -0.000000000000000000, -1.000000000000000000 ) ) ;
#111 = APPROVAL_DATE_TIME ( #236, #2 ) ;
#112 = EDGE_CURVE ( 'NONE', #73, #95, #138, .T. ) ;
#113 = APPROVAL_DATE_TIME ( #282, #12 ) ;
#114 = DATE_AND_TIME ( #52, #42 ) ;
#115 = ORIENTED_EDGE ( 'NONE', *, *, #221, .T. ) ;
#116 = CALENDAR_DATE ( 2022, 20, 6 ) ;
#117 = CC_DESIGN_SECURITY_CLASSIFICATION ( #166, ( #205 ) ) ;
#118 = ORIENTED_EDGE ( 'NONE', *, *, #27, .T. ) ;
#119 = CIRCLE ( 'NONE', #63, 1.950000000000000178 ) ;
#120 = ORIENTED_EDGE ( 'NONE', *, *, #144, .T. ) ;
#121 = PRODUCT_DEFINITION ( 'NEZNÁMÝ', '', #205, #235 ) ;
#122 = LOCAL_TIME ( 12, 12, 10.00000000000000000, #93 ) ;
#123 = ORIENTED_EDGE ( 'NONE', *, *, #286, .T. ) ;
#124 = ORIENTED_EDGE ( 'NONE', *, *, #97, .T. ) ;
#125 = CIRCLE ( 'NONE', #284, 1.750000000000000000 ) ;
#126 = DIRECTION ( 'NONE',  ( 1.224646799147353207E-16, 1.000000000000000000, -0.000000000000000000 ) ) ;
#127 = APPROVAL_PERSON_ORGANIZATION ( #45, #12, #86 ) ;
#128 = VERTEX_POINT ( 'NONE', #229 ) ;
#129 = DIRECTION ( 'NONE',  ( 0.000000000000000000, 0.000000000000000000, 1.000000000000000000 ) ) ;
#130 = ORIENTED_EDGE ( 'NONE', *, *, #83, .T. ) ;
#131 = CARTESIAN_POINT ( 'NONE',  ( 0.000000000000000000, 0.000000000000000000, 203.0000000000000000 ) ) ;
#132 = ORIENTED_EDGE ( 'NONE', *, *, #27, .F. ) ;
#133 =( LENGTH_UNIT ( ) NAMED_UNIT ( * ) SI_UNIT ( .MILLI., .METRE. ) );
#134 = AXIS2_PLACEMENT_3D ( 'NONE', #219, #129, #202 ) ;
#135 = ADVANCED_FACE ( 'NONE', ( #210 ), #258, .T. ) ;
#136 = CARTESIAN_POINT ( 'NONE',  ( 0.000000000000000000, 0.000000000000000000, 203.0000000000000000 ) ) ;
#137 = ADVANCED_BREP_SHAPE_REPRESENTATION ( '061b', ( #15, #246 ), #109 ) ;
#138 = LINE ( 'NONE', #260, #201 ) ;
#139 = DIRECTION ( 'NONE',  ( 1.000000000000000000, 0.000000000000000000, 0.000000000000000000 ) ) ;
#140 = PERSON_AND_ORGANIZATION ( #266, #197 ) ;
#141 = DATE_AND_TIME ( #3, #104 ) ;
#142 = DIRECTION ( 'NONE',  ( 0.000000000000000000, 0.000000000000000000, 1.000000000000000000 ) ) ;
#143 = PERSON_AND_ORGANIZATION ( #266, #197 ) ;
#144 = EDGE_CURVE ( 'NONE', #73, #29, #170, .T. ) ;
#145 = TOROIDAL_SURFACE ( 'NONE', #6, 1.950000000000000178, 0.2000000000000000111 ) ;
#146 = VECTOR ( 'NONE', #218, 1000.000000000000000 ) ;
#147 = ORIENTED_EDGE ( 'NONE', *, *, #83, .F. ) ;
#148 = EDGE_CURVE ( 'NONE', #217, #173, #85, .T. ) ;
#149 = AXIS2_PLACEMENT_3D ( 'NONE', #209, #106, #152 ) ;
#150 = ORIENTED_EDGE ( 'NONE', *, *, #18, .F. ) ;
#151 = DIRECTION ( 'NONE',  ( 0.000000000000000000, 0.000000000000000000, 1.000000000000000000 ) ) ;
#152 = DIRECTION ( 'NONE',  ( 0.000000000000000000, 0.000000000000000000, -1.000000000000000000 ) ) ;
#153 = EDGE_LOOP ( 'NONE', ( #150, #115, #249, #198 ) ) ;
#154 =( NAMED_UNIT ( * ) PLANE_ANGLE_UNIT ( ) SI_UNIT ( $, .RADIAN. ) );
#155 = DIRECTION ( 'NONE',  ( 0.000000000000000000, 0.000000000000000000, 1.000000000000000000 ) ) ;
#156 = EDGE_CURVE ( 'NONE', #58, #270, #20, .T. ) ;
#157 = FACE_OUTER_BOUND ( 'NONE', #25, .T. ) ;
#158 = FACE_OUTER_BOUND ( 'NONE', #79, .T. ) ;
#159 = CARTESIAN_POINT ( 'NONE',  ( 0.000000000000000000, 0.000000000000000000, 203.0000000000000000 ) ) ;
#160 = DIRECTION ( 'NONE',  ( 1.000000000000000000, 0.000000000000000000, 0.000000000000000000 ) ) ;
#161 = DIRECTION ( 'NONE',  ( 1.000000000000000000, 0.000000000000000000, 0.000000000000000000 ) ) ;
#162 = DATE_TIME_ROLE ( 'classification_date' ) ;
#163 = CIRCLE ( 'NONE', #53, 3.500000000000000444 ) ;
#164 = VECTOR ( 'NONE', #110, 1000.000000000000000 ) ;
#165 = PERSON_AND_ORGANIZATION ( #266, #197 ) ;
#166 = SECURITY_CLASSIFICATION ( '', '', #261 ) ;
#167 = PERSON_AND_ORGANIZATION ( #266, #197 ) ;
#168 = EDGE_CURVE ( 'NONE', #100, #173, #265, .T. ) ;
#169 = ORIENTED_EDGE ( 'NONE', *, *, #4, .T. ) ;
#170 = CIRCLE ( 'NONE', #94, 1.750000000000000000 ) ;
#171 = CIRCLE ( 'NONE', #149, 0.2000000000000000944 ) ;
#172 = LOCAL_TIME ( 12, 12, 10.00000000000000000, #283 ) ;
#173 = VERTEX_POINT ( 'NONE', #230 ) ;
#174 = ADVANCED_FACE ( 'NONE', ( #158 ), #253, .T. ) ;
#175 = CARTESIAN_POINT ( 'NONE',  ( -1.750000000000000000, 0.000000000000000000, 203.0000000000000000 ) ) ;
#176 = CARTESIAN_POINT ( 'NONE',  ( 0.000000000000000000, 0.000000000000000000, 3.000000000000000000 ) ) ;
#177 = DIRECTION ( 'NONE',  ( 1.000000000000000000, 0.000000000000000000, 0.000000000000000000 ) ) ;
#178 = FACE_BOUND ( 'NONE', #251, .T. ) ;
#179 = CARTESIAN_POINT ( 'NONE',  ( 0.000000000000000000, 0.000000000000000000, 3.000000000000000000 ) ) ;
#180 = DIRECTION ( 'NONE',  ( -1.000000000000000000, 0.000000000000000000, 0.000000000000000000 ) ) ;
#181 = DIRECTION ( 'NONE',  ( 1.000000000000000000, 0.000000000000000000, -0.000000000000000000 ) ) ;
#182 = CARTESIAN_POINT ( 'NONE',  ( 3.500000000000000444, 4.286263797015737088E-16, 3.000000000000000000 ) ) ;
#183 = CALENDAR_DATE ( 2022, 20, 6 ) ;
#184 = CIRCLE ( 'NONE', #46, 1.750000000000000000 ) ;
#185 = APPROVAL_ROLE ( '' ) ;
#186 = AXIS2_PLACEMENT_3D ( 'NONE', #44, #279, #161 ) ;
#187 = CC_DESIGN_DATE_AND_TIME_ASSIGNMENT ( #108, #162, ( #166 ) ) ;
#188 = APPLICATION_PROTOCOL_DEFINITION ( 'international standard', 'config_control_design', 1994, #48 ) ;
#189 = CC_DESIGN_APPROVAL ( #12, ( #121 ) ) ;
#190 = ORIENTED_EDGE ( 'NONE', *, *, #31, .F. ) ;
#191 = TOROIDAL_SURFACE ( 'NONE', #238, 1.950000000000000178, 0.2000000000000000111 ) ;
#192 = ORIENTED_EDGE ( 'NONE', *, *, #59, .F. ) ;
#193 = AXIS2_PLACEMENT_3D ( 'NONE', #41, #82, #180 ) ;
#194 = ORIENTED_EDGE ( 'NONE', *, *, #168, .F. ) ;
#195 = AXIS2_PLACEMENT_3D ( 'NONE', #11, #299, #248 ) ;
#196 = CC_DESIGN_PERSON_AND_ORGANIZATION_ASSIGNMENT ( #140, #51, ( #205 ) ) ;
#197 = ORGANIZATION ( 'NEURÈENÝ', 'NEURÈENÝ', '' ) ;
#198 = ORIENTED_EDGE ( 'NONE', *, *, #281, .F. ) ;
#199 = CARTESIAN_POINT ( 'NONE',  ( 0.000000000000000000, 0.000000000000000000, 3.000000000000000000 ) ) ;
#200 = ORIENTED_EDGE ( 'NONE', *, *, #112, .T. ) ;
#201 = VECTOR ( 'NONE', #67, 1000.000000000000000 ) ;
#202 = DIRECTION ( 'NONE',  ( 1.000000000000000000, 0.000000000000000000, -0.000000000000000000 ) ) ;
#203 = ORIENTED_EDGE ( 'NONE', *, *, #31, .T. ) ;
#204 = FACE_OUTER_BOUND ( 'NONE', #92, .T. ) ;
#205 = PRODUCT_DEFINITION_FORMATION_WITH_SPECIFIED_SOURCE ( 'LIBOVOLNÝ', '', #39, .NOT_KNOWN. ) ;
#206 = EDGE_LOOP ( 'NONE', ( #35, #120 ) ) ;
#207 = CARTESIAN_POINT ( 'NONE',  ( -1.950000000000000178, 2.388061258337339136E-16, 3.200000000000008171 ) ) ;
#208 = PLANE ( 'NONE',  #240 ) ;
#209 = CARTESIAN_POINT ( 'NONE',  ( 1.950000000000000178, 0.000000000000000000, 3.200000000000008171 ) ) ;
#210 = FACE_OUTER_BOUND ( 'NONE', #267, .T. ) ;
#211 = APPLICATION_CONTEXT ( 'configuration controlled 3d designs of mechanical parts and assemblies' ) ;
#212 = DIRECTION ( 'NONE',  ( 0.000000000000000000, 0.000000000000000000, 1.000000000000000000 ) ) ;
#213 = DIRECTION ( 'NONE',  ( 1.000000000000000000, 0.000000000000000000, 0.000000000000000000 ) ) ;
#214 = PERSON_AND_ORGANIZATION_ROLE ( 'classification_officer' ) ;
#215 = SHAPE_DEFINITION_REPRESENTATION ( #303, #137 ) ;
#216 = ADVANCED_FACE ( 'NONE', ( #105 ), #208, .T. ) ;
#217 = VERTEX_POINT ( 'NONE', #34 ) ;
#218 = DIRECTION ( 'NONE',  ( -0.000000000000000000, -0.000000000000000000, -1.000000000000000000 ) ) ;
#219 = CARTESIAN_POINT ( 'NONE',  ( 0.000000000000000000, 0.000000000000000000, 3.000000000000000000 ) ) ;
#220 = ORIENTED_EDGE ( 'NONE', *, *, #148, .T. ) ;
#221 = EDGE_CURVE ( 'NONE', #128, #270, #54, .T. ) ;
#222 =( NAMED_UNIT ( * ) SI_UNIT ( $, .STERADIAN. ) SOLID_ANGLE_UNIT ( ) );
#223 = ORIENTED_EDGE ( 'NONE', *, *, #286, .F. ) ;
#224 = DIRECTION ( 'NONE',  ( -0.000000000000000000, -0.000000000000000000, -1.000000000000000000 ) ) ;
#225 = CARTESIAN_POINT ( 'NONE',  ( 1.750000000000000000, 2.143131898507868297E-16, 203.0000000000000000 ) ) ;
#226 = DIRECTION ( 'NONE',  ( 1.000000000000000000, 0.000000000000000000, 0.000000000000000000 ) ) ;
#227 = DIRECTION ( 'NONE',  ( -0.000000000000000000, -0.000000000000000000, -1.000000000000000000 ) ) ;
#228 = DIRECTION ( 'NONE',  ( -0.000000000000000000, -0.000000000000000000, -1.000000000000000000 ) ) ;
#229 = CARTESIAN_POINT ( 'NONE',  ( -1.750000000000000000, 0.000000000000000000, 3.200000000000008171 ) ) ;
#230 = CARTESIAN_POINT ( 'NONE',  ( 3.500000000000000444, 4.286263797015737088E-16, 0.000000000000000000 ) ) ;
#231 = PERSON_AND_ORGANIZATION ( #266, #197 ) ;
#232 = APPROVAL_PERSON_ORGANIZATION ( #231, #2, #185 ) ;
#233 = COORDINATED_UNIVERSAL_TIME_OFFSET ( 1, 0, .AHEAD. ) ;
#234 = CC_DESIGN_DATE_AND_TIME_ASSIGNMENT ( #114, #262, ( #121 ) ) ;
#235 = DESIGN_CONTEXT ( 'detailed design', #48, 'design' ) ;
#236 = DATE_AND_TIME ( #116, #172 ) ;
#237 = COORDINATED_UNIVERSAL_TIME_OFFSET ( 1, 0, .AHEAD. ) ;
#238 = AXIS2_PLACEMENT_3D ( 'NONE', #80, #14, #271 ) ;
#239 = ORIENTED_EDGE ( 'NONE', *, *, #156, .T. ) ;
#240 = AXIS2_PLACEMENT_3D ( 'NONE', #131, #278, #181 ) ;
#241 = CC_DESIGN_PERSON_AND_ORGANIZATION_ASSIGNMENT ( #264, #214, ( #166 ) ) ;
#242 = DIRECTION ( 'NONE',  ( 0.000000000000000000, 0.000000000000000000, 1.000000000000000000 ) ) ;
#243 = AXIS2_PLACEMENT_3D ( 'NONE', #9, #155, #37 ) ;
#244 = VERTEX_POINT ( 'NONE', #78 ) ;
#245 = DIRECTION ( 'NONE',  ( 1.000000000000000000, 0.000000000000000000, -0.000000000000000000 ) ) ;
#246 = AXIS2_PLACEMENT_3D ( 'NONE', #8, #142, #213 ) ;
#247 = ADVANCED_FACE ( 'NONE', ( #204 ), #255, .T. ) ;
#248 = DIRECTION ( 'NONE',  ( 1.000000000000000000, 0.000000000000000000, 0.000000000000000000 ) ) ;
#249 = ORIENTED_EDGE ( 'NONE', *, *, #156, .F. ) ;
#250 = PLANE ( 'NONE',  #134 ) ;
#251 = EDGE_LOOP ( 'NONE', ( #239, #118 ) ) ;
#252 = CYLINDRICAL_SURFACE ( 'NONE', #254, 1.750000000000000000 ) ;
#253 = CYLINDRICAL_SURFACE ( 'NONE', #290, 1.750000000000000000 ) ;
#254 = AXIS2_PLACEMENT_3D ( 'NONE', #159, #224, #273 ) ;
#255 = CYLINDRICAL_SURFACE ( 'NONE', #277, 3.500000000000000444 ) ;
#256 = EDGE_CURVE ( 'NONE', #29, #73, #125, .T. ) ;
#257 = APPROVAL_PERSON_ORGANIZATION ( #167, #72, #91 ) ;
#258 = CYLINDRICAL_SURFACE ( 'NONE', #193, 3.500000000000000444 ) ;
#259 = UNCERTAINTY_MEASURE_WITH_UNIT (LENGTH_MEASURE( 1.000000000000000082E-05 ), #133, 'distance_accuracy_value', 'NONE');
#260 = CARTESIAN_POINT ( 'NONE',  ( 1.750000000000000000, 2.143131898507868297E-16, 203.0000000000000000 ) ) ;
#261 = SECURITY_CLASSIFICATION_LEVEL ( 'unclassified' ) ;
#262 = DATE_TIME_ROLE ( 'creation_date' ) ;
#263 = PERSON_AND_ORGANIZATION ( #266, #197 ) ;
#264 = PERSON_AND_ORGANIZATION ( #266, #197 ) ;
#265 = CIRCLE ( 'NONE', #40, 3.500000000000000444 ) ;
#266 = PERSON ( 'NEURÈENÝ', 'NEURÈENÝ', 'NEURÈENÝ', ('NEURÈENÝ'), ('NEURÈENÝ'), ('NEURÈENÝ') ) ;
#267 = EDGE_LOOP ( 'NONE', ( #147, #220, #124, #190 ) ) ;
#268 = DIRECTION ( 'NONE',  ( -0.000000000000000000, -0.000000000000000000, -1.000000000000000000 ) ) ;
#269 = CARTESIAN_POINT ( 'NONE',  ( -1.950000000000000178, 2.388061258337339136E-16, 3.000000000000004441 ) ) ;
#270 = VERTEX_POINT ( 'NONE', #269 ) ;
#271 = DIRECTION ( 'NONE',  ( 1.000000000000000000, 0.000000000000000000, 0.000000000000000000 ) ) ;
#272 = CARTESIAN_POINT ( 'NONE',  ( -1.750000000000000000, 0.000000000000000000, 203.0000000000000000 ) ) ;
#273 = DIRECTION ( 'NONE',  ( -1.000000000000000000, 0.000000000000000000, 0.000000000000000000 ) ) ;
#274 = EDGE_LOOP ( 'NONE', ( #194, #300 ) ) ;
#275 = ADVANCED_FACE ( 'NONE', ( #297 ), #252, .T. ) ;
#276 = DIRECTION ( 'NONE',  ( 0.000000000000000000, 0.000000000000000000, 1.000000000000000000 ) ) ;
#277 = AXIS2_PLACEMENT_3D ( 'NONE', #199, #228, #38 ) ;
#278 = DIRECTION ( 'NONE',  ( 0.000000000000000000, 0.000000000000000000, 1.000000000000000000 ) ) ;
#279 = DIRECTION ( 'NONE',  ( -0.000000000000000000, -0.000000000000000000, -1.000000000000000000 ) ) ;
#280 = PERSON_AND_ORGANIZATION_ROLE ( 'creator' ) ;
#281 = EDGE_CURVE ( 'NONE', #95, #58, #171, .T. ) ;
#282 = DATE_AND_TIME ( #183, #122 ) ;
#283 = COORDINATED_UNIVERSAL_TIME_OFFSET ( 1, 0, .AHEAD. ) ;
#284 = AXIS2_PLACEMENT_3D ( 'NONE', #65, #294, #226 ) ;
#285 = CC_DESIGN_APPROVAL ( #72, ( #205 ) ) ;
#286 = EDGE_CURVE ( 'NONE', #244, #217, #287, .T. ) ;
#287 = CIRCLE ( 'NONE', #195, 3.500000000000000444 ) ;
#288 = ADVANCED_FACE ( 'NONE', ( #178, #98 ), #250, .T. ) ;
#289 = CIRCLE ( 'NONE', #26, 3.500000000000000444 ) ;
#290 = AXIS2_PLACEMENT_3D ( 'NONE', #136, #227, #16 ) ;
#291 = ORIENTED_EDGE ( 'NONE', *, *, #59, .T. ) ;
#292 = ADVANCED_FACE ( 'NONE', ( #62 ), #191, .F. ) ;
#293 = ORIENTED_EDGE ( 'NONE', *, *, #18, .T. ) ;
#294 = DIRECTION ( 'NONE',  ( 0.000000000000000000, 0.000000000000000000, 1.000000000000000000 ) ) ;
#295 = CIRCLE ( 'NONE', #243, 1.750000000000000000 ) ;
#296 = DIRECTION ( 'NONE',  ( 1.000000000000000000, 0.000000000000000000, 0.000000000000000000 ) ) ;
#297 = FACE_OUTER_BOUND ( 'NONE', #298, .T. ) ;
#298 = EDGE_LOOP ( 'NONE', ( #75, #5, #169, #293 ) ) ;
#299 = DIRECTION ( 'NONE',  ( 0.000000000000000000, 0.000000000000000000, 1.000000000000000000 ) ) ;
#300 = ORIENTED_EDGE ( 'NONE', *, *, #97, .F. ) ;
#301 = ADVANCED_FACE ( 'NONE', ( #157 ), #145, .F. ) ;
#302 = DIRECTION ( 'NONE',  ( 0.000000000000000000, 0.000000000000000000, 1.000000000000000000 ) ) ;
#303 = PRODUCT_DEFINITION_SHAPE ( 'NONE', 'NONE',  #121 ) ;
#304 = DIRECTION ( 'NONE',  ( 1.000000000000000000, 0.000000000000000000, 0.000000000000000000 ) ) ;
#305 = CARTESIAN_POINT ( 'NONE',  ( 1.750000000000000000, 2.143131898507868297E-16, 3.200000000000008171 ) ) ;
#306 = MECHANICAL_CONTEXT ( 'NONE', #211, 'mechanical' ) ;
#307 = APPROVAL_STATUS ( 'not_yet_approved' ) ;
ENDSEC;
END-ISO-10303-21;
