ISO-10303-21;
HEADER;
FILE_DESCRIPTION (( 'STEP AP203' ),
    '1' );
FILE_NAME ('2cce.STEP',
    '2022-07-08T15:02:02',
    ( '' ),
    ( '' ),
    'SwSTEP 2.0',
    'SolidWorks 2019',
    '' );
FILE_SCHEMA (( 'CONFIG_CONTROL_DESIGN' ));
ENDSEC;

DATA;
#1 = AXIS2_PLACEMENT_3D ( 'NONE', #37, #157, #32 ) ;
#2 = PLANE ( 'NONE',  #348 ) ;
#3 = VERTEX_POINT ( 'NONE', #352 ) ;
#4 = LINE ( 'NONE', #249, #139 ) ;
#5 = CARTESIAN_POINT ( 'NONE',  ( 0.000000000000000000, 0.000000000000000000, 7.000000000000000000 ) ) ;
#6 = EDGE_CURVE ( 'NONE', #26, #38, #373, .T. ) ;
#7 = ORIENTED_EDGE ( 'NONE', *, *, #50, .F. ) ;
#8 = AXIS2_PLACEMENT_3D ( 'NONE', #11, #167, #140 ) ;
#9 = ORIENTED_EDGE ( 'NONE', *, *, #116, .T. ) ;
#10 = APPROVAL_ROLE ( '' ) ;
#11 = CARTESIAN_POINT ( 'NONE',  ( 0.000000000000000000, 0.000000000000000000, 7.000000000000000000 ) ) ;
#12 = AXIS2_PLACEMENT_3D ( 'NONE', #288, #93, #85 ) ;
#13 = FACE_OUTER_BOUND ( 'NONE', #46, .T. ) ;
#14 = DIRECTION ( 'NONE',  ( -0.000000000000000000, -0.000000000000000000, -1.000000000000000000 ) ) ;
#15 = CARTESIAN_POINT ( 'NONE',  ( 0.000000000000000000, 0.000000000000000000, 7.500000000000007105 ) ) ;
#16 = ORIENTED_EDGE ( 'NONE', *, *, #333, .F. ) ;
#17 = AXIS2_PLACEMENT_3D ( 'NONE', #107, #336, #84 ) ;
#18 = AXIS2_PLACEMENT_3D ( 'NONE', #285, #14, #314 ) ;
#19 = EDGE_LOOP ( 'NONE', ( #233, #299 ) ) ;
#20 = ADVANCED_FACE ( 'NONE', ( #132 ), #355, .T. ) ;
#21 = FACE_OUTER_BOUND ( 'NONE', #24, .T. ) ;
#22 = DIRECTION ( 'NONE',  ( 1.000000000000000000, 0.000000000000000000, -0.000000000000000000 ) ) ;
#23 = EDGE_CURVE ( 'NONE', #322, #131, #4, .T. ) ;
#24 = EDGE_LOOP ( 'NONE', ( #272, #151 ) ) ;
#25 = APPROVAL_PERSON_ORGANIZATION ( #186, #323, #159 ) ;
#26 = VERTEX_POINT ( 'NONE', #330 ) ;
#27 = CARTESIAN_POINT ( 'NONE',  ( -6.500000000000000888, 7.960204194457796463E-16, 7.500000000000007105 ) ) ;
#28 = APPLICATION_CONTEXT ( 'configuration controlled 3d designs of mechanical parts and assemblies' ) ;
#29 = AXIS2_PLACEMENT_3D ( 'NONE', #203, #224, #172 ) ;
#30 = DIRECTION ( 'NONE',  ( 0.000000000000000000, 0.000000000000000000, 1.000000000000000000 ) ) ;
#31 = PERSON ( 'NEURÈENÝ', 'NEURÈENÝ', 'NEURÈENÝ', ('NEURÈENÝ'), ('NEURÈENÝ'), ('NEURÈENÝ') ) ;
#32 = DIRECTION ( 'NONE',  ( -1.000000000000000000, 0.000000000000000000, 0.000000000000000000 ) ) ;
#33 = VECTOR ( 'NONE', #205, 1000.000000000000000 ) ;
#34 = EDGE_LOOP ( 'NONE', ( #7, #78, #181, #64 ) ) ;
#35 = DATE_AND_TIME ( #318, #47 ) ;
#36 = ADVANCED_FACE ( 'NONE', ( #298, #213 ), #2, .T. ) ;
#37 = CARTESIAN_POINT ( 'NONE',  ( 0.000000000000000000, 0.000000000000000000, 167.0000000000000000 ) ) ;
#38 = VERTEX_POINT ( 'NONE', #296 ) ;
#39 = FACE_BOUND ( 'NONE', #19, .T. ) ;
#40 = FACE_OUTER_BOUND ( 'NONE', #34, .T. ) ;
#41 = AXIS2_PLACEMENT_3D ( 'NONE', #111, #109, #337 ) ;
#42 = DIRECTION ( 'NONE',  ( 0.000000000000000000, 0.000000000000000000, 1.000000000000000000 ) ) ;
#43 = CARTESIAN_POINT ( 'NONE',  ( 6.000000000000000888, 7.347880794884120722E-16, 7.500000000000007105 ) ) ;
#44 = AXIS2_PLACEMENT_3D ( 'NONE', #189, #230, #200 ) ;
#45 = CARTESIAN_POINT ( 'NONE',  ( -2.750000000000000000, 0.000000000000000000, 0.000000000000000000 ) ) ;
#46 = EDGE_LOOP ( 'NONE', ( #125, #104, #53, #122 ) ) ;
#47 = LOCAL_TIME ( 17, 2, 2.000000000000000000, #223 ) ;
#48 = FACE_OUTER_BOUND ( 'NONE', #176, .T. ) ;
#49 = CARTESIAN_POINT ( 'NONE',  ( 0.000000000000000000, 0.000000000000000000, 7.500000000000007105 ) ) ;
#50 = EDGE_CURVE ( 'NONE', #225, #117, #208, .T. ) ;
#51 = LOCAL_TIME ( 17, 2, 2.000000000000000000, #193 ) ;
#52 = CYLINDRICAL_SURFACE ( 'NONE', #315, 2.750000000000000000 ) ;
#53 = ORIENTED_EDGE ( 'NONE', *, *, #179, .F. ) ;
#54 = DIRECTION ( 'NONE',  ( 0.000000000000000000, 0.000000000000000000, -1.000000000000000000 ) ) ;
#55 =( NAMED_UNIT ( * ) PLANE_ANGLE_UNIT ( ) SI_UNIT ( $, .RADIAN. ) );
#56 = VERTEX_POINT ( 'NONE', #334 ) ;
#57 = DIRECTION ( 'NONE',  ( 0.000000000000000000, 0.000000000000000000, 1.000000000000000000 ) ) ;
#58 = LOCAL_TIME ( 17, 2, 2.000000000000000000, #61 ) ;
#59 = DATE_TIME_ROLE ( 'creation_date' ) ;
#60 = DIRECTION ( 'NONE',  ( 0.000000000000000000, 0.000000000000000000, 1.000000000000000000 ) ) ;
#61 = COORDINATED_UNIVERSAL_TIME_OFFSET ( 1, 0, .AHEAD. ) ;
#62 = DIRECTION ( 'NONE',  ( 0.000000000000000000, 0.000000000000000000, -1.000000000000000000 ) ) ;
#63 = TOROIDAL_SURFACE ( 'NONE', #118, 6.500000000000000888, 0.5000000000000000000 ) ;
#64 = ORIENTED_EDGE ( 'NONE', *, *, #229, .F. ) ;
#65 = DESIGN_CONTEXT ( 'detailed design', #28, 'design' ) ;
#66 = EDGE_CURVE ( 'NONE', #73, #127, #306, .T. ) ;
#67 = CARTESIAN_POINT ( 'NONE',  ( 0.000000000000000000, 0.000000000000000000, 0.000000000000000000 ) ) ;
#68 = DIRECTION ( 'NONE',  ( 1.000000000000000000, 0.000000000000000000, 0.000000000000000000 ) ) ;
#69 = APPROVAL_PERSON_ORGANIZATION ( #360, #87, #269 ) ;
#70 = ORIENTED_EDGE ( 'NONE', *, *, #123, .F. ) ;
#71 = PERSON_AND_ORGANIZATION ( #31, #363 ) ;
#72 = DIRECTION ( 'NONE',  ( -0.000000000000000000, -0.000000000000000000, -1.000000000000000000 ) ) ;
#73 = VERTEX_POINT ( 'NONE', #304 ) ;
#74 = APPROVAL_STATUS ( 'not_yet_approved' ) ;
#75 = DIRECTION ( 'NONE',  ( 0.000000000000000000, 0.000000000000000000, 1.000000000000000000 ) ) ;
#76 = ADVANCED_FACE ( 'NONE', ( #39, #102 ), #266, .F. ) ;
#77 = CARTESIAN_POINT ( 'NONE',  ( 0.000000000000000000, 0.000000000000000000, 7.000000000000000000 ) ) ;
#78 = ORIENTED_EDGE ( 'NONE', *, *, #152, .F. ) ;
#79 = CYLINDRICAL_SURFACE ( 'NONE', #120, 10.00000000000000000 ) ;
#80 = CARTESIAN_POINT ( 'NONE',  ( 0.000000000000000000, 0.000000000000000000, 167.0000000000000000 ) ) ;
#81 = EDGE_CURVE ( 'NONE', #128, #131, #126, .T. ) ;
#82 = CARTESIAN_POINT ( 'NONE',  ( 0.000000000000000000, 0.000000000000000000, 7.000000000000000000 ) ) ;
#83 = EDGE_CURVE ( 'NONE', #225, #127, #335, .T. ) ;
#84 = DIRECTION ( 'NONE',  ( 1.000000000000000000, 0.000000000000000000, 0.000000000000000000 ) ) ;
#85 = DIRECTION ( 'NONE',  ( -1.000000000000000000, 0.000000000000000000, 0.000000000000000000 ) ) ;
#86 = CIRCLE ( 'NONE', #134, 6.000000000000000888 ) ;
#87 = APPROVAL ( #191, 'NEURÈENÝ' ) ;
#88 = AXIS2_PLACEMENT_3D ( 'NONE', #77, #195, #309 ) ;
#89 = DIRECTION ( 'NONE',  ( 1.000000000000000000, 0.000000000000000000, 0.000000000000000000 ) ) ;
#90 = ORIENTED_EDGE ( 'NONE', *, *, #284, .F. ) ;
#91 = FACE_OUTER_BOUND ( 'NONE', #114, .T. ) ;
#92 = ADVANCED_FACE ( 'NONE', ( #40 ), #63, .F. ) ;
#93 = DIRECTION ( 'NONE',  ( 0.000000000000000000, 0.000000000000000000, -1.000000000000000000 ) ) ;
#94 = VERTEX_POINT ( 'NONE', #192 ) ;
#95 = CC_DESIGN_PERSON_AND_ORGANIZATION_ASSIGNMENT ( #212, #135, ( #259 ) ) ;
#96 = VECTOR ( 'NONE', #342, 1000.000000000000000 ) ;
#97 = ORIENTED_EDGE ( 'NONE', *, *, #284, .T. ) ;
#98 = PERSON_AND_ORGANIZATION ( #31, #363 ) ;
#99 = CARTESIAN_POINT ( 'NONE',  ( 0.000000000000000000, 0.000000000000000000, 0.000000000000000000 ) ) ;
#100 = PERSON_AND_ORGANIZATION_ROLE ( 'classification_officer' ) ;
#101 = ORIENTED_EDGE ( 'NONE', *, *, #66, .F. ) ;
#102 = FACE_OUTER_BOUND ( 'NONE', #278, .T. ) ;
#103 = VECTOR ( 'NONE', #264, 1000.000000000000000 ) ;
#104 = ORIENTED_EDGE ( 'NONE', *, *, #50, .T. ) ;
#105 = APPROVAL_DATE_TIME ( #354, #323 ) ;
#106 = CARTESIAN_POINT ( 'NONE',  ( 0.000000000000000000, 0.000000000000000000, 7.500000000000007105 ) ) ;
#107 = CARTESIAN_POINT ( 'NONE',  ( 0.000000000000000000, 0.000000000000000000, 0.000000000000000000 ) ) ;
#108 = COORDINATED_UNIVERSAL_TIME_OFFSET ( 1, 0, .AHEAD. ) ;
#109 = DIRECTION ( 'NONE',  ( -0.000000000000000000, -0.000000000000000000, -1.000000000000000000 ) ) ;
#110 = AXIS2_PLACEMENT_3D ( 'NONE', #80, #42, #311 ) ;
#111 = CARTESIAN_POINT ( 'NONE',  ( 0.000000000000000000, 0.000000000000000000, 7.000000000000000000 ) ) ;
#112 = ADVANCED_BREP_SHAPE_REPRESENTATION ( '2cce', ( #324, #268 ), #231 ) ;
#113 = CARTESIAN_POINT ( 'NONE',  ( 10.00000000000000000, 1.224646799147353256E-15, 7.000000000000000000 ) ) ;
#114 = EDGE_LOOP ( 'NONE', ( #101, #70, #190, #217 ) ) ;
#115 = DIRECTION ( 'NONE',  ( 0.000000000000000000, -1.000000000000000000, 0.000000000000000000 ) ) ;
#116 = EDGE_CURVE ( 'NONE', #94, #322, #377, .T. ) ;
#117 = VERTEX_POINT ( 'NONE', #368 ) ;
#118 = AXIS2_PLACEMENT_3D ( 'NONE', #106, #75, #68 ) ;
#119 = LINE ( 'NONE', #145, #33 ) ;
#120 = AXIS2_PLACEMENT_3D ( 'NONE', #340, #312, #197 ) ;
#121 = DIRECTION ( 'NONE',  ( -1.000000000000000000, 0.000000000000000000, 0.000000000000000000 ) ) ;
#122 = ORIENTED_EDGE ( 'NONE', *, *, #364, .F. ) ;
#123 = EDGE_CURVE ( 'NONE', #56, #73, #263, .T. ) ;
#124 = CARTESIAN_POINT ( 'NONE',  ( 0.000000000000000000, 0.000000000000000000, 7.000000000000000000 ) ) ;
#125 = ORIENTED_EDGE ( 'NONE', *, *, #83, .F. ) ;
#126 = CIRCLE ( 'NONE', #235, 2.750000000000000000 ) ;
#127 = VERTEX_POINT ( 'NONE', #43 ) ;
#128 = VERTEX_POINT ( 'NONE', #344 ) ;
#129 = DATE_AND_TIME ( #243, #58 ) ;
#130 = CARTESIAN_POINT ( 'NONE',  ( 0.000000000000000000, 0.000000000000000000, 167.0000000000000000 ) ) ;
#131 = VERTEX_POINT ( 'NONE', #45 ) ;
#132 = FACE_OUTER_BOUND ( 'NONE', #240, .T. ) ;
#133 = ORIENTED_EDGE ( 'NONE', *, *, #338, .T. ) ;
#134 = AXIS2_PLACEMENT_3D ( 'NONE', #49, #227, #367 ) ;
#135 = PERSON_AND_ORGANIZATION_ROLE ( 'creator' ) ;
#136 = ORIENTED_EDGE ( 'NONE', *, *, #252, .F. ) ;
#137 = CALENDAR_DATE ( 2022, 8, 7 ) ;
#138 = CARTESIAN_POINT ( 'NONE',  ( -10.00000000000000000, 0.000000000000000000, 0.000000000000000000 ) ) ;
#139 = VECTOR ( 'NONE', #62, 1000.000000000000000 ) ;
#140 = DIRECTION ( 'NONE',  ( -1.000000000000000000, 0.000000000000000000, 0.000000000000000000 ) ) ;
#141 = CIRCLE ( 'NONE', #18, 2.750000000000000000 ) ;
#142 = APPROVAL ( #143, 'NEURÈENÝ' ) ;
#143 = APPROVAL_STATUS ( 'not_yet_approved' ) ;
#144 = CIRCLE ( 'NONE', #188, 10.00000000000000000 ) ;
#145 = CARTESIAN_POINT ( 'NONE',  ( 2.750000000000000000, 3.367778697655220519E-16, 167.0000000000000000 ) ) ;
#146 = ORIENTED_EDGE ( 'NONE', *, *, #179, .T. ) ;
#147 = CARTESIAN_POINT ( 'NONE',  ( 6.500000000000000888, 0.000000000000000000, 7.500000000000007105 ) ) ;
#148 = ADVANCED_FACE ( 'NONE', ( #13 ), #180, .F. ) ;
#149 = ORIENTED_EDGE ( 'NONE', *, *, #23, .F. ) ;
#150 = LINE ( 'NONE', #113, #241 ) ;
#151 = ORIENTED_EDGE ( 'NONE', *, *, #252, .T. ) ;
#152 = EDGE_CURVE ( 'NONE', #127, #225, #86, .T. ) ;
#153 = DIRECTION ( 'NONE',  ( 1.224646799147353207E-16, 1.000000000000000000, -0.000000000000000000 ) ) ;
#154 = EDGE_LOOP ( 'NONE', ( #136, #326, #204, #16 ) ) ;
#155 = PERSON_AND_ORGANIZATION_ROLE ( 'creator' ) ;
#156 = CIRCLE ( 'NONE', #17, 10.00000000000000000 ) ;
#157 = DIRECTION ( 'NONE',  ( -0.000000000000000000, -0.000000000000000000, -1.000000000000000000 ) ) ;
#158 = ORIENTED_EDGE ( 'NONE', *, *, #333, .T. ) ;
#159 = APPROVAL_ROLE ( '' ) ;
#160 = DIRECTION ( 'NONE',  ( -0.000000000000000000, -0.000000000000000000, -1.000000000000000000 ) ) ;
#161 = ORIENTED_EDGE ( 'NONE', *, *, #183, .F. ) ;
#162 = AXIS2_PLACEMENT_3D ( 'NONE', #5, #60, #302 ) ;
#163 = DIRECTION ( 'NONE',  ( 1.000000000000000000, 0.000000000000000000, -0.000000000000000000 ) ) ;
#164 = CLOSED_SHELL ( 'NONE', ( #279, #148, #20, #210, #165, #287, #76, #350, #36, #92, #378 ) ) ;
#165 = ADVANCED_FACE ( 'NONE', ( #48 ), #79, .T. ) ;
#166 = ORIENTED_EDGE ( 'NONE', *, *, #23, .T. ) ;
#167 = DIRECTION ( 'NONE',  ( -0.000000000000000000, -0.000000000000000000, -1.000000000000000000 ) ) ;
#168 = DATE_AND_TIME ( #137, #294 ) ;
#169 = FACE_OUTER_BOUND ( 'NONE', #154, .T. ) ;
#170 = CIRCLE ( 'NONE', #88, 6.500000000000000888 ) ;
#171 = DIRECTION ( 'NONE',  ( 1.000000000000000000, 0.000000000000000000, 0.000000000000000000 ) ) ;
#172 = DIRECTION ( 'NONE',  ( 1.000000000000000000, 0.000000000000000000, 0.000000000000000000 ) ) ;
#173 = AXIS2_PLACEMENT_3D ( 'NONE', #247, #366, #216 ) ;
#174 = EDGE_LOOP ( 'NONE', ( #161, #271 ) ) ;
#175 = DIRECTION ( 'NONE',  ( 0.000000000000000000, 0.000000000000000000, 1.000000000000000000 ) ) ;
#176 = EDGE_LOOP ( 'NONE', ( #320, #184, #158, #362 ) ) ;
#177 = EDGE_CURVE ( 'NONE', #222, #211, #156, .T. ) ;
#178 = DIRECTION ( 'NONE',  ( 0.000000000000000000, 0.000000000000000000, -1.000000000000000000 ) ) ;
#179 = EDGE_CURVE ( 'NONE', #3, #117, #170, .T. ) ;
#180 = TOROIDAL_SURFACE ( 'NONE', #255, 6.500000000000000888, 0.5000000000000000000 ) ;
#181 = ORIENTED_EDGE ( 'NONE', *, *, #364, .T. ) ;
#182 = CC_DESIGN_APPROVAL ( #142, ( #289 ) ) ;
#183 = EDGE_CURVE ( 'NONE', #322, #94, #196, .T. ) ;
#184 = ORIENTED_EDGE ( 'NONE', *, *, #6, .F. ) ;
#185 = VECTOR ( 'NONE', #160, 1000.000000000000000 ) ;
#186 = PERSON_AND_ORGANIZATION ( #31, #363 ) ;
#187 = DIRECTION ( 'NONE',  ( 1.000000000000000000, 0.000000000000000000, 0.000000000000000000 ) ) ;
#188 = AXIS2_PLACEMENT_3D ( 'NONE', #349, #57, #89 ) ;
#189 = CARTESIAN_POINT ( 'NONE',  ( 0.000000000000000000, 0.000000000000000000, 167.0000000000000000 ) ) ;
#190 = ORIENTED_EDGE ( 'NONE', *, *, #248, .T. ) ;
#191 = APPROVAL_STATUS ( 'not_yet_approved' ) ;
#192 = CARTESIAN_POINT ( 'NONE',  ( 2.750000000000000000, 3.367778697655220519E-16, 167.0000000000000000 ) ) ;
#193 = COORDINATED_UNIVERSAL_TIME_OFFSET ( 1, 0, .AHEAD. ) ;
#194 = DIRECTION ( 'NONE',  ( -1.000000000000000000, 1.224646799147351482E-16, 0.000000000000000000 ) ) ;
#195 = DIRECTION ( 'NONE',  ( -0.000000000000000000, -0.000000000000000000, -1.000000000000000000 ) ) ;
#196 = CIRCLE ( 'NONE', #110, 2.750000000000000000 ) ;
#197 = DIRECTION ( 'NONE',  ( -1.000000000000000000, 0.000000000000000000, 0.000000000000000000 ) ) ;
#198 = CC_DESIGN_DATE_AND_TIME_ASSIGNMENT ( #370, #372, ( #289 ) ) ;
#199 = PERSON_AND_ORGANIZATION ( #31, #363 ) ;
#200 = DIRECTION ( 'NONE',  ( 1.000000000000000000, 0.000000000000000000, 0.000000000000000000 ) ) ;
#201 = DIRECTION ( 'NONE',  ( 0.000000000000000000, 0.000000000000000000, 1.000000000000000000 ) ) ;
#202 = PRODUCT_DEFINITION_FORMATION_WITH_SPECIFIED_SOURCE ( 'LIBOVOLNÝ', '', #359, .NOT_KNOWN. ) ;
#203 = CARTESIAN_POINT ( 'NONE',  ( 0.000000000000000000, 0.000000000000000000, 167.0000000000000000 ) ) ;
#204 = ORIENTED_EDGE ( 'NONE', *, *, #177, .T. ) ;
#205 = DIRECTION ( 'NONE',  ( 0.000000000000000000, 0.000000000000000000, -1.000000000000000000 ) ) ;
#206 = CIRCLE ( 'NONE', #41, 6.500000000000000888 ) ;
#207 = CC_DESIGN_PERSON_AND_ORGANIZATION_ASSIGNMENT ( #98, #155, ( #202 ) ) ;
#208 = CIRCLE ( 'NONE', #258, 0.5000000000000004441 ) ;
#209 =( LENGTH_UNIT ( ) NAMED_UNIT ( * ) SI_UNIT ( .MILLI., .METRE. ) );
#210 = ADVANCED_FACE ( 'NONE', ( #169 ), #281, .T. ) ;
#211 = VERTEX_POINT ( 'NONE', #138 ) ;
#212 = PERSON_AND_ORGANIZATION ( #31, #363 ) ;
#213 = FACE_OUTER_BOUND ( 'NONE', #257, .T. ) ;
#214 = PRODUCT_RELATED_PRODUCT_CATEGORY ( 'detail', '', ( #359 ) ) ;
#215 = APPLICATION_PROTOCOL_DEFINITION ( 'international standard', 'config_control_design', 1994, #313 ) ;
#216 = DIRECTION ( 'NONE',  ( 1.000000000000000000, 0.000000000000000000, 0.000000000000000000 ) ) ;
#217 = ORIENTED_EDGE ( 'NONE', *, *, #83, .T. ) ;
#218 = CALENDAR_DATE ( 2022, 8, 7 ) ;
#219 = CARTESIAN_POINT ( 'NONE',  ( 0.000000000000000000, 0.000000000000000000, 0.000000000000000000 ) ) ;
#220 = CC_DESIGN_APPROVAL ( #87, ( #259 ) ) ;
#221 = ORIENTED_EDGE ( 'NONE', *, *, #260, .T. ) ;
#222 = VERTEX_POINT ( 'NONE', #254 ) ;
#223 = COORDINATED_UNIVERSAL_TIME_OFFSET ( 1, 0, .AHEAD. ) ;
#224 = DIRECTION ( 'NONE',  ( 0.000000000000000000, 0.000000000000000000, 1.000000000000000000 ) ) ;
#225 = VERTEX_POINT ( 'NONE', #256 ) ;
#226 = AXIS2_PLACEMENT_3D ( 'NONE', #82, #201, #171 ) ;
#227 = DIRECTION ( 'NONE',  ( 0.000000000000000000, 0.000000000000000000, 1.000000000000000000 ) ) ;
#228 = DIRECTION ( 'NONE',  ( 1.000000000000000000, 0.000000000000000000, 0.000000000000000000 ) ) ;
#229 = EDGE_CURVE ( 'NONE', #117, #3, #206, .T. ) ;
#230 = DIRECTION ( 'NONE',  ( 0.000000000000000000, 0.000000000000000000, 1.000000000000000000 ) ) ;
#231 =( GEOMETRIC_REPRESENTATION_CONTEXT ( 3 ) GLOBAL_UNCERTAINTY_ASSIGNED_CONTEXT ( ( #328 ) ) GLOBAL_UNIT_ASSIGNED_CONTEXT ( ( #209, #55, #295 ) ) REPRESENTATION_CONTEXT ( 'NONE', 'WORKASPACE' ) );
#232 = DIRECTION ( 'NONE',  ( -1.000000000000000000, 0.000000000000000000, 0.000000000000000000 ) ) ;
#233 = ORIENTED_EDGE ( 'NONE', *, *, #260, .F. ) ;
#234 = FACE_OUTER_BOUND ( 'NONE', #331, .T. ) ;
#235 = AXIS2_PLACEMENT_3D ( 'NONE', #99, #72, #357 ) ;
#236 = CYLINDRICAL_SURFACE ( 'NONE', #12, 2.750000000000000000 ) ;
#237 = CARTESIAN_POINT ( 'NONE',  ( 0.000000000000000000, 0.000000000000000000, 167.0000000000000000 ) ) ;
#238 = AXIS2_PLACEMENT_3D ( 'NONE', #219, #244, #163 ) ;
#239 = CC_DESIGN_DATE_AND_TIME_ASSIGNMENT ( #35, #59, ( #259 ) ) ;
#240 = EDGE_LOOP ( 'NONE', ( #245, #275, #267, #358 ) ) ;
#241 = VECTOR ( 'NONE', #347, 1000.000000000000000 ) ;
#242 = AXIS2_PLACEMENT_3D ( 'NONE', #124, #175, #22 ) ;
#243 = CALENDAR_DATE ( 2022, 8, 7 ) ;
#244 = DIRECTION ( 'NONE',  ( 0.000000000000000000, 0.000000000000000000, 1.000000000000000000 ) ) ;
#245 = ORIENTED_EDGE ( 'NONE', *, *, #338, .F. ) ;
#246 = PERSON_AND_ORGANIZATION ( #31, #363 ) ;
#247 = CARTESIAN_POINT ( 'NONE',  ( 0.000000000000000000, 0.000000000000000000, 7.500000000000007105 ) ) ;
#248 = EDGE_CURVE ( 'NONE', #56, #225, #283, .T. ) ;
#249 = CARTESIAN_POINT ( 'NONE',  ( -2.750000000000000000, 0.000000000000000000, 167.0000000000000000 ) ) ;
#250 = PERSON_AND_ORGANIZATION ( #31, #363 ) ;
#251 = APPROVAL_PERSON_ORGANIZATION ( #199, #142, #10 ) ;
#252 = EDGE_CURVE ( 'NONE', #38, #26, #282, .T. ) ;
#253 = DIRECTION ( 'NONE',  ( 0.000000000000000000, 0.000000000000000000, 1.000000000000000000 ) ) ;
#254 = CARTESIAN_POINT ( 'NONE',  ( 10.00000000000000000, 1.224646799147353256E-15, 0.000000000000000000 ) ) ;
#255 = AXIS2_PLACEMENT_3D ( 'NONE', #15, #253, #228 ) ;
#256 = CARTESIAN_POINT ( 'NONE',  ( -6.000000000000000888, 0.000000000000000000, 7.500000000000007105 ) ) ;
#257 = EDGE_LOOP ( 'NONE', ( #305, #133 ) ) ;
#258 = AXIS2_PLACEMENT_3D ( 'NONE', #27, #153, #194 ) ;
#259 = PRODUCT_DEFINITION ( 'NEZNÁMÝ', '', #202, #65 ) ;
#260 = EDGE_CURVE ( 'NONE', #131, #128, #141, .T. ) ;
#261 = DIRECTION ( 'NONE',  ( 0.000000000000000000, 0.000000000000000000, 1.000000000000000000 ) ) ;
#262 = CC_DESIGN_PERSON_AND_ORGANIZATION_ASSIGNMENT ( #246, #356, ( #202 ) ) ;
#263 = CIRCLE ( 'NONE', #29, 6.000000000000000888 ) ;
#264 = DIRECTION ( 'NONE',  ( -0.000000000000000000, -0.000000000000000000, -1.000000000000000000 ) ) ;
#265 = LINE ( 'NONE', #380, #103 ) ;
#266 = PLANE ( 'NONE',  #238 ) ;
#267 = ORIENTED_EDGE ( 'NONE', *, *, #152, .T. ) ;
#268 = AXIS2_PLACEMENT_3D ( 'NONE', #67, #30, #187 ) ;
#269 = APPROVAL_ROLE ( '' ) ;
#270 = CARTESIAN_POINT ( 'NONE',  ( 6.000000000000000888, 7.347880794884120722E-16, 167.0000000000000000 ) ) ;
#271 = ORIENTED_EDGE ( 'NONE', *, *, #116, .F. ) ;
#272 = ORIENTED_EDGE ( 'NONE', *, *, #6, .T. ) ;
#273 = ORIENTED_EDGE ( 'NONE', *, *, #381, .F. ) ;
#274 = MECHANICAL_CONTEXT ( 'NONE', #313, 'mechanical' ) ;
#275 = ORIENTED_EDGE ( 'NONE', *, *, #66, .T. ) ;
#276 = EDGE_LOOP ( 'NONE', ( #291, #97, #316, #149 ) ) ;
#277 = CC_DESIGN_SECURITY_CLASSIFICATION ( #289, ( #202 ) ) ;
#278 = EDGE_LOOP ( 'NONE', ( #273, #286 ) ) ;
#279 = ADVANCED_FACE ( 'NONE', ( #290 ), #52, .F. ) ;
#280 = APPROVAL_DATE_TIME ( #168, #142 ) ;
#281 = CYLINDRICAL_SURFACE ( 'NONE', #8, 10.00000000000000000 ) ;
#282 = CIRCLE ( 'NONE', #226, 10.00000000000000000 ) ;
#283 = LINE ( 'NONE', #371, #96 ) ;
#284 = EDGE_CURVE ( 'NONE', #94, #128, #119, .T. ) ;
#285 = CARTESIAN_POINT ( 'NONE',  ( 0.000000000000000000, 0.000000000000000000, 0.000000000000000000 ) ) ;
#286 = ORIENTED_EDGE ( 'NONE', *, *, #177, .F. ) ;
#287 = ADVANCED_FACE ( 'NONE', ( #374, #21 ), #292, .T. ) ;
#288 = CARTESIAN_POINT ( 'NONE',  ( 0.000000000000000000, 0.000000000000000000, 167.0000000000000000 ) ) ;
#289 = SECURITY_CLASSIFICATION ( '', '', #329 ) ;
#290 = FACE_OUTER_BOUND ( 'NONE', #276, .T. ) ;
#291 = ORIENTED_EDGE ( 'NONE', *, *, #183, .T. ) ;
#292 = PLANE ( 'NONE',  #242 ) ;
#293 = EDGE_LOOP ( 'NONE', ( #146, #321 ) ) ;
#294 = LOCAL_TIME ( 17, 2, 2.000000000000000000, #108 ) ;
#295 =( NAMED_UNIT ( * ) SI_UNIT ( $, .STERADIAN. ) SOLID_ANGLE_UNIT ( ) );
#296 = CARTESIAN_POINT ( 'NONE',  ( 10.00000000000000000, 1.224646799147353256E-15, 7.000000000000000000 ) ) ;
#297 = CALENDAR_DATE ( 2022, 8, 7 ) ;
#298 = FACE_BOUND ( 'NONE', #174, .T. ) ;
#299 = ORIENTED_EDGE ( 'NONE', *, *, #81, .F. ) ;
#300 = CIRCLE ( 'NONE', #308, 6.000000000000000888 ) ;
#301 = PERSON_AND_ORGANIZATION_ROLE ( 'design_owner' ) ;
#302 = DIRECTION ( 'NONE',  ( 1.000000000000000000, 0.000000000000000000, 0.000000000000000000 ) ) ;
#303 = PRODUCT_DEFINITION_SHAPE ( 'NONE', 'NONE',  #259 ) ;
#304 = CARTESIAN_POINT ( 'NONE',  ( 6.000000000000000888, 7.347880794884120722E-16, 167.0000000000000000 ) ) ;
#305 = ORIENTED_EDGE ( 'NONE', *, *, #123, .T. ) ;
#306 = LINE ( 'NONE', #270, #185 ) ;
#307 = EDGE_CURVE ( 'NONE', #38, #222, #150, .T. ) ;
#308 = AXIS2_PLACEMENT_3D ( 'NONE', #237, #261, #345 ) ;
#309 = DIRECTION ( 'NONE',  ( 1.000000000000000000, 0.000000000000000000, 0.000000000000000000 ) ) ;
#310 = AXIS2_PLACEMENT_3D ( 'NONE', #351, #379, #121 ) ;
#311 = DIRECTION ( 'NONE',  ( 1.000000000000000000, 0.000000000000000000, 0.000000000000000000 ) ) ;
#312 = DIRECTION ( 'NONE',  ( -0.000000000000000000, -0.000000000000000000, -1.000000000000000000 ) ) ;
#313 = APPLICATION_CONTEXT ( 'configuration controlled 3d designs of mechanical parts and assemblies' ) ;
#314 = DIRECTION ( 'NONE',  ( 1.000000000000000000, 0.000000000000000000, 0.000000000000000000 ) ) ;
#315 = AXIS2_PLACEMENT_3D ( 'NONE', #317, #54, #232 ) ;
#316 = ORIENTED_EDGE ( 'NONE', *, *, #81, .T. ) ;
#317 = CARTESIAN_POINT ( 'NONE',  ( 0.000000000000000000, 0.000000000000000000, 167.0000000000000000 ) ) ;
#318 = CALENDAR_DATE ( 2022, 8, 7 ) ;
#319 = DIRECTION ( 'NONE',  ( 0.000000000000000000, 0.000000000000000000, 1.000000000000000000 ) ) ;
#320 = ORIENTED_EDGE ( 'NONE', *, *, #307, .F. ) ;
#321 = ORIENTED_EDGE ( 'NONE', *, *, #229, .T. ) ;
#322 = VERTEX_POINT ( 'NONE', #375 ) ;
#323 = APPROVAL ( #74, 'NEURÈENÝ' ) ;
#324 = MANIFOLD_SOLID_BREP ( 'Odebrat vysunutím3', #164 ) ;
#325 = APPROVAL_DATE_TIME ( #129, #87 ) ;
#326 = ORIENTED_EDGE ( 'NONE', *, *, #307, .T. ) ;
#327 = CIRCLE ( 'NONE', #369, 0.5000000000000004441 ) ;
#328 = UNCERTAINTY_MEASURE_WITH_UNIT (LENGTH_MEASURE( 1.000000000000000082E-05 ), #209, 'distance_accuracy_value', 'NONE');
#329 = SECURITY_CLASSIFICATION_LEVEL ( 'unclassified' ) ;
#330 = CARTESIAN_POINT ( 'NONE',  ( -10.00000000000000000, 0.000000000000000000, 7.000000000000000000 ) ) ;
#331 = EDGE_LOOP ( 'NONE', ( #90, #9, #166, #221 ) ) ;
#332 = APPLICATION_PROTOCOL_DEFINITION ( 'international standard', 'config_control_design', 1994, #28 ) ;
#333 = EDGE_CURVE ( 'NONE', #26, #211, #265, .T. ) ;
#334 = CARTESIAN_POINT ( 'NONE',  ( -6.000000000000000888, 0.000000000000000000, 167.0000000000000000 ) ) ;
#335 = CIRCLE ( 'NONE', #173, 6.000000000000000888 ) ;
#336 = DIRECTION ( 'NONE',  ( 0.000000000000000000, 0.000000000000000000, 1.000000000000000000 ) ) ;
#337 = DIRECTION ( 'NONE',  ( 1.000000000000000000, 0.000000000000000000, 0.000000000000000000 ) ) ;
#338 = EDGE_CURVE ( 'NONE', #73, #56, #300, .T. ) ;
#339 = SHAPE_DEFINITION_REPRESENTATION ( #303, #112 ) ;
#340 = CARTESIAN_POINT ( 'NONE',  ( 0.000000000000000000, 0.000000000000000000, 7.000000000000000000 ) ) ;
#341 = CC_DESIGN_PERSON_AND_ORGANIZATION_ASSIGNMENT ( #250, #301, ( #359 ) ) ;
#342 = DIRECTION ( 'NONE',  ( -0.000000000000000000, -0.000000000000000000, -1.000000000000000000 ) ) ;
#343 = LOCAL_TIME ( 17, 2, 2.000000000000000000, #365 ) ;
#344 = CARTESIAN_POINT ( 'NONE',  ( 2.750000000000000000, 3.367778697655220519E-16, 0.000000000000000000 ) ) ;
#345 = DIRECTION ( 'NONE',  ( 1.000000000000000000, 0.000000000000000000, 0.000000000000000000 ) ) ;
#346 = CC_DESIGN_PERSON_AND_ORGANIZATION_ASSIGNMENT ( #71, #100, ( #289 ) ) ;
#347 = DIRECTION ( 'NONE',  ( -0.000000000000000000, -0.000000000000000000, -1.000000000000000000 ) ) ;
#348 = AXIS2_PLACEMENT_3D ( 'NONE', #130, #319, #361 ) ;
#349 = CARTESIAN_POINT ( 'NONE',  ( 0.000000000000000000, 0.000000000000000000, 0.000000000000000000 ) ) ;
#350 = ADVANCED_FACE ( 'NONE', ( #91 ), #376, .T. ) ;
#351 = CARTESIAN_POINT ( 'NONE',  ( 0.000000000000000000, 0.000000000000000000, 167.0000000000000000 ) ) ;
#352 = CARTESIAN_POINT ( 'NONE',  ( 6.500000000000000888, 0.000000000000000000, 7.000000000000002665 ) ) ;
#353 = CC_DESIGN_APPROVAL ( #323, ( #202 ) ) ;
#354 = DATE_AND_TIME ( #297, #51 ) ;
#355 = CYLINDRICAL_SURFACE ( 'NONE', #1, 6.000000000000000888 ) ;
#356 = PERSON_AND_ORGANIZATION_ROLE ( 'design_supplier' ) ;
#357 = DIRECTION ( 'NONE',  ( 1.000000000000000000, 0.000000000000000000, 0.000000000000000000 ) ) ;
#358 = ORIENTED_EDGE ( 'NONE', *, *, #248, .F. ) ;
#359 = PRODUCT ( '2cce', '2cce', '', ( #274 ) ) ;
#360 = PERSON_AND_ORGANIZATION ( #31, #363 ) ;
#361 = DIRECTION ( 'NONE',  ( 1.000000000000000000, 0.000000000000000000, -0.000000000000000000 ) ) ;
#362 = ORIENTED_EDGE ( 'NONE', *, *, #381, .T. ) ;
#363 = ORGANIZATION ( 'NEURÈENÝ', 'NEURÈENÝ', '' ) ;
#364 = EDGE_CURVE ( 'NONE', #127, #3, #327, .T. ) ;
#365 = COORDINATED_UNIVERSAL_TIME_OFFSET ( 1, 0, .AHEAD. ) ;
#366 = DIRECTION ( 'NONE',  ( 0.000000000000000000, 0.000000000000000000, 1.000000000000000000 ) ) ;
#367 = DIRECTION ( 'NONE',  ( 1.000000000000000000, 0.000000000000000000, 0.000000000000000000 ) ) ;
#368 = CARTESIAN_POINT ( 'NONE',  ( -6.500000000000000888, 7.960204194457796463E-16, 7.000000000000002665 ) ) ;
#369 = AXIS2_PLACEMENT_3D ( 'NONE', #147, #115, #178 ) ;
#370 = DATE_AND_TIME ( #218, #343 ) ;
#371 = CARTESIAN_POINT ( 'NONE',  ( -6.000000000000000888, 0.000000000000000000, 167.0000000000000000 ) ) ;
#372 = DATE_TIME_ROLE ( 'classification_date' ) ;
#373 = CIRCLE ( 'NONE', #162, 10.00000000000000000 ) ;
#374 = FACE_BOUND ( 'NONE', #293, .T. ) ;
#375 = CARTESIAN_POINT ( 'NONE',  ( -2.750000000000000000, 0.000000000000000000, 167.0000000000000000 ) ) ;
#376 = CYLINDRICAL_SURFACE ( 'NONE', #310, 6.000000000000000888 ) ;
#377 = CIRCLE ( 'NONE', #44, 2.750000000000000000 ) ;
#378 = ADVANCED_FACE ( 'NONE', ( #234 ), #236, .F. ) ;
#379 = DIRECTION ( 'NONE',  ( -0.000000000000000000, -0.000000000000000000, -1.000000000000000000 ) ) ;
#380 = CARTESIAN_POINT ( 'NONE',  ( -10.00000000000000000, 0.000000000000000000, 7.000000000000000000 ) ) ;
#381 = EDGE_CURVE ( 'NONE', #211, #222, #144, .T. ) ;
ENDSEC;
END-ISO-10303-21;
