ISO-10303-21;
HEADER;
FILE_DESCRIPTION (( 'STEP AP203' ),
    '1' );
FILE_NAME ('b42c.STEP',
    '2022-07-08T14:46:20',
    ( '' ),
    ( '' ),
    'SwSTEP 2.0',
    'SolidWorks 2019',
    '' );
FILE_SCHEMA (( 'CONFIG_CONTROL_DESIGN' ));
ENDSEC;

DATA;
#1 = DIRECTION ( 'NONE',  ( -1.000000000000000000, 0.000000000000000000, 0.000000000000000000 ) ) ;
#2 = AXIS2_PLACEMENT_3D ( 'NONE', #182, #43, #228 ) ;
#3 = ORIENTED_EDGE ( 'NONE', *, *, #114, .T. ) ;
#4 = ORIENTED_EDGE ( 'NONE', *, *, #374, .F. ) ;
#5 = EDGE_CURVE ( 'NONE', #34, #7, #226, .T. ) ;
#6 = VERTEX_POINT ( 'NONE', #323 ) ;
#7 = VERTEX_POINT ( 'NONE', #121 ) ;
#8 = CYLINDRICAL_SURFACE ( 'NONE', #116, 8.000000000000000000 ) ;
#9 = ORIENTED_EDGE ( 'NONE', *, *, #102, .T. ) ;
#10 = COORDINATED_UNIVERSAL_TIME_OFFSET ( 1, 0, .AHEAD. ) ;
#11 = ORIENTED_EDGE ( 'NONE', *, *, #298, .T. ) ;
#12 = CLOSED_SHELL ( 'NONE', ( #252, #23, #333, #339, #352, #285, #265, #119, #235, #326, #98 ) ) ;
#13 = PERSON_AND_ORGANIZATION_ROLE ( 'creator' ) ;
#14 = EDGE_LOOP ( 'NONE', ( #150, #58 ) ) ;
#15 = CIRCLE ( 'NONE', #223, 3.250000000000000444 ) ;
#16 = CARTESIAN_POINT ( 'NONE',  ( 5.000000000000000000, 6.123233995736766282E-16, 230.0000000000000000 ) ) ;
#17 = DIRECTION ( 'NONE',  ( -0.000000000000000000, -0.000000000000000000, -1.000000000000000000 ) ) ;
#18 = DATE_TIME_ROLE ( 'classification_date' ) ;
#19 = CARTESIAN_POINT ( 'NONE',  ( 3.250000000000000444, 3.980102097228898231E-16, 0.000000000000000000 ) ) ;
#20 = VECTOR ( 'NONE', #225, 1000.000000000000000 ) ;
#21 = DIRECTION ( 'NONE',  ( 0.000000000000000000, 0.000000000000000000, -1.000000000000000000 ) ) ;
#22 = PRODUCT_DEFINITION_FORMATION_WITH_SPECIFIED_SOURCE ( 'LIBOVOLNÝ', '', #195, .NOT_KNOWN. ) ;
#23 = ADVANCED_FACE ( 'NONE', ( #245 ), #53, .F. ) ;
#24 = DIRECTION ( 'NONE',  ( 1.000000000000000000, 0.000000000000000000, 0.000000000000000000 ) ) ;
#25 = CARTESIAN_POINT ( 'NONE',  ( 0.000000000000000000, 0.000000000000000000, 5.500000000000005329 ) ) ;
#26 = DIRECTION ( 'NONE',  ( 0.000000000000000000, 0.000000000000000000, 1.000000000000000000 ) ) ;
#27 = AXIS2_PLACEMENT_3D ( 'NONE', #284, #131, #376 ) ;
#28 = EDGE_LOOP ( 'NONE', ( #331, #319 ) ) ;
#29 = EDGE_LOOP ( 'NONE', ( #313, #380, #272, #71 ) ) ;
#30 = AXIS2_PLACEMENT_3D ( 'NONE', #133, #106, #257 ) ;
#31 = CC_DESIGN_APPROVAL ( #146, ( #358 ) ) ;
#32 = EDGE_CURVE ( 'NONE', #270, #268, #233, .T. ) ;
#33 = VECTOR ( 'NONE', #73, 1000.000000000000000 ) ;
#34 = VERTEX_POINT ( 'NONE', #177 ) ;
#35 = FACE_OUTER_BOUND ( 'NONE', #115, .T. ) ;
#36 = ORIENTED_EDGE ( 'NONE', *, *, #230, .F. ) ;
#37 = AXIS2_PLACEMENT_3D ( 'NONE', #308, #44, #162 ) ;
#38 = PERSON_AND_ORGANIZATION ( #141, #50 ) ;
#39 = CARTESIAN_POINT ( 'NONE',  ( 3.250000000000000444, 3.980102097228898231E-16, 230.0000000000000000 ) ) ;
#40 = CALENDAR_DATE ( 2022, 8, 7 ) ;
#41 = CARTESIAN_POINT ( 'NONE',  ( 0.000000000000000000, 0.000000000000000000, 230.0000000000000000 ) ) ;
#42 = PERSON_AND_ORGANIZATION ( #141, #50 ) ;
#43 = DIRECTION ( 'NONE',  ( -0.000000000000000000, -0.000000000000000000, -1.000000000000000000 ) ) ;
#44 = DIRECTION ( 'NONE',  ( 0.000000000000000000, -1.000000000000000000, 0.000000000000000000 ) ) ;
#45 = DIRECTION ( 'NONE',  ( 0.000000000000000000, 0.000000000000000000, 1.000000000000000000 ) ) ;
#46 = DIRECTION ( 'NONE',  ( 1.000000000000000000, 0.000000000000000000, 0.000000000000000000 ) ) ;
#47 = CYLINDRICAL_SURFACE ( 'NONE', #309, 3.250000000000000444 ) ;
#48 = CIRCLE ( 'NONE', #81, 8.000000000000000000 ) ;
#49 = DIRECTION ( 'NONE',  ( -0.000000000000000000, -0.000000000000000000, -1.000000000000000000 ) ) ;
#50 = ORGANIZATION ( 'NEURÈENÝ', 'NEURÈENÝ', '' ) ;
#51 = ADVANCED_BREP_SHAPE_REPRESENTATION ( 'b42c', ( #193, #378 ), #144 ) ;
#52 = CARTESIAN_POINT ( 'NONE',  ( 0.000000000000000000, 0.000000000000000000, 230.0000000000000000 ) ) ;
#53 = TOROIDAL_SURFACE ( 'NONE', #60, 5.500000000000000000, 0.5000000000000000000 ) ;
#54 = CIRCLE ( 'NONE', #346, 8.000000000000000000 ) ;
#55 = CARTESIAN_POINT ( 'NONE',  ( -3.250000000000000444, 0.000000000000000000, 0.000000000000000000 ) ) ;
#56 = ORIENTED_EDGE ( 'NONE', *, *, #111, .F. ) ;
#57 = CIRCLE ( 'NONE', #261, 5.000000000000000000 ) ;
#58 = ORIENTED_EDGE ( 'NONE', *, *, #168, .T. ) ;
#59 = ORIENTED_EDGE ( 'NONE', *, *, #102, .F. ) ;
#60 = AXIS2_PLACEMENT_3D ( 'NONE', #66, #156, #210 ) ;
#61 = EDGE_LOOP ( 'NONE', ( #4, #59, #87, #113 ) ) ;
#62 = CC_DESIGN_APPROVAL ( #190, ( #22 ) ) ;
#63 = CC_DESIGN_APPROVAL ( #249, ( #158 ) ) ;
#64 = ORIENTED_EDGE ( 'NONE', *, *, #188, .F. ) ;
#65 = APPLICATION_PROTOCOL_DEFINITION ( 'international standard', 'config_control_design', 1994, #314 ) ;
#66 = CARTESIAN_POINT ( 'NONE',  ( 0.000000000000000000, 0.000000000000000000, 5.500000000000005329 ) ) ;
#67 = DATE_TIME_ROLE ( 'creation_date' ) ;
#68 = ORIENTED_EDGE ( 'NONE', *, *, #204, .F. ) ;
#69 = VECTOR ( 'NONE', #17, 1000.000000000000000 ) ;
#70 = PERSON_AND_ORGANIZATION ( #141, #50 ) ;
#71 = ORIENTED_EDGE ( 'NONE', *, *, #5, .T. ) ;
#72 = CALENDAR_DATE ( 2022, 8, 7 ) ;
#73 = DIRECTION ( 'NONE',  ( -0.000000000000000000, -0.000000000000000000, -1.000000000000000000 ) ) ;
#74 = CALENDAR_DATE ( 2022, 8, 7 ) ;
#75 = CARTESIAN_POINT ( 'NONE',  ( 0.000000000000000000, 0.000000000000000000, 230.0000000000000000 ) ) ;
#76 = DIRECTION ( 'NONE',  ( 1.000000000000000000, 0.000000000000000000, 0.000000000000000000 ) ) ;
#77 = VECTOR ( 'NONE', #377, 1000.000000000000000 ) ;
#78 = CARTESIAN_POINT ( 'NONE',  ( -8.000000000000000000, 0.000000000000000000, 0.000000000000000000 ) ) ;
#79 = CARTESIAN_POINT ( 'NONE',  ( 0.000000000000000000, 0.000000000000000000, 5.000000000000000000 ) ) ;
#80 = DIRECTION ( 'NONE',  ( -1.000000000000000000, 0.000000000000000000, 0.000000000000000000 ) ) ;
#81 = AXIS2_PLACEMENT_3D ( 'NONE', #263, #166, #312 ) ;
#82 = CARTESIAN_POINT ( 'NONE',  ( 0.000000000000000000, 0.000000000000000000, 230.0000000000000000 ) ) ;
#83 = DIRECTION ( 'NONE',  ( -0.000000000000000000, -0.000000000000000000, -1.000000000000000000 ) ) ;
#84 = AXIS2_PLACEMENT_3D ( 'NONE', #103, #334, #46 ) ;
#85 = CIRCLE ( 'NONE', #27, 8.000000000000000000 ) ;
#86 = AXIS2_PLACEMENT_3D ( 'NONE', #244, #359, #205 ) ;
#87 = ORIENTED_EDGE ( 'NONE', *, *, #255, .T. ) ;
#88 = CARTESIAN_POINT ( 'NONE',  ( 3.250000000000000444, 3.980102097228898231E-16, 230.0000000000000000 ) ) ;
#89 = VERTEX_POINT ( 'NONE', #39 ) ;
#90 = AXIS2_PLACEMENT_3D ( 'NONE', #260, #356, #379 ) ;
#91 = APPROVAL_PERSON_ORGANIZATION ( #38, #190, #211 ) ;
#92 = DIRECTION ( 'NONE',  ( 1.000000000000000000, 0.000000000000000000, 0.000000000000000000 ) ) ;
#93 = ORIENTED_EDGE ( 'NONE', *, *, #184, .T. ) ;
#94 = FACE_OUTER_BOUND ( 'NONE', #61, .T. ) ;
#95 = FACE_OUTER_BOUND ( 'NONE', #357, .T. ) ;
#96 = APPROVAL_STATUS ( 'not_yet_approved' ) ;
#97 = LINE ( 'NONE', #216, #33 ) ;
#98 = ADVANCED_FACE ( 'NONE', ( #95 ), #354, .F. ) ;
#99 = CARTESIAN_POINT ( 'NONE',  ( 8.000000000000000000, 9.797174393178825657E-16, 5.000000000000000000 ) ) ;
#100 = AXIS2_PLACEMENT_3D ( 'NONE', #41, #153, #300 ) ;
#101 = PERSON_AND_ORGANIZATION ( #141, #50 ) ;
#102 = EDGE_CURVE ( 'NONE', #7, #34, #311, .T. ) ;
#103 = CARTESIAN_POINT ( 'NONE',  ( 0.000000000000000000, 0.000000000000000000, 230.0000000000000000 ) ) ;
#104 = AXIS2_PLACEMENT_3D ( 'NONE', #138, #336, #105 ) ;
#105 = DIRECTION ( 'NONE',  ( 1.000000000000000000, 0.000000000000000000, -0.000000000000000000 ) ) ;
#106 = DIRECTION ( 'NONE',  ( 0.000000000000000000, 0.000000000000000000, 1.000000000000000000 ) ) ;
#107 = CC_DESIGN_PERSON_AND_ORGANIZATION_ASSIGNMENT ( #70, #299, ( #158 ) ) ;
#108 = FACE_OUTER_BOUND ( 'NONE', #29, .T. ) ;
#109 = CIRCLE ( 'NONE', #135, 5.500000000000000000 ) ;
#110 = CARTESIAN_POINT ( 'NONE',  ( 0.000000000000000000, 0.000000000000000000, 0.000000000000000000 ) ) ;
#111 = EDGE_CURVE ( 'NONE', #243, #268, #97, .T. ) ;
#112 = CARTESIAN_POINT ( 'NONE',  ( 0.000000000000000000, 0.000000000000000000, 0.000000000000000000 ) ) ;
#113 = ORIENTED_EDGE ( 'NONE', *, *, #114, .F. ) ;
#114 = EDGE_CURVE ( 'NONE', #6, #316, #174, .T. ) ;
#115 = EDGE_LOOP ( 'NONE', ( #264, #266, #172, #128 ) ) ;
#116 = AXIS2_PLACEMENT_3D ( 'NONE', #345, #169, #238 ) ;
#117 = ORIENTED_EDGE ( 'NONE', *, *, #230, .T. ) ;
#118 = ORIENTED_EDGE ( 'NONE', *, *, #318, .F. ) ;
#119 = ADVANCED_FACE ( 'NONE', ( #108 ), #194, .T. ) ;
#120 = DIRECTION ( 'NONE',  ( 1.000000000000000000, 0.000000000000000000, 0.000000000000000000 ) ) ;
#121 = CARTESIAN_POINT ( 'NONE',  ( 5.000000000000000000, 6.123233995736766282E-16, 5.500000000000005329 ) ) ;
#122 = CC_DESIGN_PERSON_AND_ORGANIZATION_ASSIGNMENT ( #127, #278, ( #195 ) ) ;
#123 = CYLINDRICAL_SURFACE ( 'NONE', #164, 5.000000000000000000 ) ;
#124 = ORIENTED_EDGE ( 'NONE', *, *, #298, .F. ) ;
#125 = DATE_AND_TIME ( #72, #365 ) ;
#126 = EDGE_LOOP ( 'NONE', ( #202, #203 ) ) ;
#127 = PERSON_AND_ORGANIZATION ( #141, #50 ) ;
#128 = ORIENTED_EDGE ( 'NONE', *, *, #342, .T. ) ;
#129 = CIRCLE ( 'NONE', #341, 3.250000000000000444 ) ;
#130 = PERSON_AND_ORGANIZATION ( #141, #50 ) ;
#131 = DIRECTION ( 'NONE',  ( 0.000000000000000000, 0.000000000000000000, 1.000000000000000000 ) ) ;
#132 = DATE_AND_TIME ( #40, #355 ) ;
#133 = CARTESIAN_POINT ( 'NONE',  ( 0.000000000000000000, 0.000000000000000000, 230.0000000000000000 ) ) ;
#134 = FACE_BOUND ( 'NONE', #143, .T. ) ;
#135 = AXIS2_PLACEMENT_3D ( 'NONE', #340, #185, #259 ) ;
#136 = LOCAL_TIME ( 16, 46, 20.00000000000000000, #327 ) ;
#137 = FACE_OUTER_BOUND ( 'NONE', #239, .T. ) ;
#138 = CARTESIAN_POINT ( 'NONE',  ( 0.000000000000000000, 0.000000000000000000, 0.000000000000000000 ) ) ;
#139 = DIRECTION ( 'NONE',  ( -0.000000000000000000, -0.000000000000000000, -1.000000000000000000 ) ) ;
#140 = LINE ( 'NONE', #88, #77 ) ;
#141 = PERSON ( 'NEURÈENÝ', 'NEURÈENÝ', 'NEURÈENÝ', ('NEURÈENÝ'), ('NEURÈENÝ'), ('NEURÈENÝ') ) ;
#142 = ORIENTED_EDGE ( 'NONE', *, *, #347, .T. ) ;
#143 = EDGE_LOOP ( 'NONE', ( #208, #3 ) ) ;
#144 =( GEOMETRIC_REPRESENTATION_CONTEXT ( 3 ) GLOBAL_UNCERTAINTY_ASSIGNED_CONTEXT ( ( #306 ) ) GLOBAL_UNIT_ASSIGNED_CONTEXT ( ( #290, #286, #322 ) ) REPRESENTATION_CONTEXT ( 'NONE', 'WORKASPACE' ) );
#145 = ORIENTED_EDGE ( 'NONE', *, *, #220, .T. ) ;
#146 = APPROVAL ( #187, 'NEURÈENÝ' ) ;
#147 = ORIENTED_EDGE ( 'NONE', *, *, #347, .F. ) ;
#148 = DIRECTION ( 'NONE',  ( 1.000000000000000000, 0.000000000000000000, 0.000000000000000000 ) ) ;
#149 = DIRECTION ( 'NONE',  ( 1.000000000000000000, 0.000000000000000000, 0.000000000000000000 ) ) ;
#150 = ORIENTED_EDGE ( 'NONE', *, *, #240, .T. ) ;
#151 = AXIS2_PLACEMENT_3D ( 'NONE', #173, #26, #343 ) ;
#152 = APPROVAL_ROLE ( '' ) ;
#153 = DIRECTION ( 'NONE',  ( 0.000000000000000000, 0.000000000000000000, -1.000000000000000000 ) ) ;
#154 = CALENDAR_DATE ( 2022, 8, 7 ) ;
#155 = EDGE_LOOP ( 'NONE', ( #349, #325, #64, #289 ) ) ;
#156 = DIRECTION ( 'NONE',  ( 0.000000000000000000, 0.000000000000000000, 1.000000000000000000 ) ) ;
#157 = VECTOR ( 'NONE', #191, 1000.000000000000000 ) ;
#158 = SECURITY_CLASSIFICATION ( '', '', #176 ) ;
#159 = CARTESIAN_POINT ( 'NONE',  ( 0.000000000000000000, 0.000000000000000000, 230.0000000000000000 ) ) ;
#160 = PERSON_AND_ORGANIZATION_ROLE ( 'creator' ) ;
#161 = LINE ( 'NONE', #282, #20 ) ;
#162 = DIRECTION ( 'NONE',  ( 0.000000000000000000, 0.000000000000000000, -1.000000000000000000 ) ) ;
#163 = EDGE_CURVE ( 'NONE', #243, #348, #54, .T. ) ;
#164 = AXIS2_PLACEMENT_3D ( 'NONE', #209, #83, #315 ) ;
#165 = DIRECTION ( 'NONE',  ( 0.000000000000000000, 0.000000000000000000, 1.000000000000000000 ) ) ;
#166 = DIRECTION ( 'NONE',  ( 0.000000000000000000, 0.000000000000000000, 1.000000000000000000 ) ) ;
#167 = AXIS2_PLACEMENT_3D ( 'NONE', #360, #250, #148 ) ;
#168 = EDGE_CURVE ( 'NONE', #294, #206, #292, .T. ) ;
#169 = DIRECTION ( 'NONE',  ( -0.000000000000000000, -0.000000000000000000, -1.000000000000000000 ) ) ;
#170 = CC_DESIGN_DATE_AND_TIME_ASSIGNMENT ( #217, #67, ( #358 ) ) ;
#171 = DIRECTION ( 'NONE',  ( -0.000000000000000000, -0.000000000000000000, -1.000000000000000000 ) ) ;
#172 = ORIENTED_EDGE ( 'NONE', *, *, #111, .T. ) ;
#173 = CARTESIAN_POINT ( 'NONE',  ( 0.000000000000000000, 0.000000000000000000, 230.0000000000000000 ) ) ;
#174 = CIRCLE ( 'NONE', #2, 5.500000000000000000 ) ;
#175 = DIRECTION ( 'NONE',  ( 0.000000000000000000, 0.000000000000000000, 1.000000000000000000 ) ) ;
#176 = SECURITY_CLASSIFICATION_LEVEL ( 'unclassified' ) ;
#177 = CARTESIAN_POINT ( 'NONE',  ( -5.000000000000000000, 0.000000000000000000, 5.500000000000005329 ) ) ;
#178 = TOROIDAL_SURFACE ( 'NONE', #364, 5.500000000000000000, 0.5000000000000000000 ) ;
#179 = CALENDAR_DATE ( 2022, 8, 7 ) ;
#180 = ORIENTED_EDGE ( 'NONE', *, *, #168, .F. ) ;
#181 = SHAPE_DEFINITION_REPRESENTATION ( #258, #51 ) ;
#182 = CARTESIAN_POINT ( 'NONE',  ( 0.000000000000000000, 0.000000000000000000, 5.000000000000000000 ) ) ;
#183 = APPROVAL_STATUS ( 'not_yet_approved' ) ;
#184 = EDGE_CURVE ( 'NONE', #294, #7, #227, .T. ) ;
#185 = DIRECTION ( 'NONE',  ( -0.000000000000000000, -0.000000000000000000, -1.000000000000000000 ) ) ;
#186 = VECTOR ( 'NONE', #310, 1000.000000000000000 ) ;
#187 = APPROVAL_STATUS ( 'not_yet_approved' ) ;
#188 = EDGE_CURVE ( 'NONE', #316, #6, #109, .T. ) ;
#189 = CARTESIAN_POINT ( 'NONE',  ( 8.000000000000000000, 9.797174393178825657E-16, 0.000000000000000000 ) ) ;
#190 = APPROVAL ( #183, 'NEURÈENÝ' ) ;
#191 = DIRECTION ( 'NONE',  ( -0.000000000000000000, -0.000000000000000000, -1.000000000000000000 ) ) ;
#192 = DESIGN_CONTEXT ( 'detailed design', #335, 'design' ) ;
#193 = MANIFOLD_SOLID_BREP ( 'Odebrat vysunutím3', #12 ) ;
#194 = CYLINDRICAL_SURFACE ( 'NONE', #218, 5.000000000000000000 ) ;
#195 = PRODUCT ( 'b42c', 'b42c', '', ( #361 ) ) ;
#196 = AXIS2_PLACEMENT_3D ( 'NONE', #241, #269, #1 ) ;
#197 = CARTESIAN_POINT ( 'NONE',  ( -3.250000000000000444, 0.000000000000000000, 230.0000000000000000 ) ) ;
#198 = EDGE_CURVE ( 'NONE', #348, #270, #280, .T. ) ;
#199 = CYLINDRICAL_SURFACE ( 'NONE', #196, 8.000000000000000000 ) ;
#200 = ORIENTED_EDGE ( 'NONE', *, *, #198, .T. ) ;
#201 = CC_DESIGN_SECURITY_CLASSIFICATION ( #158, ( #22 ) ) ;
#202 = ORIENTED_EDGE ( 'NONE', *, *, #163, .T. ) ;
#203 = ORIENTED_EDGE ( 'NONE', *, *, #204, .T. ) ;
#204 = EDGE_CURVE ( 'NONE', #348, #243, #85, .T. ) ;
#205 = DIRECTION ( 'NONE',  ( -1.000000000000000000, 1.224646799147351482E-16, 0.000000000000000000 ) ) ;
#206 = VERTEX_POINT ( 'NONE', #283 ) ;
#207 = CARTESIAN_POINT ( 'NONE',  ( 5.500000000000000000, 0.000000000000000000, 5.000000000000002665 ) ) ;
#208 = ORIENTED_EDGE ( 'NONE', *, *, #188, .T. ) ;
#209 = CARTESIAN_POINT ( 'NONE',  ( 0.000000000000000000, 0.000000000000000000, 230.0000000000000000 ) ) ;
#210 = DIRECTION ( 'NONE',  ( 1.000000000000000000, 0.000000000000000000, 0.000000000000000000 ) ) ;
#211 = APPROVAL_ROLE ( '' ) ;
#212 = EDGE_LOOP ( 'NONE', ( #237, #118 ) ) ;
#213 = AXIS2_PLACEMENT_3D ( 'NONE', #112, #139, #92 ) ;
#214 = CIRCLE ( 'NONE', #86, 0.5000000000000004441 ) ;
#215 = PERSON_AND_ORGANIZATION ( #141, #50 ) ;
#216 = CARTESIAN_POINT ( 'NONE',  ( -8.000000000000000000, 0.000000000000000000, 5.000000000000000000 ) ) ;
#217 = DATE_AND_TIME ( #179, #234 ) ;
#218 = AXIS2_PLACEMENT_3D ( 'NONE', #159, #49, #337 ) ;
#219 = CARTESIAN_POINT ( 'NONE',  ( -8.000000000000000000, 0.000000000000000000, 5.000000000000000000 ) ) ;
#220 = EDGE_CURVE ( 'NONE', #236, #89, #15, .T. ) ;
#221 = APPROVAL_ROLE ( '' ) ;
#222 = FACE_OUTER_BOUND ( 'NONE', #28, .T. ) ;
#223 = AXIS2_PLACEMENT_3D ( 'NONE', #82, #256, #24 ) ;
#224 = APPROVAL_DATE_TIME ( #303, #190 ) ;
#225 = DIRECTION ( 'NONE',  ( -0.000000000000000000, -0.000000000000000000, -1.000000000000000000 ) ) ;
#226 = CIRCLE ( 'NONE', #167, 5.000000000000000000 ) ;
#227 = LINE ( 'NONE', #16, #69 ) ;
#228 = DIRECTION ( 'NONE',  ( 1.000000000000000000, 0.000000000000000000, 0.000000000000000000 ) ) ;
#229 = LOCAL_TIME ( 16, 46, 20.00000000000000000, #10 ) ;
#230 = EDGE_CURVE ( 'NONE', #236, #351, #251, .T. ) ;
#231 = FACE_OUTER_BOUND ( 'NONE', #301, .T. ) ;
#232 = ORIENTED_EDGE ( 'NONE', *, *, #288, .F. ) ;
#233 = CIRCLE ( 'NONE', #332, 8.000000000000000000 ) ;
#234 = LOCAL_TIME ( 16, 46, 20.00000000000000000, #330 ) ;
#235 = ADVANCED_FACE ( 'NONE', ( #307, #338 ), #375, .T. ) ;
#236 = VERTEX_POINT ( 'NONE', #302 ) ;
#237 = ORIENTED_EDGE ( 'NONE', *, *, #220, .F. ) ;
#238 = DIRECTION ( 'NONE',  ( -1.000000000000000000, 0.000000000000000000, 0.000000000000000000 ) ) ;
#239 = EDGE_LOOP ( 'NONE', ( #145, #11, #142, #36 ) ) ;
#240 = EDGE_CURVE ( 'NONE', #206, #294, #57, .T. ) ;
#241 = CARTESIAN_POINT ( 'NONE',  ( 0.000000000000000000, 0.000000000000000000, 5.000000000000000000 ) ) ;
#242 = CIRCLE ( 'NONE', #213, 3.250000000000000444 ) ;
#243 = VERTEX_POINT ( 'NONE', #219 ) ;
#244 = CARTESIAN_POINT ( 'NONE',  ( -5.500000000000000000, 6.735557395310442023E-16, 5.500000000000005329 ) ) ;
#245 = FACE_OUTER_BOUND ( 'NONE', #155, .T. ) ;
#246 = APPROVAL_DATE_TIME ( #125, #249 ) ;
#247 = DIRECTION ( 'NONE',  ( 0.000000000000000000, 0.000000000000000000, 1.000000000000000000 ) ) ;
#248 = COORDINATED_UNIVERSAL_TIME_OFFSET ( 1, 0, .AHEAD. ) ;
#249 = APPROVAL ( #96, 'NEURÈENÝ' ) ;
#250 = DIRECTION ( 'NONE',  ( 0.000000000000000000, 0.000000000000000000, 1.000000000000000000 ) ) ;
#251 = LINE ( 'NONE', #197, #186 ) ;
#252 = ADVANCED_FACE ( 'NONE', ( #137 ), #47, .F. ) ;
#253 = COORDINATED_UNIVERSAL_TIME_OFFSET ( 1, 0, .AHEAD. ) ;
#254 = FACE_BOUND ( 'NONE', #366, .T. ) ;
#255 = EDGE_CURVE ( 'NONE', #7, #316, #328, .T. ) ;
#256 = DIRECTION ( 'NONE',  ( 0.000000000000000000, 0.000000000000000000, 1.000000000000000000 ) ) ;
#257 = DIRECTION ( 'NONE',  ( 1.000000000000000000, 0.000000000000000000, -0.000000000000000000 ) ) ;
#258 = PRODUCT_DEFINITION_SHAPE ( 'NONE', 'NONE',  #358 ) ;
#259 = DIRECTION ( 'NONE',  ( 1.000000000000000000, 0.000000000000000000, 0.000000000000000000 ) ) ;
#260 = CARTESIAN_POINT ( 'NONE',  ( 0.000000000000000000, 0.000000000000000000, 5.000000000000000000 ) ) ;
#261 = AXIS2_PLACEMENT_3D ( 'NONE', #52, #305, #368 ) ;
#262 = APPROVAL_PERSON_ORGANIZATION ( #130, #146, #221 ) ;
#263 = CARTESIAN_POINT ( 'NONE',  ( 0.000000000000000000, 0.000000000000000000, 0.000000000000000000 ) ) ;
#264 = ORIENTED_EDGE ( 'NONE', *, *, #198, .F. ) ;
#265 = ADVANCED_FACE ( 'NONE', ( #254, #222 ), #370, .F. ) ;
#266 = ORIENTED_EDGE ( 'NONE', *, *, #163, .F. ) ;
#267 = APPROVAL_PERSON_ORGANIZATION ( #101, #249, #152 ) ;
#268 = VERTEX_POINT ( 'NONE', #78 ) ;
#269 = DIRECTION ( 'NONE',  ( -0.000000000000000000, -0.000000000000000000, -1.000000000000000000 ) ) ;
#270 = VERTEX_POINT ( 'NONE', #189 ) ;
#271 = CARTESIAN_POINT ( 'NONE',  ( 8.000000000000000000, 9.797174393178825657E-16, 5.000000000000000000 ) ) ;
#272 = ORIENTED_EDGE ( 'NONE', *, *, #276, .T. ) ;
#273 = APPLICATION_PROTOCOL_DEFINITION ( 'international standard', 'config_control_design', 1994, #335 ) ;
#274 = CARTESIAN_POINT ( 'NONE',  ( 0.000000000000000000, 0.000000000000000000, 5.500000000000005329 ) ) ;
#275 = APPROVAL_DATE_TIME ( #132, #146 ) ;
#276 = EDGE_CURVE ( 'NONE', #206, #34, #161, .T. ) ;
#277 = VERTEX_POINT ( 'NONE', #19 ) ;
#278 = PERSON_AND_ORGANIZATION_ROLE ( 'design_owner' ) ;
#279 = DIRECTION ( 'NONE',  ( 1.000000000000000000, 0.000000000000000000, 0.000000000000000000 ) ) ;
#280 = LINE ( 'NONE', #99, #157 ) ;
#281 = DATE_AND_TIME ( #74, #229 ) ;
#282 = CARTESIAN_POINT ( 'NONE',  ( -5.000000000000000000, 0.000000000000000000, 230.0000000000000000 ) ) ;
#283 = CARTESIAN_POINT ( 'NONE',  ( -5.000000000000000000, 0.000000000000000000, 230.0000000000000000 ) ) ;
#284 = CARTESIAN_POINT ( 'NONE',  ( 0.000000000000000000, 0.000000000000000000, 5.000000000000000000 ) ) ;
#285 = ADVANCED_FACE ( 'NONE', ( #134, #372 ), #287, .T. ) ;
#286 =( NAMED_UNIT ( * ) PLANE_ANGLE_UNIT ( ) SI_UNIT ( $, .RADIAN. ) );
#287 = PLANE ( 'NONE',  #90 ) ;
#288 = EDGE_CURVE ( 'NONE', #351, #277, #242, .T. ) ;
#289 = ORIENTED_EDGE ( 'NONE', *, *, #255, .F. ) ;
#290 =( LENGTH_UNIT ( ) NAMED_UNIT ( * ) SI_UNIT ( .MILLI., .METRE. ) );
#291 = EDGE_LOOP ( 'NONE', ( #68, #200, #321, #56 ) ) ;
#292 = CIRCLE ( 'NONE', #84, 5.000000000000000000 ) ;
#293 = DIRECTION ( 'NONE',  ( 0.000000000000000000, 0.000000000000000000, 1.000000000000000000 ) ) ;
#294 = VERTEX_POINT ( 'NONE', #353 ) ;
#295 = DIRECTION ( 'NONE',  ( 1.000000000000000000, 0.000000000000000000, 0.000000000000000000 ) ) ;
#296 = ORIENTED_EDGE ( 'NONE', *, *, #318, .T. ) ;
#297 = CC_DESIGN_DATE_AND_TIME_ASSIGNMENT ( #281, #18, ( #158 ) ) ;
#298 = EDGE_CURVE ( 'NONE', #89, #277, #140, .T. ) ;
#299 = PERSON_AND_ORGANIZATION_ROLE ( 'classification_officer' ) ;
#300 = DIRECTION ( 'NONE',  ( -1.000000000000000000, 0.000000000000000000, 0.000000000000000000 ) ) ;
#301 = EDGE_LOOP ( 'NONE', ( #180, #93, #9, #320 ) ) ;
#302 = CARTESIAN_POINT ( 'NONE',  ( -3.250000000000000444, 0.000000000000000000, 230.0000000000000000 ) ) ;
#303 = DATE_AND_TIME ( #154, #136 ) ;
#304 = CC_DESIGN_PERSON_AND_ORGANIZATION_ASSIGNMENT ( #363, #367, ( #22 ) ) ;
#305 = DIRECTION ( 'NONE',  ( 0.000000000000000000, 0.000000000000000000, 1.000000000000000000 ) ) ;
#306 = UNCERTAINTY_MEASURE_WITH_UNIT (LENGTH_MEASURE( 1.000000000000000082E-05 ), #290, 'distance_accuracy_value', 'NONE');
#307 = FACE_BOUND ( 'NONE', #212, .T. ) ;
#308 = CARTESIAN_POINT ( 'NONE',  ( 5.500000000000000000, 0.000000000000000000, 5.500000000000005329 ) ) ;
#309 = AXIS2_PLACEMENT_3D ( 'NONE', #75, #21, #80 ) ;
#310 = DIRECTION ( 'NONE',  ( 0.000000000000000000, 0.000000000000000000, -1.000000000000000000 ) ) ;
#311 = CIRCLE ( 'NONE', #369, 5.000000000000000000 ) ;
#312 = DIRECTION ( 'NONE',  ( 1.000000000000000000, 0.000000000000000000, 0.000000000000000000 ) ) ;
#313 = ORIENTED_EDGE ( 'NONE', *, *, #184, .F. ) ;
#314 = APPLICATION_CONTEXT ( 'configuration controlled 3d designs of mechanical parts and assemblies' ) ;
#315 = DIRECTION ( 'NONE',  ( -1.000000000000000000, 0.000000000000000000, 0.000000000000000000 ) ) ;
#316 = VERTEX_POINT ( 'NONE', #207 ) ;
#317 = CIRCLE ( 'NONE', #151, 3.250000000000000444 ) ;
#318 = EDGE_CURVE ( 'NONE', #89, #236, #317, .T. ) ;
#319 = ORIENTED_EDGE ( 'NONE', *, *, #32, .F. ) ;
#320 = ORIENTED_EDGE ( 'NONE', *, *, #276, .F. ) ;
#321 = ORIENTED_EDGE ( 'NONE', *, *, #32, .T. ) ;
#322 =( NAMED_UNIT ( * ) SI_UNIT ( $, .STERADIAN. ) SOLID_ANGLE_UNIT ( ) );
#323 = CARTESIAN_POINT ( 'NONE',  ( -5.500000000000000000, 6.735557395310442023E-16, 5.000000000000002665 ) ) ;
#324 = FACE_OUTER_BOUND ( 'NONE', #291, .T. ) ;
#325 = ORIENTED_EDGE ( 'NONE', *, *, #374, .T. ) ;
#326 = ADVANCED_FACE ( 'NONE', ( #94 ), #178, .F. ) ;
#327 = COORDINATED_UNIVERSAL_TIME_OFFSET ( 1, 0, .AHEAD. ) ;
#328 = CIRCLE ( 'NONE', #37, 0.5000000000000004441 ) ;
#329 = CARTESIAN_POINT ( 'NONE',  ( 0.000000000000000000, 0.000000000000000000, 0.000000000000000000 ) ) ;
#330 = COORDINATED_UNIVERSAL_TIME_OFFSET ( 1, 0, .AHEAD. ) ;
#331 = ORIENTED_EDGE ( 'NONE', *, *, #342, .F. ) ;
#332 = AXIS2_PLACEMENT_3D ( 'NONE', #329, #175, #295 ) ;
#333 = ADVANCED_FACE ( 'NONE', ( #231 ), #123, .T. ) ;
#334 = DIRECTION ( 'NONE',  ( 0.000000000000000000, 0.000000000000000000, 1.000000000000000000 ) ) ;
#335 = APPLICATION_CONTEXT ( 'configuration controlled 3d designs of mechanical parts and assemblies' ) ;
#336 = DIRECTION ( 'NONE',  ( 0.000000000000000000, 0.000000000000000000, 1.000000000000000000 ) ) ;
#337 = DIRECTION ( 'NONE',  ( -1.000000000000000000, 0.000000000000000000, 0.000000000000000000 ) ) ;
#338 = FACE_OUTER_BOUND ( 'NONE', #14, .T. ) ;
#339 = ADVANCED_FACE ( 'NONE', ( #324 ), #199, .T. ) ;
#340 = CARTESIAN_POINT ( 'NONE',  ( 0.000000000000000000, 0.000000000000000000, 5.000000000000000000 ) ) ;
#341 = AXIS2_PLACEMENT_3D ( 'NONE', #110, #171, #149 ) ;
#342 = EDGE_CURVE ( 'NONE', #268, #270, #48, .T. ) ;
#343 = DIRECTION ( 'NONE',  ( 1.000000000000000000, 0.000000000000000000, 0.000000000000000000 ) ) ;
#344 = ORIENTED_EDGE ( 'NONE', *, *, #288, .T. ) ;
#345 = CARTESIAN_POINT ( 'NONE',  ( 0.000000000000000000, 0.000000000000000000, 5.000000000000000000 ) ) ;
#346 = AXIS2_PLACEMENT_3D ( 'NONE', #79, #165, #279 ) ;
#347 = EDGE_CURVE ( 'NONE', #277, #351, #129, .T. ) ;
#348 = VERTEX_POINT ( 'NONE', #271 ) ;
#349 = ORIENTED_EDGE ( 'NONE', *, *, #5, .F. ) ;
#350 = PRODUCT_RELATED_PRODUCT_CATEGORY ( 'detail', '', ( #195 ) ) ;
#351 = VERTEX_POINT ( 'NONE', #55 ) ;
#352 = ADVANCED_FACE ( 'NONE', ( #35 ), #8, .T. ) ;
#353 = CARTESIAN_POINT ( 'NONE',  ( 5.000000000000000000, 6.123233995736766282E-16, 230.0000000000000000 ) ) ;
#354 = CYLINDRICAL_SURFACE ( 'NONE', #100, 3.250000000000000444 ) ;
#355 = LOCAL_TIME ( 16, 46, 20.00000000000000000, #248 ) ;
#356 = DIRECTION ( 'NONE',  ( 0.000000000000000000, 0.000000000000000000, 1.000000000000000000 ) ) ;
#357 = EDGE_LOOP ( 'NONE', ( #124, #296, #117, #344 ) ) ;
#358 = PRODUCT_DEFINITION ( 'NEZNÁMÝ', '', #22, #192 ) ;
#359 = DIRECTION ( 'NONE',  ( 1.224646799147353207E-16, 1.000000000000000000, -0.000000000000000000 ) ) ;
#360 = CARTESIAN_POINT ( 'NONE',  ( 0.000000000000000000, 0.000000000000000000, 5.500000000000005329 ) ) ;
#361 = MECHANICAL_CONTEXT ( 'NONE', #314, 'mechanical' ) ;
#362 = DIRECTION ( 'NONE',  ( 1.000000000000000000, 0.000000000000000000, 0.000000000000000000 ) ) ;
#363 = PERSON_AND_ORGANIZATION ( #141, #50 ) ;
#364 = AXIS2_PLACEMENT_3D ( 'NONE', #25, #293, #120 ) ;
#365 = LOCAL_TIME ( 16, 46, 20.00000000000000000, #253 ) ;
#366 = EDGE_LOOP ( 'NONE', ( #232, #147 ) ) ;
#367 = PERSON_AND_ORGANIZATION_ROLE ( 'design_supplier' ) ;
#368 = DIRECTION ( 'NONE',  ( 1.000000000000000000, 0.000000000000000000, 0.000000000000000000 ) ) ;
#369 = AXIS2_PLACEMENT_3D ( 'NONE', #274, #247, #362 ) ;
#370 = PLANE ( 'NONE',  #104 ) ;
#371 = CARTESIAN_POINT ( 'NONE',  ( 0.000000000000000000, 0.000000000000000000, 0.000000000000000000 ) ) ;
#372 = FACE_OUTER_BOUND ( 'NONE', #126, .T. ) ;
#373 = CC_DESIGN_PERSON_AND_ORGANIZATION_ASSIGNMENT ( #215, #160, ( #358 ) ) ;
#374 = EDGE_CURVE ( 'NONE', #34, #6, #214, .T. ) ;
#375 = PLANE ( 'NONE',  #30 ) ;
#376 = DIRECTION ( 'NONE',  ( 1.000000000000000000, 0.000000000000000000, 0.000000000000000000 ) ) ;
#377 = DIRECTION ( 'NONE',  ( 0.000000000000000000, 0.000000000000000000, -1.000000000000000000 ) ) ;
#378 = AXIS2_PLACEMENT_3D ( 'NONE', #371, #45, #76 ) ;
#379 = DIRECTION ( 'NONE',  ( 1.000000000000000000, 0.000000000000000000, -0.000000000000000000 ) ) ;
#380 = ORIENTED_EDGE ( 'NONE', *, *, #240, .F. ) ;
#381 = CC_DESIGN_PERSON_AND_ORGANIZATION_ASSIGNMENT ( #42, #13, ( #22 ) ) ;
ENDSEC;
END-ISO-10303-21;
