ISO-10303-21;
HEADER;
FILE_DESCRIPTION (( 'STEP AP203' ),
    '1' );
FILE_NAME ('10fb.STEP',
    '2022-07-08T14:45:36',
    ( '' ),
    ( '' ),
    'SwSTEP 2.0',
    'SolidWorks 2019',
    '' );
FILE_SCHEMA (( 'CONFIG_CONTROL_DESIGN' ));
ENDSEC;

DATA;
#1 = DIRECTION ( 'NONE',  ( 1.000000000000000000, 0.000000000000000000, 0.000000000000000000 ) ) ;
#2 = AXIS2_PLACEMENT_3D ( 'NONE', #134, #301, #270 ) ;
#3 = FACE_OUTER_BOUND ( 'NONE', #214, .T. ) ;
#4 = DIRECTION ( 'NONE',  ( 1.000000000000000000, 0.000000000000000000, 0.000000000000000000 ) ) ;
#5 = COORDINATED_UNIVERSAL_TIME_OFFSET ( 1, 0, .AHEAD. ) ;
#6 = CARTESIAN_POINT ( 'NONE',  ( 0.000000000000000000, 0.000000000000000000, 0.000000000000000000 ) ) ;
#7 = CIRCLE ( 'NONE', #107, 3.250000000000000444 ) ;
#8 = PERSON ( 'NEURÈENÝ', 'NEURÈENÝ', 'NEURÈENÝ', ('NEURÈENÝ'), ('NEURÈENÝ'), ('NEURÈENÝ') ) ;
#9 = CARTESIAN_POINT ( 'NONE',  ( 5.000000000000000000, 6.123233995736766282E-16, 405.0000000000000000 ) ) ;
#10 = ADVANCED_FACE ( 'NONE', ( #169 ), #259, .F. ) ;
#11 = CARTESIAN_POINT ( 'NONE',  ( -5.000000000000000000, 0.000000000000000000, 405.0000000000000000 ) ) ;
#12 = FACE_OUTER_BOUND ( 'NONE', #165, .T. ) ;
#13 = EDGE_CURVE ( 'NONE', #145, #43, #140, .T. ) ;
#14 =( NAMED_UNIT ( * ) PLANE_ANGLE_UNIT ( ) SI_UNIT ( $, .RADIAN. ) );
#15 = EDGE_LOOP ( 'NONE', ( #20, #116, #135, #251 ) ) ;
#16 = ADVANCED_FACE ( 'NONE', ( #85 ), #19, .T. ) ;
#17 = ORIENTED_EDGE ( 'NONE', *, *, #205, .F. ) ;
#18 = COORDINATED_UNIVERSAL_TIME_OFFSET ( 1, 0, .AHEAD. ) ;
#19 = CYLINDRICAL_SURFACE ( 'NONE', #283, 5.000000000000000000 ) ;
#20 = ORIENTED_EDGE ( 'NONE', *, *, #326, .T. ) ;
#21 = ORIENTED_EDGE ( 'NONE', *, *, #42, .F. ) ;
#22 = DIRECTION ( 'NONE',  ( -0.000000000000000000, -0.000000000000000000, -1.000000000000000000 ) ) ;
#23 = DIRECTION ( 'NONE',  ( 1.000000000000000000, 0.000000000000000000, 0.000000000000000000 ) ) ;
#24 = CARTESIAN_POINT ( 'NONE',  ( 0.000000000000000000, 0.000000000000000000, 405.0000000000000000 ) ) ;
#25 = AXIS2_PLACEMENT_3D ( 'NONE', #34, #357, #204 ) ;
#26 = CARTESIAN_POINT ( 'NONE',  ( 0.000000000000000000, 0.000000000000000000, 405.0000000000000000 ) ) ;
#27 = EDGE_CURVE ( 'NONE', #76, #145, #317, .T. ) ;
#28 = DIRECTION ( 'NONE',  ( -1.000000000000000000, 1.224646799147351482E-16, 0.000000000000000000 ) ) ;
#29 = CARTESIAN_POINT ( 'NONE',  ( 0.000000000000000000, 0.000000000000000000, 5.500000000000005329 ) ) ;
#30 = AXIS2_PLACEMENT_3D ( 'NONE', #323, #180, #57 ) ;
#31 = CC_DESIGN_APPROVAL ( #110, ( #232 ) ) ;
#32 = APPROVAL_ROLE ( '' ) ;
#33 = CC_DESIGN_PERSON_AND_ORGANIZATION_ASSIGNMENT ( #150, #269, ( #232 ) ) ;
#34 = CARTESIAN_POINT ( 'NONE',  ( 0.000000000000000000, 0.000000000000000000, 405.0000000000000000 ) ) ;
#35 = CARTESIAN_POINT ( 'NONE',  ( 0.000000000000000000, 0.000000000000000000, 405.0000000000000000 ) ) ;
#36 = ORIENTED_EDGE ( 'NONE', *, *, #51, .T. ) ;
#37 = CALENDAR_DATE ( 2022, 8, 7 ) ;
#38 = CARTESIAN_POINT ( 'NONE',  ( 0.000000000000000000, 0.000000000000000000, 5.000000000000000000 ) ) ;
#39 = ORIENTED_EDGE ( 'NONE', *, *, #330, .T. ) ;
#40 = AXIS2_PLACEMENT_3D ( 'NONE', #177, #354, #229 ) ;
#41 = ORIENTED_EDGE ( 'NONE', *, *, #182, .T. ) ;
#42 = EDGE_CURVE ( 'NONE', #71, #339, #230, .T. ) ;
#43 = VERTEX_POINT ( 'NONE', #55 ) ;
#44 = PERSON_AND_ORGANIZATION ( #8, #350 ) ;
#45 = VERTEX_POINT ( 'NONE', #378 ) ;
#46 = CIRCLE ( 'NONE', #131, 5.000000000000000000 ) ;
#47 = CC_DESIGN_DATE_AND_TIME_ASSIGNMENT ( #168, #101, ( #232 ) ) ;
#48 = CARTESIAN_POINT ( 'NONE',  ( 0.000000000000000000, 0.000000000000000000, 5.500000000000005329 ) ) ;
#49 = FACE_BOUND ( 'NONE', #189, .T. ) ;
#50 = ORIENTED_EDGE ( 'NONE', *, *, #182, .F. ) ;
#51 = EDGE_CURVE ( 'NONE', #307, #201, #154, .T. ) ;
#52 = CIRCLE ( 'NONE', #93, 8.000000000000000000 ) ;
#53 = SECURITY_CLASSIFICATION ( '', '', #375 ) ;
#54 = LINE ( 'NONE', #176, #360 ) ;
#55 = CARTESIAN_POINT ( 'NONE',  ( 8.000000000000000000, 9.797174393178825657E-16, 0.000000000000000000 ) ) ;
#56 = CARTESIAN_POINT ( 'NONE',  ( 5.500000000000000000, 0.000000000000000000, 5.500000000000005329 ) ) ;
#57 = DIRECTION ( 'NONE',  ( 1.000000000000000000, 0.000000000000000000, -0.000000000000000000 ) ) ;
#58 = VECTOR ( 'NONE', #113, 1000.000000000000000 ) ;
#59 = EDGE_CURVE ( 'NONE', #278, #160, #273, .T. ) ;
#60 = LOCAL_TIME ( 16, 45, 36.00000000000000000, #217 ) ;
#61 = LINE ( 'NONE', #9, #120 ) ;
#62 = DIRECTION ( 'NONE',  ( -0.000000000000000000, -0.000000000000000000, -1.000000000000000000 ) ) ;
#63 = CYLINDRICAL_SURFACE ( 'NONE', #25, 3.250000000000000444 ) ;
#64 = PERSON_AND_ORGANIZATION_ROLE ( 'classification_officer' ) ;
#65 = EDGE_CURVE ( 'NONE', #349, #45, #54, .T. ) ;
#66 = CARTESIAN_POINT ( 'NONE',  ( 0.000000000000000000, 0.000000000000000000, 405.0000000000000000 ) ) ;
#67 = EDGE_LOOP ( 'NONE', ( #103, #17 ) ) ;
#68 = APPROVAL_DATE_TIME ( #337, #225 ) ;
#69 = APPLICATION_PROTOCOL_DEFINITION ( 'international standard', 'config_control_design', 1994, #96 ) ;
#70 = ADVANCED_FACE ( 'NONE', ( #234 ), #199, .T. ) ;
#71 = VERTEX_POINT ( 'NONE', #198 ) ;
#72 = PERSON_AND_ORGANIZATION ( #8, #350 ) ;
#73 = AXIS2_PLACEMENT_3D ( 'NONE', #38, #336, #157 ) ;
#74 = CARTESIAN_POINT ( 'NONE',  ( -3.250000000000000444, 0.000000000000000000, 405.0000000000000000 ) ) ;
#75 = ORIENTED_EDGE ( 'NONE', *, *, #190, .F. ) ;
#76 = VERTEX_POINT ( 'NONE', #352 ) ;
#77 = EDGE_CURVE ( 'NONE', #339, #45, #80, .T. ) ;
#78 = APPROVAL_STATUS ( 'not_yet_approved' ) ;
#79 = CARTESIAN_POINT ( 'NONE',  ( 0.000000000000000000, 0.000000000000000000, 5.000000000000000000 ) ) ;
#80 = CIRCLE ( 'NONE', #292, 3.250000000000000444 ) ;
#81 = VECTOR ( 'NONE', #97, 1000.000000000000000 ) ;
#82 = DIRECTION ( 'NONE',  ( -0.000000000000000000, -0.000000000000000000, -1.000000000000000000 ) ) ;
#83 = ADVANCED_FACE ( 'NONE', ( #49, #380 ), #314, .T. ) ;
#84 = DIRECTION ( 'NONE',  ( 1.000000000000000000, 0.000000000000000000, 0.000000000000000000 ) ) ;
#85 = FACE_OUTER_BOUND ( 'NONE', #106, .T. ) ;
#86 = VECTOR ( 'NONE', #256, 1000.000000000000000 ) ;
#87 = CIRCLE ( 'NONE', #2, 3.250000000000000444 ) ;
#88 = CARTESIAN_POINT ( 'NONE',  ( 0.000000000000000000, 0.000000000000000000, 5.000000000000000000 ) ) ;
#89 = DATE_AND_TIME ( #37, #167 ) ;
#90 = CARTESIAN_POINT ( 'NONE',  ( 0.000000000000000000, 0.000000000000000000, 0.000000000000000000 ) ) ;
#91 = FACE_BOUND ( 'NONE', #342, .T. ) ;
#92 = CARTESIAN_POINT ( 'NONE',  ( 0.000000000000000000, 0.000000000000000000, 5.000000000000000000 ) ) ;
#93 = AXIS2_PLACEMENT_3D ( 'NONE', #6, #152, #265 ) ;
#94 = LINE ( 'NONE', #210, #335 ) ;
#95 = CARTESIAN_POINT ( 'NONE',  ( -5.500000000000000000, 6.735557395310442023E-16, 5.000000000000002665 ) ) ;
#96 = APPLICATION_CONTEXT ( 'configuration controlled 3d designs of mechanical parts and assemblies' ) ;
#97 = DIRECTION ( 'NONE',  ( -0.000000000000000000, -0.000000000000000000, -1.000000000000000000 ) ) ;
#98 = CC_DESIGN_SECURITY_CLASSIFICATION ( #53, ( #108 ) ) ;
#99 = CARTESIAN_POINT ( 'NONE',  ( -8.000000000000000000, 0.000000000000000000, 5.000000000000000000 ) ) ;
#100 = ORIENTED_EDGE ( 'NONE', *, *, #271, .T. ) ;
#101 = DATE_TIME_ROLE ( 'creation_date' ) ;
#102 = DIRECTION ( 'NONE',  ( 1.000000000000000000, 0.000000000000000000, 0.000000000000000000 ) ) ;
#103 = ORIENTED_EDGE ( 'NONE', *, *, #326, .F. ) ;
#104 = CALENDAR_DATE ( 2022, 8, 7 ) ;
#105 = PERSON_AND_ORGANIZATION ( #8, #350 ) ;
#106 = EDGE_LOOP ( 'NONE', ( #172, #272, #193, #248 ) ) ;
#107 = AXIS2_PLACEMENT_3D ( 'NONE', #90, #178, #294 ) ;
#108 = PRODUCT_DEFINITION_FORMATION_WITH_SPECIFIED_SOURCE ( 'LIBOVOLNÝ', '', #200, .NOT_KNOWN. ) ;
#109 = ORIENTED_EDGE ( 'NONE', *, *, #346, .F. ) ;
#110 = APPROVAL ( #185, 'NEURÈENÝ' ) ;
#111 = PERSON_AND_ORGANIZATION_ROLE ( 'design_supplier' ) ;
#112 = ORIENTED_EDGE ( 'NONE', *, *, #77, .F. ) ;
#113 = DIRECTION ( 'NONE',  ( 0.000000000000000000, 0.000000000000000000, -1.000000000000000000 ) ) ;
#114 = AXIS2_PLACEMENT_3D ( 'NONE', #88, #170, #319 ) ;
#115 = CC_DESIGN_APPROVAL ( #225, ( #108 ) ) ;
#116 = ORIENTED_EDGE ( 'NONE', *, *, #42, .T. ) ;
#117 = DIRECTION ( 'NONE',  ( -1.000000000000000000, 0.000000000000000000, 0.000000000000000000 ) ) ;
#118 = DIRECTION ( 'NONE',  ( 1.000000000000000000, 0.000000000000000000, 0.000000000000000000 ) ) ;
#119 = CIRCLE ( 'NONE', #166, 5.500000000000000000 ) ;
#120 = VECTOR ( 'NONE', #184, 1000.000000000000000 ) ;
#121 = AXIS2_PLACEMENT_3D ( 'NONE', #66, #192, #243 ) ;
#122 = CARTESIAN_POINT ( 'NONE',  ( 8.000000000000000000, 9.797174393178825657E-16, 5.000000000000000000 ) ) ;
#123 = EDGE_CURVE ( 'NONE', #160, #278, #365, .T. ) ;
#124 = DIRECTION ( 'NONE',  ( -1.000000000000000000, 0.000000000000000000, 0.000000000000000000 ) ) ;
#125 = DIRECTION ( 'NONE',  ( 0.000000000000000000, 0.000000000000000000, 1.000000000000000000 ) ) ;
#126 = AXIS2_PLACEMENT_3D ( 'NONE', #377, #351, #1 ) ;
#127 = CARTESIAN_POINT ( 'NONE',  ( -5.500000000000000000, 6.735557395310442023E-16, 5.500000000000005329 ) ) ;
#128 = DIRECTION ( 'NONE',  ( 1.000000000000000000, 0.000000000000000000, 0.000000000000000000 ) ) ;
#129 = DIRECTION ( 'NONE',  ( -1.000000000000000000, 0.000000000000000000, 0.000000000000000000 ) ) ;
#130 = ORIENTED_EDGE ( 'NONE', *, *, #51, .F. ) ;
#131 = AXIS2_PLACEMENT_3D ( 'NONE', #24, #183, #363 ) ;
#132 = EDGE_LOOP ( 'NONE', ( #287, #310, #222, #50 ) ) ;
#133 = DIRECTION ( 'NONE',  ( 0.000000000000000000, 0.000000000000000000, 1.000000000000000000 ) ) ;
#134 = CARTESIAN_POINT ( 'NONE',  ( 0.000000000000000000, 0.000000000000000000, 405.0000000000000000 ) ) ;
#135 = ORIENTED_EDGE ( 'NONE', *, *, #77, .T. ) ;
#136 = CIRCLE ( 'NONE', #355, 3.250000000000000444 ) ;
#137 = ORIENTED_EDGE ( 'NONE', *, *, #224, .T. ) ;
#138 = CARTESIAN_POINT ( 'NONE',  ( 0.000000000000000000, 0.000000000000000000, 405.0000000000000000 ) ) ;
#139 = EDGE_CURVE ( 'NONE', #43, #220, #52, .T. ) ;
#140 = LINE ( 'NONE', #122, #86 ) ;
#141 = PRODUCT_RELATED_PRODUCT_CATEGORY ( 'detail', '', ( #200 ) ) ;
#142 = EDGE_CURVE ( 'NONE', #220, #43, #174, .T. ) ;
#143 =( GEOMETRIC_REPRESENTATION_CONTEXT ( 3 ) GLOBAL_UNCERTAINTY_ASSIGNED_CONTEXT ( ( #332 ) ) GLOBAL_UNIT_ASSIGNED_CONTEXT ( ( #159, #14, #345 ) ) REPRESENTATION_CONTEXT ( 'NONE', 'WORKASPACE' ) );
#144 = DIRECTION ( 'NONE',  ( 1.000000000000000000, 0.000000000000000000, 0.000000000000000000 ) ) ;
#145 = VERTEX_POINT ( 'NONE', #293 ) ;
#146 = ADVANCED_FACE ( 'NONE', ( #91, #206 ), #324, .F. ) ;
#147 = ORIENTED_EDGE ( 'NONE', *, *, #139, .F. ) ;
#148 = AXIS2_PLACEMENT_3D ( 'NONE', #252, #258, #118 ) ;
#149 = CARTESIAN_POINT ( 'NONE',  ( 5.000000000000000000, 6.123233995736766282E-16, 405.0000000000000000 ) ) ;
#150 = PERSON_AND_ORGANIZATION ( #8, #350 ) ;
#151 = DIRECTION ( 'NONE',  ( 0.000000000000000000, 0.000000000000000000, -1.000000000000000000 ) ) ;
#152 = DIRECTION ( 'NONE',  ( 0.000000000000000000, 0.000000000000000000, 1.000000000000000000 ) ) ;
#153 = CYLINDRICAL_SURFACE ( 'NONE', #333, 5.000000000000000000 ) ;
#154 = CIRCLE ( 'NONE', #126, 5.000000000000000000 ) ;
#155 = APPROVAL_DATE_TIME ( #328, #110 ) ;
#156 = DIRECTION ( 'NONE',  ( 0.000000000000000000, 0.000000000000000000, 1.000000000000000000 ) ) ;
#157 = DIRECTION ( 'NONE',  ( -1.000000000000000000, 0.000000000000000000, 0.000000000000000000 ) ) ;
#158 = ORIENTED_EDGE ( 'NONE', *, *, #59, .F. ) ;
#159 =( LENGTH_UNIT ( ) NAMED_UNIT ( * ) SI_UNIT ( .MILLI., .METRE. ) );
#160 = VERTEX_POINT ( 'NONE', #295 ) ;
#161 = MECHANICAL_CONTEXT ( 'NONE', #96, 'mechanical' ) ;
#162 = ORIENTED_EDGE ( 'NONE', *, *, #59, .T. ) ;
#163 = EDGE_LOOP ( 'NONE', ( #130, #100, #162, #376 ) ) ;
#164 = PERSON_AND_ORGANIZATION ( #8, #350 ) ;
#165 = EDGE_LOOP ( 'NONE', ( #253, #347, #281, #316 ) ) ;
#166 = AXIS2_PLACEMENT_3D ( 'NONE', #92, #267, #128 ) ;
#167 = LOCAL_TIME ( 16, 45, 36.00000000000000000, #300 ) ;
#168 = DATE_AND_TIME ( #104, #175 ) ;
#169 = FACE_OUTER_BOUND ( 'NONE', #132, .T. ) ;
#170 = DIRECTION ( 'NONE',  ( 0.000000000000000000, 0.000000000000000000, 1.000000000000000000 ) ) ;
#171 = CC_DESIGN_DATE_AND_TIME_ASSIGNMENT ( #282, #250, ( #53 ) ) ;
#172 = ORIENTED_EDGE ( 'NONE', *, *, #271, .F. ) ;
#173 = ADVANCED_BREP_SHAPE_REPRESENTATION ( '10fb', ( #313, #334 ), #143 ) ;
#174 = CIRCLE ( 'NONE', #371, 8.000000000000000000 ) ;
#175 = LOCAL_TIME ( 16, 45, 36.00000000000000000, #263 ) ;
#176 = CARTESIAN_POINT ( 'NONE',  ( -3.250000000000000444, 0.000000000000000000, 405.0000000000000000 ) ) ;
#177 = CARTESIAN_POINT ( 'NONE',  ( 0.000000000000000000, 0.000000000000000000, 5.500000000000005329 ) ) ;
#178 = DIRECTION ( 'NONE',  ( -0.000000000000000000, -0.000000000000000000, -1.000000000000000000 ) ) ;
#179 = AXIS2_PLACEMENT_3D ( 'NONE', #359, #362, #181 ) ;
#180 = DIRECTION ( 'NONE',  ( 0.000000000000000000, 0.000000000000000000, 1.000000000000000000 ) ) ;
#181 = DIRECTION ( 'NONE',  ( 1.000000000000000000, 0.000000000000000000, 0.000000000000000000 ) ) ;
#182 = EDGE_CURVE ( 'NONE', #278, #223, #196, .T. ) ;
#183 = DIRECTION ( 'NONE',  ( 0.000000000000000000, 0.000000000000000000, 1.000000000000000000 ) ) ;
#184 = DIRECTION ( 'NONE',  ( -0.000000000000000000, -0.000000000000000000, -1.000000000000000000 ) ) ;
#185 = APPROVAL_STATUS ( 'not_yet_approved' ) ;
#186 = ORIENTED_EDGE ( 'NONE', *, *, #190, .T. ) ;
#187 = CALENDAR_DATE ( 2022, 8, 7 ) ;
#188 = DIRECTION ( 'NONE',  ( 0.000000000000000000, 0.000000000000000000, -1.000000000000000000 ) ) ;
#189 = EDGE_LOOP ( 'NONE', ( #137, #226 ) ) ;
#190 = EDGE_CURVE ( 'NONE', #45, #339, #7, .T. ) ;
#191 = ORIENTED_EDGE ( 'NONE', *, *, #65, .T. ) ;
#192 = DIRECTION ( 'NONE',  ( 0.000000000000000000, 0.000000000000000000, 1.000000000000000000 ) ) ;
#193 = ORIENTED_EDGE ( 'NONE', *, *, #242, .T. ) ;
#194 = EDGE_LOOP ( 'NONE', ( #244, #158, #41, #109 ) ) ;
#195 = EDGE_LOOP ( 'NONE', ( #374, #246, #39, #311 ) ) ;
#196 = CIRCLE ( 'NONE', #304, 0.5000000000000004441 ) ;
#197 = EDGE_CURVE ( 'NONE', #160, #275, #202, .T. ) ;
#198 = CARTESIAN_POINT ( 'NONE',  ( 3.250000000000000444, 3.980102097228898231E-16, 405.0000000000000000 ) ) ;
#199 = CYLINDRICAL_SURFACE ( 'NONE', #344, 8.000000000000000000 ) ;
#200 = PRODUCT ( '10fb', '10fb', '', ( #161 ) ) ;
#201 = VERTEX_POINT ( 'NONE', #11 ) ;
#202 = CIRCLE ( 'NONE', #296, 0.5000000000000004441 ) ;
#203 = CARTESIAN_POINT ( 'NONE',  ( 0.000000000000000000, 0.000000000000000000, 0.000000000000000000 ) ) ;
#204 = DIRECTION ( 'NONE',  ( -1.000000000000000000, 0.000000000000000000, 0.000000000000000000 ) ) ;
#205 = EDGE_CURVE ( 'NONE', #71, #349, #136, .T. ) ;
#206 = FACE_OUTER_BOUND ( 'NONE', #299, .T. ) ;
#207 = FACE_OUTER_BOUND ( 'NONE', #194, .T. ) ;
#208 = APPROVAL ( #78, 'NEURÈENÝ' ) ;
#209 = ADVANCED_FACE ( 'NONE', ( #264 ), #153, .T. ) ;
#210 = CARTESIAN_POINT ( 'NONE',  ( -5.000000000000000000, 0.000000000000000000, 405.0000000000000000 ) ) ;
#211 = CARTESIAN_POINT ( 'NONE',  ( 5.000000000000000000, 6.123233995736766282E-16, 5.500000000000005329 ) ) ;
#212 = CIRCLE ( 'NONE', #179, 8.000000000000000000 ) ;
#213 = CARTESIAN_POINT ( 'NONE',  ( 3.250000000000000444, 3.980102097228898231E-16, 0.000000000000000000 ) ) ;
#214 = EDGE_LOOP ( 'NONE', ( #305, #36 ) ) ;
#215 = PERSON_AND_ORGANIZATION ( #8, #350 ) ;
#216 = ORIENTED_EDGE ( 'NONE', *, *, #142, .F. ) ;
#217 = COORDINATED_UNIVERSAL_TIME_OFFSET ( 1, 0, .AHEAD. ) ;
#218 = PLANE ( 'NONE',  #121 ) ;
#219 = CLOSED_SHELL ( 'NONE', ( #288, #10, #209, #379, #70, #83, #146, #16, #309, #268, #321 ) ) ;
#220 = VERTEX_POINT ( 'NONE', #238 ) ;
#221 = AXIS2_PLACEMENT_3D ( 'NONE', #306, #364, #102 ) ;
#222 = ORIENTED_EDGE ( 'NONE', *, *, #224, .F. ) ;
#223 = VERTEX_POINT ( 'NONE', #329 ) ;
#224 = EDGE_CURVE ( 'NONE', #223, #275, #119, .T. ) ;
#225 = APPROVAL ( #340, 'NEURÈENÝ' ) ;
#226 = ORIENTED_EDGE ( 'NONE', *, *, #346, .T. ) ;
#227 = AXIS2_PLACEMENT_3D ( 'NONE', #48, #285, #144 ) ;
#228 = DESIGN_CONTEXT ( 'detailed design', #233, 'design' ) ;
#229 = DIRECTION ( 'NONE',  ( 1.000000000000000000, 0.000000000000000000, 0.000000000000000000 ) ) ;
#230 = LINE ( 'NONE', #353, #58 ) ;
#231 = EDGE_LOOP ( 'NONE', ( #368, #303 ) ) ;
#232 = PRODUCT_DEFINITION ( 'NEZNÁMÝ', '', #108, #228 ) ;
#233 = APPLICATION_CONTEXT ( 'configuration controlled 3d designs of mechanical parts and assemblies' ) ;
#234 = FACE_OUTER_BOUND ( 'NONE', #195, .T. ) ;
#235 = DIRECTION ( 'NONE',  ( 1.224646799147353207E-16, 1.000000000000000000, -0.000000000000000000 ) ) ;
#236 = CC_DESIGN_PERSON_AND_ORGANIZATION_ASSIGNMENT ( #164, #64, ( #53 ) ) ;
#237 = EDGE_CURVE ( 'NONE', #145, #76, #212, .T. ) ;
#238 = CARTESIAN_POINT ( 'NONE',  ( -8.000000000000000000, 0.000000000000000000, 0.000000000000000000 ) ) ;
#239 = CALENDAR_DATE ( 2022, 8, 7 ) ;
#240 = DIRECTION ( 'NONE',  ( 0.000000000000000000, 0.000000000000000000, 1.000000000000000000 ) ) ;
#241 = DIRECTION ( 'NONE',  ( -0.000000000000000000, -0.000000000000000000, -1.000000000000000000 ) ) ;
#242 = EDGE_CURVE ( 'NONE', #201, #160, #94, .T. ) ;
#243 = DIRECTION ( 'NONE',  ( 1.000000000000000000, 0.000000000000000000, -0.000000000000000000 ) ) ;
#244 = ORIENTED_EDGE ( 'NONE', *, *, #197, .F. ) ;
#245 = CYLINDRICAL_SURFACE ( 'NONE', #73, 8.000000000000000000 ) ;
#246 = ORIENTED_EDGE ( 'NONE', *, *, #27, .F. ) ;
#247 = PERSON_AND_ORGANIZATION_ROLE ( 'design_owner' ) ;
#248 = ORIENTED_EDGE ( 'NONE', *, *, #123, .T. ) ;
#249 = LOCAL_TIME ( 16, 45, 36.00000000000000000, #18 ) ;
#250 = DATE_TIME_ROLE ( 'classification_date' ) ;
#251 = ORIENTED_EDGE ( 'NONE', *, *, #65, .F. ) ;
#252 = CARTESIAN_POINT ( 'NONE',  ( 0.000000000000000000, 0.000000000000000000, 5.000000000000000000 ) ) ;
#253 = ORIENTED_EDGE ( 'NONE', *, *, #237, .F. ) ;
#254 = AXIS2_PLACEMENT_3D ( 'NONE', #286, #290, #23 ) ;
#255 = APPROVAL_PERSON_ORGANIZATION ( #215, #225, #279 ) ;
#256 = DIRECTION ( 'NONE',  ( -0.000000000000000000, -0.000000000000000000, -1.000000000000000000 ) ) ;
#257 = DIRECTION ( 'NONE',  ( -1.000000000000000000, 0.000000000000000000, 0.000000000000000000 ) ) ;
#258 = DIRECTION ( 'NONE',  ( 0.000000000000000000, 0.000000000000000000, 1.000000000000000000 ) ) ;
#259 = TOROIDAL_SURFACE ( 'NONE', #227, 5.500000000000000000, 0.5000000000000000000 ) ;
#260 = AXIS2_PLACEMENT_3D ( 'NONE', #35, #188, #129 ) ;
#261 = FACE_BOUND ( 'NONE', #67, .T. ) ;
#262 = EDGE_CURVE ( 'NONE', #201, #307, #46, .T. ) ;
#263 = COORDINATED_UNIVERSAL_TIME_OFFSET ( 1, 0, .AHEAD. ) ;
#264 = FACE_OUTER_BOUND ( 'NONE', #163, .T. ) ;
#265 = DIRECTION ( 'NONE',  ( 1.000000000000000000, 0.000000000000000000, 0.000000000000000000 ) ) ;
#266 = DIRECTION ( 'NONE',  ( 1.000000000000000000, 0.000000000000000000, 0.000000000000000000 ) ) ;
#267 = DIRECTION ( 'NONE',  ( -0.000000000000000000, -0.000000000000000000, -1.000000000000000000 ) ) ;
#268 = ADVANCED_FACE ( 'NONE', ( #207 ), #297, .F. ) ;
#269 = PERSON_AND_ORGANIZATION_ROLE ( 'creator' ) ;
#270 = DIRECTION ( 'NONE',  ( 1.000000000000000000, 0.000000000000000000, 0.000000000000000000 ) ) ;
#271 = EDGE_CURVE ( 'NONE', #307, #278, #61, .T. ) ;
#272 = ORIENTED_EDGE ( 'NONE', *, *, #262, .F. ) ;
#273 = CIRCLE ( 'NONE', #40, 5.000000000000000000 ) ;
#274 = CIRCLE ( 'NONE', #221, 5.500000000000000000 ) ;
#275 = VERTEX_POINT ( 'NONE', #95 ) ;
#276 = CC_DESIGN_PERSON_AND_ORGANIZATION_ASSIGNMENT ( #44, #111, ( #108 ) ) ;
#277 = PERSON_AND_ORGANIZATION ( #8, #350 ) ;
#278 = VERTEX_POINT ( 'NONE', #211 ) ;
#279 = APPROVAL_ROLE ( '' ) ;
#280 = CYLINDRICAL_SURFACE ( 'NONE', #260, 3.250000000000000444 ) ;
#281 = ORIENTED_EDGE ( 'NONE', *, *, #139, .T. ) ;
#282 = DATE_AND_TIME ( #187, #249 ) ;
#283 = AXIS2_PLACEMENT_3D ( 'NONE', #138, #22, #117 ) ;
#284 = APPROVAL_ROLE ( '' ) ;
#285 = DIRECTION ( 'NONE',  ( 0.000000000000000000, 0.000000000000000000, 1.000000000000000000 ) ) ;
#286 = CARTESIAN_POINT ( 'NONE',  ( 0.000000000000000000, 0.000000000000000000, 5.500000000000005329 ) ) ;
#287 = ORIENTED_EDGE ( 'NONE', *, *, #123, .F. ) ;
#288 = ADVANCED_FACE ( 'NONE', ( #331 ), #63, .F. ) ;
#289 = DIRECTION ( 'NONE',  ( 0.000000000000000000, 0.000000000000000000, -1.000000000000000000 ) ) ;
#290 = DIRECTION ( 'NONE',  ( 0.000000000000000000, 0.000000000000000000, 1.000000000000000000 ) ) ;
#291 = DIRECTION ( 'NONE',  ( 1.000000000000000000, 0.000000000000000000, 0.000000000000000000 ) ) ;
#292 = AXIS2_PLACEMENT_3D ( 'NONE', #203, #312, #84 ) ;
#293 = CARTESIAN_POINT ( 'NONE',  ( 8.000000000000000000, 9.797174393178825657E-16, 5.000000000000000000 ) ) ;
#294 = DIRECTION ( 'NONE',  ( 1.000000000000000000, 0.000000000000000000, 0.000000000000000000 ) ) ;
#295 = CARTESIAN_POINT ( 'NONE',  ( -5.000000000000000000, 0.000000000000000000, 5.500000000000005329 ) ) ;
#296 = AXIS2_PLACEMENT_3D ( 'NONE', #127, #235, #28 ) ;
#297 = TOROIDAL_SURFACE ( 'NONE', #373, 5.500000000000000000, 0.5000000000000000000 ) ;
#298 = CARTESIAN_POINT ( 'NONE',  ( 0.000000000000000000, 0.000000000000000000, 0.000000000000000000 ) ) ;
#299 = EDGE_LOOP ( 'NONE', ( #216, #147 ) ) ;
#300 = COORDINATED_UNIVERSAL_TIME_OFFSET ( 1, 0, .AHEAD. ) ;
#301 = DIRECTION ( 'NONE',  ( 0.000000000000000000, 0.000000000000000000, 1.000000000000000000 ) ) ;
#302 = CC_DESIGN_PERSON_AND_ORGANIZATION_ASSIGNMENT ( #72, #308, ( #108 ) ) ;
#303 = ORIENTED_EDGE ( 'NONE', *, *, #237, .T. ) ;
#304 = AXIS2_PLACEMENT_3D ( 'NONE', #56, #327, #151 ) ;
#305 = ORIENTED_EDGE ( 'NONE', *, *, #262, .T. ) ;
#306 = CARTESIAN_POINT ( 'NONE',  ( 0.000000000000000000, 0.000000000000000000, 5.000000000000000000 ) ) ;
#307 = VERTEX_POINT ( 'NONE', #149 ) ;
#308 = PERSON_AND_ORGANIZATION_ROLE ( 'creator' ) ;
#309 = ADVANCED_FACE ( 'NONE', ( #261, #3 ), #218, .T. ) ;
#310 = ORIENTED_EDGE ( 'NONE', *, *, #197, .T. ) ;
#311 = ORIENTED_EDGE ( 'NONE', *, *, #142, .T. ) ;
#312 = DIRECTION ( 'NONE',  ( -0.000000000000000000, -0.000000000000000000, -1.000000000000000000 ) ) ;
#313 = MANIFOLD_SOLID_BREP ( 'Odebrat vysunutím3', #219 ) ;
#314 = PLANE ( 'NONE',  #114 ) ;
#315 = APPROVAL_DATE_TIME ( #89, #208 ) ;
#316 = ORIENTED_EDGE ( 'NONE', *, *, #330, .F. ) ;
#317 = CIRCLE ( 'NONE', #148, 8.000000000000000000 ) ;
#318 = APPROVAL_PERSON_ORGANIZATION ( #105, #110, #32 ) ;
#319 = DIRECTION ( 'NONE',  ( 1.000000000000000000, 0.000000000000000000, -0.000000000000000000 ) ) ;
#320 = SHAPE_DEFINITION_REPRESENTATION ( #381, #173 ) ;
#321 = ADVANCED_FACE ( 'NONE', ( #338 ), #280, .F. ) ;
#322 = CC_DESIGN_PERSON_AND_ORGANIZATION_ASSIGNMENT ( #277, #247, ( #200 ) ) ;
#323 = CARTESIAN_POINT ( 'NONE',  ( 0.000000000000000000, 0.000000000000000000, 0.000000000000000000 ) ) ;
#324 = PLANE ( 'NONE',  #30 ) ;
#325 = APPROVAL_PERSON_ORGANIZATION ( #348, #208, #284 ) ;
#326 = EDGE_CURVE ( 'NONE', #349, #71, #87, .T. ) ;
#327 = DIRECTION ( 'NONE',  ( 0.000000000000000000, -1.000000000000000000, 0.000000000000000000 ) ) ;
#328 = DATE_AND_TIME ( #239, #361 ) ;
#329 = CARTESIAN_POINT ( 'NONE',  ( 5.500000000000000000, 0.000000000000000000, 5.000000000000002665 ) ) ;
#330 = EDGE_CURVE ( 'NONE', #76, #220, #366, .T. ) ;
#331 = FACE_OUTER_BOUND ( 'NONE', #15, .T. ) ;
#332 = UNCERTAINTY_MEASURE_WITH_UNIT (LENGTH_MEASURE( 1.000000000000000082E-05 ), #159, 'distance_accuracy_value', 'NONE');
#333 = AXIS2_PLACEMENT_3D ( 'NONE', #358, #241, #124 ) ;
#334 = AXIS2_PLACEMENT_3D ( 'NONE', #341, #133, #372 ) ;
#335 = VECTOR ( 'NONE', #62, 1000.000000000000000 ) ;
#336 = DIRECTION ( 'NONE',  ( -0.000000000000000000, -0.000000000000000000, -1.000000000000000000 ) ) ;
#337 = DATE_AND_TIME ( #343, #60 ) ;
#338 = FACE_OUTER_BOUND ( 'NONE', #370, .T. ) ;
#339 = VERTEX_POINT ( 'NONE', #213 ) ;
#340 = APPROVAL_STATUS ( 'not_yet_approved' ) ;
#341 = CARTESIAN_POINT ( 'NONE',  ( 0.000000000000000000, 0.000000000000000000, 0.000000000000000000 ) ) ;
#342 = EDGE_LOOP ( 'NONE', ( #75, #112 ) ) ;
#343 = CALENDAR_DATE ( 2022, 8, 7 ) ;
#344 = AXIS2_PLACEMENT_3D ( 'NONE', #79, #82, #257 ) ;
#345 =( NAMED_UNIT ( * ) SI_UNIT ( $, .STERADIAN. ) SOLID_ANGLE_UNIT ( ) );
#346 = EDGE_CURVE ( 'NONE', #275, #223, #274, .T. ) ;
#347 = ORIENTED_EDGE ( 'NONE', *, *, #13, .T. ) ;
#348 = PERSON_AND_ORGANIZATION ( #8, #350 ) ;
#349 = VERTEX_POINT ( 'NONE', #74 ) ;
#350 = ORGANIZATION ( 'NEURÈENÝ', 'NEURÈENÝ', '' ) ;
#351 = DIRECTION ( 'NONE',  ( 0.000000000000000000, 0.000000000000000000, 1.000000000000000000 ) ) ;
#352 = CARTESIAN_POINT ( 'NONE',  ( -8.000000000000000000, 0.000000000000000000, 5.000000000000000000 ) ) ;
#353 = CARTESIAN_POINT ( 'NONE',  ( 3.250000000000000444, 3.980102097228898231E-16, 405.0000000000000000 ) ) ;
#354 = DIRECTION ( 'NONE',  ( 0.000000000000000000, 0.000000000000000000, 1.000000000000000000 ) ) ;
#355 = AXIS2_PLACEMENT_3D ( 'NONE', #26, #125, #4 ) ;
#356 = CC_DESIGN_APPROVAL ( #208, ( #53 ) ) ;
#357 = DIRECTION ( 'NONE',  ( 0.000000000000000000, 0.000000000000000000, -1.000000000000000000 ) ) ;
#358 = CARTESIAN_POINT ( 'NONE',  ( 0.000000000000000000, 0.000000000000000000, 405.0000000000000000 ) ) ;
#359 = CARTESIAN_POINT ( 'NONE',  ( 0.000000000000000000, 0.000000000000000000, 5.000000000000000000 ) ) ;
#360 = VECTOR ( 'NONE', #289, 1000.000000000000000 ) ;
#361 = LOCAL_TIME ( 16, 45, 36.00000000000000000, #5 ) ;
#362 = DIRECTION ( 'NONE',  ( 0.000000000000000000, 0.000000000000000000, 1.000000000000000000 ) ) ;
#363 = DIRECTION ( 'NONE',  ( 1.000000000000000000, 0.000000000000000000, 0.000000000000000000 ) ) ;
#364 = DIRECTION ( 'NONE',  ( -0.000000000000000000, -0.000000000000000000, -1.000000000000000000 ) ) ;
#365 = CIRCLE ( 'NONE', #254, 5.000000000000000000 ) ;
#366 = LINE ( 'NONE', #99, #81 ) ;
#367 = ORIENTED_EDGE ( 'NONE', *, *, #205, .T. ) ;
#368 = ORIENTED_EDGE ( 'NONE', *, *, #27, .T. ) ;
#369 = APPLICATION_PROTOCOL_DEFINITION ( 'international standard', 'config_control_design', 1994, #233 ) ;
#370 = EDGE_LOOP ( 'NONE', ( #21, #367, #191, #186 ) ) ;
#371 = AXIS2_PLACEMENT_3D ( 'NONE', #298, #240, #291 ) ;
#372 = DIRECTION ( 'NONE',  ( 1.000000000000000000, 0.000000000000000000, 0.000000000000000000 ) ) ;
#373 = AXIS2_PLACEMENT_3D ( 'NONE', #29, #156, #266 ) ;
#374 = ORIENTED_EDGE ( 'NONE', *, *, #13, .F. ) ;
#375 = SECURITY_CLASSIFICATION_LEVEL ( 'unclassified' ) ;
#376 = ORIENTED_EDGE ( 'NONE', *, *, #242, .F. ) ;
#377 = CARTESIAN_POINT ( 'NONE',  ( 0.000000000000000000, 0.000000000000000000, 405.0000000000000000 ) ) ;
#378 = CARTESIAN_POINT ( 'NONE',  ( -3.250000000000000444, 0.000000000000000000, 0.000000000000000000 ) ) ;
#379 = ADVANCED_FACE ( 'NONE', ( #12 ), #245, .T. ) ;
#380 = FACE_OUTER_BOUND ( 'NONE', #231, .T. ) ;
#381 = PRODUCT_DEFINITION_SHAPE ( 'NONE', 'NONE',  #232 ) ;
ENDSEC;
END-ISO-10303-21;
