ISO-10303-21;
HEADER;
FILE_DESCRIPTION (( 'STEP AP203' ),
    '1' );
FILE_NAME ('2523.STEP',
    '2022-07-08T14:35:31',
    ( '' ),
    ( '' ),
    'SwSTEP 2.0',
    'SolidWorks 2019',
    '' );
FILE_SCHEMA (( 'CONFIG_CONTROL_DESIGN' ));
ENDSEC;

DATA;
#1 = DIRECTION ( 'NONE',  ( 1.000000000000000000, 0.000000000000000000, 0.000000000000000000 ) ) ;
#2 = CC_DESIGN_DATE_AND_TIME_ASSIGNMENT ( #20, #318, ( #98 ) ) ;
#3 = DIRECTION ( 'NONE',  ( 0.000000000000000000, 0.000000000000000000, 1.000000000000000000 ) ) ;
#4 = DIRECTION ( 'NONE',  ( -0.000000000000000000, -0.000000000000000000, -1.000000000000000000 ) ) ;
#5 = CARTESIAN_POINT ( 'NONE',  ( -4.099999999999999645, 0.000000000000000000, 132.0000000000000000 ) ) ;
#6 = PRODUCT_RELATED_PRODUCT_CATEGORY ( 'detail', '', ( #88 ) ) ;
#7 = CIRCLE ( 'NONE', #110, 6.000000000000000888 ) ;
#8 = DIRECTION ( 'NONE',  ( 0.000000000000000000, 0.000000000000000000, -1.000000000000000000 ) ) ;
#9 = EDGE_LOOP ( 'NONE', ( #337, #198, #334, #37 ) ) ;
#10 = LINE ( 'NONE', #241, #380 ) ;
#11 = VERTEX_POINT ( 'NONE', #18 ) ;
#12 = EDGE_CURVE ( 'NONE', #364, #339, #44, .T. ) ;
#13 = DIRECTION ( 'NONE',  ( -0.000000000000000000, -0.000000000000000000, -1.000000000000000000 ) ) ;
#14 = ORIENTED_EDGE ( 'NONE', *, *, #356, .T. ) ;
#15 = COORDINATED_UNIVERSAL_TIME_OFFSET ( 1, 0, .AHEAD. ) ;
#16 = VERTEX_POINT ( 'NONE', #288 ) ;
#17 = LOCAL_TIME ( 16, 35, 31.00000000000000000, #15 ) ;
#18 = CARTESIAN_POINT ( 'NONE',  ( -6.700000000000001066, 8.205133554287267548E-16, 6.999999999999999112 ) ) ;
#19 = CC_DESIGN_PERSON_AND_ORGANIZATION_ASSIGNMENT ( #367, #251, ( #280 ) ) ;
#20 = DATE_AND_TIME ( #341, #17 ) ;
#21 = ORIENTED_EDGE ( 'NONE', *, *, #136, .T. ) ;
#22 = PERSON_AND_ORGANIZATION_ROLE ( 'classification_officer' ) ;
#23 = PERSON ( 'NEURÈENÝ', 'NEURÈENÝ', 'NEURÈENÝ', ('NEURÈENÝ'), ('NEURÈENÝ'), ('NEURÈENÝ') ) ;
#24 = EDGE_LOOP ( 'NONE', ( #144, #176 ) ) ;
#25 = CARTESIAN_POINT ( 'NONE',  ( -4.099999999999999645, 0.000000000000000000, 0.000000000000000000 ) ) ;
#26 = EDGE_CURVE ( 'NONE', #373, #77, #359, .T. ) ;
#27 = DIRECTION ( 'NONE',  ( -1.000000000000000000, 0.000000000000000000, 0.000000000000000000 ) ) ;
#28 = AXIS2_PLACEMENT_3D ( 'NONE', #118, #321, #162 ) ;
#29 = CARTESIAN_POINT ( 'NONE',  ( 4.099999999999999645, 5.021051876504147385E-16, 0.000000000000000000 ) ) ;
#30 = ADVANCED_FACE ( 'NONE', ( #255 ), #314, .T. ) ;
#31 = DIRECTION ( 'NONE',  ( 1.000000000000000000, 0.000000000000000000, 0.000000000000000000 ) ) ;
#32 = DIRECTION ( 'NONE',  ( -0.000000000000000000, -0.000000000000000000, -1.000000000000000000 ) ) ;
#33 = CARTESIAN_POINT ( 'NONE',  ( 0.000000000000000000, 0.000000000000000000, 7.000000000000000000 ) ) ;
#34 = DIRECTION ( 'NONE',  ( 1.224646799147353207E-16, 1.000000000000000000, -0.000000000000000000 ) ) ;
#35 = ORIENTED_EDGE ( 'NONE', *, *, #315, .F. ) ;
#36 = DIRECTION ( 'NONE',  ( 0.000000000000000000, 0.000000000000000000, 1.000000000000000000 ) ) ;
#37 = ORIENTED_EDGE ( 'NONE', *, *, #120, .F. ) ;
#38 = AXIS2_PLACEMENT_3D ( 'NONE', #115, #227, #56 ) ;
#39 = PLANE ( 'NONE',  #119 ) ;
#40 = CIRCLE ( 'NONE', #28, 0.7000000000000000666 ) ;
#41 = ADVANCED_FACE ( 'NONE', ( #201 ), #296, .F. ) ;
#42 = EDGE_LOOP ( 'NONE', ( #170, #191, #278, #343 ) ) ;
#43 = FACE_OUTER_BOUND ( 'NONE', #24, .T. ) ;
#44 = CIRCLE ( 'NONE', #38, 4.099999999999999645 ) ;
#45 = COORDINATED_UNIVERSAL_TIME_OFFSET ( 1, 0, .AHEAD. ) ;
#46 = ORIENTED_EDGE ( 'NONE', *, *, #12, .F. ) ;
#47 = CIRCLE ( 'NONE', #233, 6.000000000000000888 ) ;
#48 = APPLICATION_PROTOCOL_DEFINITION ( 'international standard', 'config_control_design', 1994, #57 ) ;
#49 = ORIENTED_EDGE ( 'NONE', *, *, #26, .F. ) ;
#50 = DATE_AND_TIME ( #369, #167 ) ;
#51 = DIRECTION ( 'NONE',  ( 0.000000000000000000, 0.000000000000000000, 1.000000000000000000 ) ) ;
#52 = APPROVAL_STATUS ( 'not_yet_approved' ) ;
#53 = DIRECTION ( 'NONE',  ( 1.000000000000000000, 0.000000000000000000, 0.000000000000000000 ) ) ;
#54 = EDGE_CURVE ( 'NONE', #72, #142, #309, .T. ) ;
#55 = PERSON_AND_ORGANIZATION ( #23, #304 ) ;
#56 = DIRECTION ( 'NONE',  ( 1.000000000000000000, 0.000000000000000000, 0.000000000000000000 ) ) ;
#57 = APPLICATION_CONTEXT ( 'configuration controlled 3d designs of mechanical parts and assemblies' ) ;
#58 = DIRECTION ( 'NONE',  ( 1.000000000000000000, 0.000000000000000000, 0.000000000000000000 ) ) ;
#59 = CARTESIAN_POINT ( 'NONE',  ( -10.00000000000000000, 0.000000000000000000, 7.000000000000000000 ) ) ;
#60 = AXIS2_PLACEMENT_3D ( 'NONE', #183, #355, #58 ) ;
#61 = CARTESIAN_POINT ( 'NONE',  ( 0.000000000000000000, 0.000000000000000000, 0.000000000000000000 ) ) ;
#62 = FACE_OUTER_BOUND ( 'NONE', #230, .T. ) ;
#63 = EDGE_CURVE ( 'NONE', #307, #346, #333, .T. ) ;
#64 = LINE ( 'NONE', #121, #274 ) ;
#65 = CC_DESIGN_APPROVAL ( #165, ( #85 ) ) ;
#66 = VERTEX_POINT ( 'NONE', #375 ) ;
#67 = ORIENTED_EDGE ( 'NONE', *, *, #192, .T. ) ;
#68 = APPROVAL ( #52, 'NEURÈENÝ' ) ;
#69 = AXIS2_PLACEMENT_3D ( 'NONE', #147, #83, #53 ) ;
#70 = AXIS2_PLACEMENT_3D ( 'NONE', #298, #381, #295 ) ;
#71 = CARTESIAN_POINT ( 'NONE',  ( -10.00000000000000000, 0.000000000000000000, 0.000000000000000000 ) ) ;
#72 = VERTEX_POINT ( 'NONE', #25 ) ;
#73 = DIRECTION ( 'NONE',  ( 0.000000000000000000, 0.000000000000000000, 1.000000000000000000 ) ) ;
#74 = ORIENTED_EDGE ( 'NONE', *, *, #130, .T. ) ;
#75 = EDGE_CURVE ( 'NONE', #11, #289, #189, .T. ) ;
#76 = PERSON_AND_ORGANIZATION ( #23, #304 ) ;
#77 = VERTEX_POINT ( 'NONE', #174 ) ;
#78 = COORDINATED_UNIVERSAL_TIME_OFFSET ( 1, 0, .AHEAD. ) ;
#79 = AXIS2_PLACEMENT_3D ( 'NONE', #152, #212, #320 ) ;
#80 = CARTESIAN_POINT ( 'NONE',  ( 0.000000000000000000, 0.000000000000000000, 132.0000000000000000 ) ) ;
#81 = APPROVAL_DATE_TIME ( #50, #165 ) ;
#82 = CARTESIAN_POINT ( 'NONE',  ( 0.000000000000000000, 0.000000000000000000, 0.000000000000000000 ) ) ;
#83 = DIRECTION ( 'NONE',  ( -0.000000000000000000, -0.000000000000000000, -1.000000000000000000 ) ) ;
#84 = DATE_AND_TIME ( #116, #125 ) ;
#85 = PRODUCT_DEFINITION_FORMATION_WITH_SPECIFIED_SOURCE ( 'LIBOVOLNÝ', '', #88, .NOT_KNOWN. ) ;
#86 = DIRECTION ( 'NONE',  ( 0.000000000000000000, 0.000000000000000000, 1.000000000000000000 ) ) ;
#87 = DIRECTION ( 'NONE',  ( -0.000000000000000000, -0.000000000000000000, -1.000000000000000000 ) ) ;
#88 = PRODUCT ( '2523', '2523', '', ( #139 ) ) ;
#89 = AXIS2_PLACEMENT_3D ( 'NONE', #82, #317, #319 ) ;
#90 = DIRECTION ( 'NONE',  ( 1.000000000000000000, 0.000000000000000000, 0.000000000000000000 ) ) ;
#91 = CC_DESIGN_APPROVAL ( #68, ( #280 ) ) ;
#92 =( GEOMETRIC_REPRESENTATION_CONTEXT ( 3 ) GLOBAL_UNCERTAINTY_ASSIGNED_CONTEXT ( ( #225 ) ) GLOBAL_UNIT_ASSIGNED_CONTEXT ( ( #217, #101, #128 ) ) REPRESENTATION_CONTEXT ( 'NONE', 'WORKASPACE' ) );
#93 = LINE ( 'NONE', #59, #173 ) ;
#94 = DIRECTION ( 'NONE',  ( 1.000000000000000000, 0.000000000000000000, 0.000000000000000000 ) ) ;
#95 = EDGE_CURVE ( 'NONE', #142, #72, #123, .T. ) ;
#96 = CARTESIAN_POINT ( 'NONE',  ( 4.099999999999999645, 5.021051876504147385E-16, 132.0000000000000000 ) ) ;
#97 = AXIS2_PLACEMENT_3D ( 'NONE', #379, #340, #348 ) ;
#98 = SECURITY_CLASSIFICATION ( '', '', #203 ) ;
#99 = ORIENTED_EDGE ( 'NONE', *, *, #276, .F. ) ;
#100 = DIRECTION ( 'NONE',  ( 0.000000000000000000, 0.000000000000000000, -1.000000000000000000 ) ) ;
#101 =( NAMED_UNIT ( * ) PLANE_ANGLE_UNIT ( ) SI_UNIT ( $, .RADIAN. ) );
#102 = EDGE_LOOP ( 'NONE', ( #111, #370, #140, #286 ) ) ;
#103 = VECTOR ( 'NONE', #100, 1000.000000000000000 ) ;
#104 = FACE_BOUND ( 'NONE', #108, .T. ) ;
#105 = APPROVAL_STATUS ( 'not_yet_approved' ) ;
#106 = ORIENTED_EDGE ( 'NONE', *, *, #208, .T. ) ;
#107 = APPROVAL_DATE_TIME ( #338, #244 ) ;
#108 = EDGE_LOOP ( 'NONE', ( #250, #172 ) ) ;
#109 = APPROVAL_ROLE ( '' ) ;
#110 = AXIS2_PLACEMENT_3D ( 'NONE', #178, #86, #31 ) ;
#111 = ORIENTED_EDGE ( 'NONE', *, *, #356, .F. ) ;
#112 = AXIS2_PLACEMENT_3D ( 'NONE', #211, #32, #180 ) ;
#113 = PRODUCT_DEFINITION_SHAPE ( 'NONE', 'NONE',  #280 ) ;
#114 = APPROVAL_ROLE ( '' ) ;
#115 = CARTESIAN_POINT ( 'NONE',  ( 0.000000000000000000, 0.000000000000000000, 132.0000000000000000 ) ) ;
#116 = CALENDAR_DATE ( 2022, 8, 7 ) ;
#117 = ORIENTED_EDGE ( 'NONE', *, *, #315, .T. ) ;
#118 = CARTESIAN_POINT ( 'NONE',  ( 6.700000000000001066, 0.000000000000000000, 7.699999999999998401 ) ) ;
#119 = AXIS2_PLACEMENT_3D ( 'NONE', #300, #36, #186 ) ;
#120 = EDGE_CURVE ( 'NONE', #331, #346, #93, .T. ) ;
#121 = CARTESIAN_POINT ( 'NONE',  ( 6.000000000000000888, 7.347880794884120722E-16, 132.0000000000000000 ) ) ;
#122 = CARTESIAN_POINT ( 'NONE',  ( 0.000000000000000000, 0.000000000000000000, 7.000000000000000000 ) ) ;
#123 = CIRCLE ( 'NONE', #195, 4.099999999999999645 ) ;
#124 = DIRECTION ( 'NONE',  ( 0.000000000000000000, 0.000000000000000000, 1.000000000000000000 ) ) ;
#125 = LOCAL_TIME ( 16, 35, 31.00000000000000000, #45 ) ;
#126 = CYLINDRICAL_SURFACE ( 'NONE', #112, 10.00000000000000000 ) ;
#127 = ADVANCED_FACE ( 'NONE', ( #235 ), #350, .T. ) ;
#128 =( NAMED_UNIT ( * ) SI_UNIT ( $, .STERADIAN. ) SOLID_ANGLE_UNIT ( ) );
#129 = ORIENTED_EDGE ( 'NONE', *, *, #349, .F. ) ;
#130 = EDGE_CURVE ( 'NONE', #289, #11, #268, .T. ) ;
#131 = AXIS2_PLACEMENT_3D ( 'NONE', #330, #245, #271 ) ;
#132 = CARTESIAN_POINT ( 'NONE',  ( -6.000000000000000888, 0.000000000000000000, 132.0000000000000000 ) ) ;
#133 = DIRECTION ( 'NONE',  ( -1.000000000000000000, 1.224646799147353454E-16, 0.000000000000000000 ) ) ;
#134 = EDGE_LOOP ( 'NONE', ( #252, #106 ) ) ;
#135 = CYLINDRICAL_SURFACE ( 'NONE', #374, 4.099999999999999645 ) ;
#136 = EDGE_CURVE ( 'NONE', #77, #229, #64, .T. ) ;
#137 = ORIENTED_EDGE ( 'NONE', *, *, #130, .F. ) ;
#138 = TOROIDAL_SURFACE ( 'NONE', #70, 6.700000000000001066, 0.6999999999999999556 ) ;
#139 = MECHANICAL_CONTEXT ( 'NONE', #344, 'mechanical' ) ;
#140 = ORIENTED_EDGE ( 'NONE', *, *, #276, .T. ) ;
#141 = APPROVAL_DATE_TIME ( #285, #68 ) ;
#142 = VERTEX_POINT ( 'NONE', #29 ) ;
#143 = DATE_TIME_ROLE ( 'creation_date' ) ;
#144 = ORIENTED_EDGE ( 'NONE', *, *, #197, .T. ) ;
#145 = VECTOR ( 'NONE', #13, 1000.000000000000000 ) ;
#146 = ORIENTED_EDGE ( 'NONE', *, *, #154, .F. ) ;
#147 = CARTESIAN_POINT ( 'NONE',  ( 0.000000000000000000, 0.000000000000000000, 7.000000000000000000 ) ) ;
#148 = DIRECTION ( 'NONE',  ( 0.000000000000000000, 0.000000000000000000, 1.000000000000000000 ) ) ;
#149 = CC_DESIGN_PERSON_AND_ORGANIZATION_ASSIGNMENT ( #376, #22, ( #98 ) ) ;
#150 = AXIS2_PLACEMENT_3D ( 'NONE', #80, #284, #27 ) ;
#151 = DIRECTION ( 'NONE',  ( -0.000000000000000000, -0.000000000000000000, -1.000000000000000000 ) ) ;
#152 = CARTESIAN_POINT ( 'NONE',  ( 0.000000000000000000, 0.000000000000000000, 132.0000000000000000 ) ) ;
#153 = FACE_OUTER_BOUND ( 'NONE', #9, .T. ) ;
#154 = EDGE_CURVE ( 'NONE', #16, #229, #7, .T. ) ;
#155 = CARTESIAN_POINT ( 'NONE',  ( 0.000000000000000000, 0.000000000000000000, 132.0000000000000000 ) ) ;
#156 = CC_DESIGN_SECURITY_CLASSIFICATION ( #98, ( #85 ) ) ;
#157 = DIRECTION ( 'NONE',  ( -1.000000000000000000, 0.000000000000000000, 0.000000000000000000 ) ) ;
#158 = LINE ( 'NONE', #5, #103 ) ;
#159 = ORIENTED_EDGE ( 'NONE', *, *, #75, .T. ) ;
#160 = CARTESIAN_POINT ( 'NONE',  ( 0.000000000000000000, 0.000000000000000000, 132.0000000000000000 ) ) ;
#161 = AXIS2_PLACEMENT_3D ( 'NONE', #155, #3, #182 ) ;
#162 = DIRECTION ( 'NONE',  ( 0.000000000000000000, 0.000000000000000000, -1.000000000000000000 ) ) ;
#163 = ORIENTED_EDGE ( 'NONE', *, *, #366, .F. ) ;
#164 = ORIENTED_EDGE ( 'NONE', *, *, #136, .F. ) ;
#165 = APPROVAL ( #105, 'NEURÈENÝ' ) ;
#166 = LINE ( 'NONE', #302, #258 ) ;
#167 = LOCAL_TIME ( 16, 35, 31.00000000000000000, #345 ) ;
#168 = ORIENTED_EDGE ( 'NONE', *, *, #12, .T. ) ;
#169 = PERSON_AND_ORGANIZATION_ROLE ( 'creator' ) ;
#170 = ORIENTED_EDGE ( 'NONE', *, *, #325, .F. ) ;
#171 = CALENDAR_DATE ( 2022, 8, 7 ) ;
#172 = ORIENTED_EDGE ( 'NONE', *, *, #95, .F. ) ;
#173 = VECTOR ( 'NONE', #234, 1000.000000000000000 ) ;
#174 = CARTESIAN_POINT ( 'NONE',  ( 6.000000000000000888, 7.347880794884120722E-16, 132.0000000000000000 ) ) ;
#175 = ADVANCED_FACE ( 'NONE', ( #290, #323 ), #352, .T. ) ;
#176 = ORIENTED_EDGE ( 'NONE', *, *, #371, .T. ) ;
#177 = DIRECTION ( 'NONE',  ( 0.000000000000000000, 0.000000000000000000, 1.000000000000000000 ) ) ;
#178 = CARTESIAN_POINT ( 'NONE',  ( 0.000000000000000000, 0.000000000000000000, 7.699999999999998401 ) ) ;
#179 = AXIS2_PLACEMENT_3D ( 'NONE', #33, #87, #270 ) ;
#180 = DIRECTION ( 'NONE',  ( -1.000000000000000000, 0.000000000000000000, 0.000000000000000000 ) ) ;
#181 = EDGE_CURVE ( 'NONE', #346, #307, #202, .T. ) ;
#182 = DIRECTION ( 'NONE',  ( 1.000000000000000000, 0.000000000000000000, -0.000000000000000000 ) ) ;
#183 = CARTESIAN_POINT ( 'NONE',  ( 0.000000000000000000, 0.000000000000000000, 7.000000000000000000 ) ) ;
#184 = APPROVAL_PERSON_ORGANIZATION ( #283, #165, #114 ) ;
#185 = DIRECTION ( 'NONE',  ( 0.000000000000000000, 0.000000000000000000, -1.000000000000000000 ) ) ;
#186 = DIRECTION ( 'NONE',  ( 1.000000000000000000, 0.000000000000000000, -0.000000000000000000 ) ) ;
#187 = ORIENTED_EDGE ( 'NONE', *, *, #154, .T. ) ;
#188 = CARTESIAN_POINT ( 'NONE',  ( -6.700000000000001066, 8.205133554287267548E-16, 7.699999999999998401 ) ) ;
#189 = CIRCLE ( 'NONE', #69, 6.700000000000001066 ) ;
#190 = CARTESIAN_POINT ( 'NONE',  ( -4.099999999999999645, 0.000000000000000000, 132.0000000000000000 ) ) ;
#191 = ORIENTED_EDGE ( 'NONE', *, *, #197, .F. ) ;
#192 = EDGE_CURVE ( 'NONE', #229, #16, #257, .T. ) ;
#193 = ORIENTED_EDGE ( 'NONE', *, *, #329, .F. ) ;
#194 = ORIENTED_EDGE ( 'NONE', *, *, #181, .F. ) ;
#195 = AXIS2_PLACEMENT_3D ( 'NONE', #237, #266, #1 ) ;
#196 = SHAPE_DEFINITION_REPRESENTATION ( #113, #305 ) ;
#197 = EDGE_CURVE ( 'NONE', #331, #66, #335, .T. ) ;
#198 = ORIENTED_EDGE ( 'NONE', *, *, #325, .T. ) ;
#199 = PERSON_AND_ORGANIZATION ( #23, #304 ) ;
#200 = CARTESIAN_POINT ( 'NONE',  ( 0.000000000000000000, 0.000000000000000000, 0.000000000000000000 ) ) ;
#201 = FACE_OUTER_BOUND ( 'NONE', #102, .T. ) ;
#202 = CIRCLE ( 'NONE', #209, 10.00000000000000000 ) ;
#203 = SECURITY_CLASSIFICATION_LEVEL ( 'unclassified' ) ;
#204 = LOCAL_TIME ( 16, 35, 31.00000000000000000, #347 ) ;
#205 = CARTESIAN_POINT ( 'NONE',  ( 0.000000000000000000, 0.000000000000000000, 7.699999999999998401 ) ) ;
#206 = DIRECTION ( 'NONE',  ( 1.000000000000000000, 0.000000000000000000, 0.000000000000000000 ) ) ;
#207 = DIRECTION ( 'NONE',  ( 1.000000000000000000, 0.000000000000000000, 0.000000000000000000 ) ) ;
#208 = EDGE_CURVE ( 'NONE', #77, #373, #47, .T. ) ;
#209 = AXIS2_PLACEMENT_3D ( 'NONE', #61, #124, #94 ) ;
#210 = AXIS2_PLACEMENT_3D ( 'NONE', #277, #361, #358 ) ;
#211 = CARTESIAN_POINT ( 'NONE',  ( 0.000000000000000000, 0.000000000000000000, 7.000000000000000000 ) ) ;
#212 = DIRECTION ( 'NONE',  ( -0.000000000000000000, -0.000000000000000000, -1.000000000000000000 ) ) ;
#213 = CC_DESIGN_PERSON_AND_ORGANIZATION_ASSIGNMENT ( #55, #260, ( #85 ) ) ;
#214 = CARTESIAN_POINT ( 'NONE',  ( 6.700000000000001066, 0.000000000000000000, 6.999999999999999112 ) ) ;
#215 = AXIS2_PLACEMENT_3D ( 'NONE', #160, #73, #306 ) ;
#216 = DIRECTION ( 'NONE',  ( -0.000000000000000000, -0.000000000000000000, -1.000000000000000000 ) ) ;
#217 =( LENGTH_UNIT ( ) NAMED_UNIT ( * ) SI_UNIT ( .MILLI., .METRE. ) );
#218 = DIRECTION ( 'NONE',  ( -1.000000000000000000, 0.000000000000000000, 0.000000000000000000 ) ) ;
#219 = ADVANCED_FACE ( 'NONE', ( #62 ), #138, .F. ) ;
#220 = EDGE_LOOP ( 'NONE', ( #164, #49, #117, #187 ) ) ;
#221 = CIRCLE ( 'NONE', #131, 10.00000000000000000 ) ;
#222 = CARTESIAN_POINT ( 'NONE',  ( 10.00000000000000000, 1.224646799147353256E-15, 0.000000000000000000 ) ) ;
#223 = PERSON_AND_ORGANIZATION ( #23, #304 ) ;
#224 = DIRECTION ( 'NONE',  ( 1.000000000000000000, 0.000000000000000000, 0.000000000000000000 ) ) ;
#225 = UNCERTAINTY_MEASURE_WITH_UNIT (LENGTH_MEASURE( 1.000000000000000082E-05 ), #217, 'distance_accuracy_value', 'NONE');
#226 = DIRECTION ( 'NONE',  ( 1.000000000000000000, 0.000000000000000000, 0.000000000000000000 ) ) ;
#227 = DIRECTION ( 'NONE',  ( 0.000000000000000000, 0.000000000000000000, 1.000000000000000000 ) ) ;
#228 = AXIS2_PLACEMENT_3D ( 'NONE', #236, #293, #90 ) ;
#229 = VERTEX_POINT ( 'NONE', #294 ) ;
#230 = EDGE_LOOP ( 'NONE', ( #146, #14, #137, #99 ) ) ;
#231 = ORIENTED_EDGE ( 'NONE', *, *, #329, .T. ) ;
#232 = ADVANCED_FACE ( 'NONE', ( #153 ), #126, .T. ) ;
#233 = AXIS2_PLACEMENT_3D ( 'NONE', #269, #177, #207 ) ;
#234 = DIRECTION ( 'NONE',  ( -0.000000000000000000, -0.000000000000000000, -1.000000000000000000 ) ) ;
#235 = FACE_OUTER_BOUND ( 'NONE', #220, .T. ) ;
#236 = CARTESIAN_POINT ( 'NONE',  ( 0.000000000000000000, 0.000000000000000000, 7.699999999999998401 ) ) ;
#237 = CARTESIAN_POINT ( 'NONE',  ( 0.000000000000000000, 0.000000000000000000, 0.000000000000000000 ) ) ;
#238 = APPROVAL_PERSON_ORGANIZATION ( #76, #68, #109 ) ;
#239 = CARTESIAN_POINT ( 'NONE',  ( 0.000000000000000000, 0.000000000000000000, 132.0000000000000000 ) ) ;
#240 = ADVANCED_FACE ( 'NONE', ( #324 ), #267, .F. ) ;
#241 = CARTESIAN_POINT ( 'NONE',  ( 4.099999999999999645, 5.021051876504147385E-16, 132.0000000000000000 ) ) ;
#242 = EDGE_LOOP ( 'NONE', ( #46, #163 ) ) ;
#243 = APPLICATION_PROTOCOL_DEFINITION ( 'international standard', 'config_control_design', 1994, #344 ) ;
#244 = APPROVAL ( #313, 'NEURÈENÝ' ) ;
#245 = DIRECTION ( 'NONE',  ( 0.000000000000000000, 0.000000000000000000, 1.000000000000000000 ) ) ;
#246 = CARTESIAN_POINT ( 'NONE',  ( 0.000000000000000000, 0.000000000000000000, 132.0000000000000000 ) ) ;
#247 = CLOSED_SHELL ( 'NONE', ( #297, #219, #30, #232, #261, #287, #342, #127, #175, #41, #240 ) ) ;
#248 = LOCAL_TIME ( 16, 35, 31.00000000000000000, #78 ) ;
#249 = DIRECTION ( 'NONE',  ( 0.000000000000000000, 0.000000000000000000, 1.000000000000000000 ) ) ;
#250 = ORIENTED_EDGE ( 'NONE', *, *, #54, .F. ) ;
#251 = PERSON_AND_ORGANIZATION_ROLE ( 'creator' ) ;
#252 = ORIENTED_EDGE ( 'NONE', *, *, #26, .T. ) ;
#253 = DESIGN_CONTEXT ( 'detailed design', #57, 'design' ) ;
#254 = APPROVAL_ROLE ( '' ) ;
#255 = FACE_OUTER_BOUND ( 'NONE', #262, .T. ) ;
#256 = AXIS2_PLACEMENT_3D ( 'NONE', #205, #148, #224 ) ;
#257 = CIRCLE ( 'NONE', #228, 6.000000000000000888 ) ;
#258 = VECTOR ( 'NONE', #216, 1000.000000000000000 ) ;
#259 = DIRECTION ( 'NONE',  ( 1.000000000000000000, 0.000000000000000000, 0.000000000000000000 ) ) ;
#260 = PERSON_AND_ORGANIZATION_ROLE ( 'design_supplier' ) ;
#261 = ADVANCED_FACE ( 'NONE', ( #264 ), #351, .T. ) ;
#262 = EDGE_LOOP ( 'NONE', ( #263, #21, #67, #35 ) ) ;
#263 = ORIENTED_EDGE ( 'NONE', *, *, #208, .F. ) ;
#264 = FACE_OUTER_BOUND ( 'NONE', #42, .T. ) ;
#265 = CC_DESIGN_DATE_AND_TIME_ASSIGNMENT ( #84, #143, ( #280 ) ) ;
#266 = DIRECTION ( 'NONE',  ( -0.000000000000000000, -0.000000000000000000, -1.000000000000000000 ) ) ;
#267 = CYLINDRICAL_SURFACE ( 'NONE', #327, 4.099999999999999645 ) ;
#268 = CIRCLE ( 'NONE', #292, 6.700000000000001066 ) ;
#269 = CARTESIAN_POINT ( 'NONE',  ( 0.000000000000000000, 0.000000000000000000, 132.0000000000000000 ) ) ;
#270 = DIRECTION ( 'NONE',  ( -1.000000000000000000, 0.000000000000000000, 0.000000000000000000 ) ) ;
#271 = DIRECTION ( 'NONE',  ( 1.000000000000000000, 0.000000000000000000, 0.000000000000000000 ) ) ;
#272 = ORIENTED_EDGE ( 'NONE', *, *, #366, .T. ) ;
#273 = FACE_BOUND ( 'NONE', #310, .T. ) ;
#274 = VECTOR ( 'NONE', #4, 1000.000000000000000 ) ;
#275 = AXIS2_PLACEMENT_3D ( 'NONE', #316, #249, #226 ) ;
#276 = EDGE_CURVE ( 'NONE', #229, #289, #40, .T. ) ;
#277 = CARTESIAN_POINT ( 'NONE',  ( 0.000000000000000000, 0.000000000000000000, 0.000000000000000000 ) ) ;
#278 = ORIENTED_EDGE ( 'NONE', *, *, #120, .T. ) ;
#279 = PERSON_AND_ORGANIZATION ( #23, #304 ) ;
#280 = PRODUCT_DEFINITION ( 'NEZNÁMÝ', '', #85, #253 ) ;
#281 = CC_DESIGN_APPROVAL ( #244, ( #98 ) ) ;
#282 = EDGE_LOOP ( 'NONE', ( #194, #362 ) ) ;
#283 = PERSON_AND_ORGANIZATION ( #23, #304 ) ;
#284 = DIRECTION ( 'NONE',  ( -0.000000000000000000, -0.000000000000000000, -1.000000000000000000 ) ) ;
#285 = DATE_AND_TIME ( #171, #204 ) ;
#286 = ORIENTED_EDGE ( 'NONE', *, *, #75, .F. ) ;
#287 = ADVANCED_FACE ( 'NONE', ( #273, #43 ), #39, .T. ) ;
#288 = CARTESIAN_POINT ( 'NONE',  ( -6.000000000000000888, 0.000000000000000000, 7.699999999999998401 ) ) ;
#289 = VERTEX_POINT ( 'NONE', #214 ) ;
#290 = FACE_BOUND ( 'NONE', #242, .T. ) ;
#291 = CC_DESIGN_PERSON_AND_ORGANIZATION_ASSIGNMENT ( #199, #169, ( #85 ) ) ;
#292 = AXIS2_PLACEMENT_3D ( 'NONE', #122, #151, #206 ) ;
#293 = DIRECTION ( 'NONE',  ( 0.000000000000000000, 0.000000000000000000, 1.000000000000000000 ) ) ;
#294 = CARTESIAN_POINT ( 'NONE',  ( 6.000000000000000888, 7.347880794884120722E-16, 7.699999999999998401 ) ) ;
#295 = DIRECTION ( 'NONE',  ( 1.000000000000000000, 0.000000000000000000, 0.000000000000000000 ) ) ;
#296 = TOROIDAL_SURFACE ( 'NONE', #256, 6.700000000000001066, 0.6999999999999999556 ) ;
#297 = ADVANCED_FACE ( 'NONE', ( #332 ), #135, .F. ) ;
#298 = CARTESIAN_POINT ( 'NONE',  ( 0.000000000000000000, 0.000000000000000000, 7.699999999999998401 ) ) ;
#299 = AXIS2_PLACEMENT_3D ( 'NONE', #188, #34, #133 ) ;
#300 = CARTESIAN_POINT ( 'NONE',  ( 0.000000000000000000, 0.000000000000000000, 7.000000000000000000 ) ) ;
#301 = EDGE_LOOP ( 'NONE', ( #129, #272, #231, #312 ) ) ;
#302 = CARTESIAN_POINT ( 'NONE',  ( -6.000000000000000888, 0.000000000000000000, 132.0000000000000000 ) ) ;
#303 = CARTESIAN_POINT ( 'NONE',  ( 10.00000000000000000, 1.224646799147353256E-15, 7.000000000000000000 ) ) ;
#304 = ORGANIZATION ( 'NEURÈENÝ', 'NEURÈENÝ', '' ) ;
#305 = ADVANCED_BREP_SHAPE_REPRESENTATION ( '2523', ( #322, #275 ), #92 ) ;
#306 = DIRECTION ( 'NONE',  ( 1.000000000000000000, 0.000000000000000000, 0.000000000000000000 ) ) ;
#307 = VERTEX_POINT ( 'NONE', #222 ) ;
#308 = PERSON_AND_ORGANIZATION_ROLE ( 'design_owner' ) ;
#309 = CIRCLE ( 'NONE', #89, 4.099999999999999645 ) ;
#310 = EDGE_LOOP ( 'NONE', ( #74, #159 ) ) ;
#311 = APPROVAL_PERSON_ORGANIZATION ( #223, #244, #254 ) ;
#312 = ORIENTED_EDGE ( 'NONE', *, *, #54, .T. ) ;
#313 = APPROVAL_STATUS ( 'not_yet_approved' ) ;
#314 = CYLINDRICAL_SURFACE ( 'NONE', #150, 6.000000000000000888 ) ;
#315 = EDGE_CURVE ( 'NONE', #373, #16, #166, .T. ) ;
#316 = CARTESIAN_POINT ( 'NONE',  ( 0.000000000000000000, 0.000000000000000000, 0.000000000000000000 ) ) ;
#317 = DIRECTION ( 'NONE',  ( -0.000000000000000000, -0.000000000000000000, -1.000000000000000000 ) ) ;
#318 = DATE_TIME_ROLE ( 'classification_date' ) ;
#319 = DIRECTION ( 'NONE',  ( 1.000000000000000000, 0.000000000000000000, 0.000000000000000000 ) ) ;
#320 = DIRECTION ( 'NONE',  ( -1.000000000000000000, 0.000000000000000000, 0.000000000000000000 ) ) ;
#321 = DIRECTION ( 'NONE',  ( 0.000000000000000000, -1.000000000000000000, 0.000000000000000000 ) ) ;
#322 = MANIFOLD_SOLID_BREP ( 'Odebrat vysunutím3', #247 ) ;
#323 = FACE_OUTER_BOUND ( 'NONE', #134, .T. ) ;
#324 = FACE_OUTER_BOUND ( 'NONE', #301, .T. ) ;
#325 = EDGE_CURVE ( 'NONE', #66, #307, #365, .T. ) ;
#326 = PLANE ( 'NONE',  #210 ) ;
#327 = AXIS2_PLACEMENT_3D ( 'NONE', #239, #357, #157 ) ;
#328 = ORIENTED_EDGE ( 'NONE', *, *, #349, .T. ) ;
#329 = EDGE_CURVE ( 'NONE', #364, #72, #158, .T. ) ;
#330 = CARTESIAN_POINT ( 'NONE',  ( 0.000000000000000000, 0.000000000000000000, 7.000000000000000000 ) ) ;
#331 = VERTEX_POINT ( 'NONE', #363 ) ;
#332 = FACE_OUTER_BOUND ( 'NONE', #368, .T. ) ;
#333 = CIRCLE ( 'NONE', #353, 10.00000000000000000 ) ;
#334 = ORIENTED_EDGE ( 'NONE', *, *, #63, .T. ) ;
#335 = CIRCLE ( 'NONE', #60, 10.00000000000000000 ) ;
#336 = FACE_OUTER_BOUND ( 'NONE', #282, .T. ) ;
#337 = ORIENTED_EDGE ( 'NONE', *, *, #371, .F. ) ;
#338 = DATE_AND_TIME ( #372, #248 ) ;
#339 = VERTEX_POINT ( 'NONE', #96 ) ;
#340 = DIRECTION ( 'NONE',  ( 0.000000000000000000, 0.000000000000000000, 1.000000000000000000 ) ) ;
#341 = CALENDAR_DATE ( 2022, 8, 7 ) ;
#342 = ADVANCED_FACE ( 'NONE', ( #104, #336 ), #326, .F. ) ;
#343 = ORIENTED_EDGE ( 'NONE', *, *, #181, .T. ) ;
#344 = APPLICATION_CONTEXT ( 'configuration controlled 3d designs of mechanical parts and assemblies' ) ;
#345 = COORDINATED_UNIVERSAL_TIME_OFFSET ( 1, 0, .AHEAD. ) ;
#346 = VERTEX_POINT ( 'NONE', #71 ) ;
#347 = COORDINATED_UNIVERSAL_TIME_OFFSET ( 1, 0, .AHEAD. ) ;
#348 = DIRECTION ( 'NONE',  ( 1.000000000000000000, 0.000000000000000000, 0.000000000000000000 ) ) ;
#349 = EDGE_CURVE ( 'NONE', #339, #142, #10, .T. ) ;
#350 = CYLINDRICAL_SURFACE ( 'NONE', #79, 6.000000000000000888 ) ;
#351 = CYLINDRICAL_SURFACE ( 'NONE', #179, 10.00000000000000000 ) ;
#352 = PLANE ( 'NONE',  #161 ) ;
#353 = AXIS2_PLACEMENT_3D ( 'NONE', #200, #51, #259 ) ;
#354 = CIRCLE ( 'NONE', #299, 0.7000000000000000666 ) ;
#355 = DIRECTION ( 'NONE',  ( 0.000000000000000000, 0.000000000000000000, 1.000000000000000000 ) ) ;
#356 = EDGE_CURVE ( 'NONE', #16, #11, #354, .T. ) ;
#357 = DIRECTION ( 'NONE',  ( 0.000000000000000000, 0.000000000000000000, -1.000000000000000000 ) ) ;
#358 = DIRECTION ( 'NONE',  ( 1.000000000000000000, 0.000000000000000000, -0.000000000000000000 ) ) ;
#359 = CIRCLE ( 'NONE', #97, 6.000000000000000888 ) ;
#360 = CIRCLE ( 'NONE', #215, 4.099999999999999645 ) ;
#361 = DIRECTION ( 'NONE',  ( 0.000000000000000000, 0.000000000000000000, 1.000000000000000000 ) ) ;
#362 = ORIENTED_EDGE ( 'NONE', *, *, #63, .F. ) ;
#363 = CARTESIAN_POINT ( 'NONE',  ( -10.00000000000000000, 0.000000000000000000, 7.000000000000000000 ) ) ;
#364 = VERTEX_POINT ( 'NONE', #190 ) ;
#365 = LINE ( 'NONE', #303, #145 ) ;
#366 = EDGE_CURVE ( 'NONE', #339, #364, #360, .T. ) ;
#367 = PERSON_AND_ORGANIZATION ( #23, #304 ) ;
#368 = EDGE_LOOP ( 'NONE', ( #168, #328, #377, #193 ) ) ;
#369 = CALENDAR_DATE ( 2022, 8, 7 ) ;
#370 = ORIENTED_EDGE ( 'NONE', *, *, #192, .F. ) ;
#371 = EDGE_CURVE ( 'NONE', #66, #331, #221, .T. ) ;
#372 = CALENDAR_DATE ( 2022, 8, 7 ) ;
#373 = VERTEX_POINT ( 'NONE', #132 ) ;
#374 = AXIS2_PLACEMENT_3D ( 'NONE', #246, #8, #218 ) ;
#375 = CARTESIAN_POINT ( 'NONE',  ( 10.00000000000000000, 1.224646799147353256E-15, 7.000000000000000000 ) ) ;
#376 = PERSON_AND_ORGANIZATION ( #23, #304 ) ;
#377 = ORIENTED_EDGE ( 'NONE', *, *, #95, .T. ) ;
#378 = CC_DESIGN_PERSON_AND_ORGANIZATION_ASSIGNMENT ( #279, #308, ( #88 ) ) ;
#379 = CARTESIAN_POINT ( 'NONE',  ( 0.000000000000000000, 0.000000000000000000, 132.0000000000000000 ) ) ;
#380 = VECTOR ( 'NONE', #185, 1000.000000000000000 ) ;
#381 = DIRECTION ( 'NONE',  ( 0.000000000000000000, 0.000000000000000000, 1.000000000000000000 ) ) ;
ENDSEC;
END-ISO-10303-21;
