ISO-10303-21;
HEADER;
FILE_DESCRIPTION (( 'STEP AP203' ),
    '1' );
FILE_NAME ('d0e4.STEP',
    '2022-07-08T15:34:44',
    ( '' ),
    ( '' ),
    'SwSTEP 2.0',
    'SolidWorks 2019',
    '' );
FILE_SCHEMA (( 'CONFIG_CONTROL_DESIGN' ));
ENDSEC;

DATA;
#1 = EDGE_CURVE ( 'NONE', #372, #5, #211, .T. ) ;
#2 = LINE ( 'NONE', #264, #228 ) ;
#3 = EDGE_LOOP ( 'NONE', ( #135, #274 ) ) ;
#4 = CIRCLE ( 'NONE', #142, 0.4999999999999995559 ) ;
#5 = VERTEX_POINT ( 'NONE', #30 ) ;
#6 = CIRCLE ( 'NONE', #133, 3.000000000000000444 ) ;
#7 = DIRECTION ( 'NONE',  ( 1.000000000000000000, 0.000000000000000000, 0.000000000000000000 ) ) ;
#8 = DIRECTION ( 'NONE',  ( 0.000000000000000000, 0.000000000000000000, -1.000000000000000000 ) ) ;
#9 = APPLICATION_CONTEXT ( 'configuration controlled 3d designs of mechanical parts and assemblies' ) ;
#10 = AXIS2_PLACEMENT_3D ( 'NONE', #233, #170, #94 ) ;
#11 = DIRECTION ( 'NONE',  ( 1.000000000000000000, 0.000000000000000000, 0.000000000000000000 ) ) ;
#12 = ORIENTED_EDGE ( 'NONE', *, *, #156, .T. ) ;
#13 = CYLINDRICAL_SURFACE ( 'NONE', #74, 3.000000000000000444 ) ;
#14 = CLOSED_SHELL ( 'NONE', ( #62, #173, #330, #117, #220, #84, #15, #299, #182, #72, #307 ) ) ;
#15 = ADVANCED_FACE ( 'NONE', ( #91, #331 ), #356, .F. ) ;
#16 = ORIENTED_EDGE ( 'NONE', *, *, #254, .T. ) ;
#17 = CARTESIAN_POINT ( 'NONE',  ( 0.000000000000000000, 0.000000000000000000, 405.0000000000000000 ) ) ;
#18 = CC_DESIGN_SECURITY_CLASSIFICATION ( #54, ( #24 ) ) ;
#19 = DATE_TIME_ROLE ( 'creation_date' ) ;
#20 = FACE_OUTER_BOUND ( 'NONE', #175, .T. ) ;
#21 = AXIS2_PLACEMENT_3D ( 'NONE', #334, #229, #230 ) ;
#22 = DATE_AND_TIME ( #286, #161 ) ;
#23 = DIRECTION ( 'NONE',  ( 1.000000000000000000, 0.000000000000000000, 0.000000000000000000 ) ) ;
#24 = PRODUCT_DEFINITION_FORMATION_WITH_SPECIFIED_SOURCE ( 'LIBOVOLNÝ', '', #278, .NOT_KNOWN. ) ;
#25 = ORIENTED_EDGE ( 'NONE', *, *, #241, .F. ) ;
#26 = PERSON_AND_ORGANIZATION ( #155, #354 ) ;
#27 = CARTESIAN_POINT ( 'NONE',  ( 3.000000000000000444, 3.673940397442060361E-16, 405.0000000000000000 ) ) ;
#28 = TOROIDAL_SURFACE ( 'NONE', #214, 3.500000000000000444, 0.5000000000000000000 ) ;
#29 = APPLICATION_CONTEXT ( 'configuration controlled 3d designs of mechanical parts and assemblies' ) ;
#30 = CARTESIAN_POINT ( 'NONE',  ( 3.500000000000000444, 0.000000000000000000, 5.000000000000002665 ) ) ;
#31 = FACE_OUTER_BOUND ( 'NONE', #238, .T. ) ;
#32 = COORDINATED_UNIVERSAL_TIME_OFFSET ( 1, 0, .AHEAD. ) ;
#33 = ADVANCED_BREP_SHAPE_REPRESENTATION ( 'd0e4', ( #287, #266 ), #78 ) ;
#34 = AXIS2_PLACEMENT_3D ( 'NONE', #64, #141, #70 ) ;
#35 = CC_DESIGN_PERSON_AND_ORGANIZATION_ASSIGNMENT ( #373, #245, ( #24 ) ) ;
#36 = DIRECTION ( 'NONE',  ( -1.000000000000000000, 0.000000000000000000, 0.000000000000000000 ) ) ;
#37 = CYLINDRICAL_SURFACE ( 'NONE', #146, 3.000000000000000444 ) ;
#38 = CARTESIAN_POINT ( 'NONE',  ( 0.000000000000000000, 0.000000000000000000, 5.500000000000005329 ) ) ;
#39 = VERTEX_POINT ( 'NONE', #267 ) ;
#40 = DIRECTION ( 'NONE',  ( -1.000000000000000000, 0.000000000000000000, 0.000000000000000000 ) ) ;
#41 = CIRCLE ( 'NONE', #65, 3.500000000000000444 ) ;
#42 = VERTEX_POINT ( 'NONE', #203 ) ;
#43 = CARTESIAN_POINT ( 'NONE',  ( 0.000000000000000000, 0.000000000000000000, 0.000000000000000000 ) ) ;
#44 = DIRECTION ( 'NONE',  ( 0.000000000000000000, 0.000000000000000000, -1.000000000000000000 ) ) ;
#45 = CARTESIAN_POINT ( 'NONE',  ( -6.000000000000000888, 0.000000000000000000, 5.000000000000000000 ) ) ;
#46 = DIRECTION ( 'NONE',  ( 0.000000000000000000, 0.000000000000000000, -1.000000000000000000 ) ) ;
#47 = VECTOR ( 'NONE', #56, 1000.000000000000000 ) ;
#48 = MECHANICAL_CONTEXT ( 'NONE', #9, 'mechanical' ) ;
#49 = DIRECTION ( 'NONE',  ( 0.000000000000000000, 0.000000000000000000, 1.000000000000000000 ) ) ;
#50 = EDGE_CURVE ( 'NONE', #199, #5, #322, .T. ) ;
#51 = CARTESIAN_POINT ( 'NONE',  ( -2.000000000000000000, 0.000000000000000000, 0.000000000000000000 ) ) ;
#52 = TOROIDAL_SURFACE ( 'NONE', #311, 3.500000000000000444, 0.5000000000000000000 ) ;
#53 = CARTESIAN_POINT ( 'NONE',  ( 2.000000000000000000, 2.449293598294706414E-16, 0.000000000000000000 ) ) ;
#54 = SECURITY_CLASSIFICATION ( '', '', #219 ) ;
#55 = COORDINATED_UNIVERSAL_TIME_OFFSET ( 1, 0, .AHEAD. ) ;
#56 = DIRECTION ( 'NONE',  ( -0.000000000000000000, -0.000000000000000000, -1.000000000000000000 ) ) ;
#57 = ORIENTED_EDGE ( 'NONE', *, *, #114, .T. ) ;
#58 = EDGE_CURVE ( 'NONE', #42, #67, #204, .T. ) ;
#59 = ORIENTED_EDGE ( 'NONE', *, *, #145, .F. ) ;
#60 = AXIS2_PLACEMENT_3D ( 'NONE', #160, #49, #197 ) ;
#61 = APPROVAL_ROLE ( '' ) ;
#62 = ADVANCED_FACE ( 'NONE', ( #298 ), #71, .F. ) ;
#63 = CARTESIAN_POINT ( 'NONE',  ( 0.000000000000000000, 0.000000000000000000, 0.000000000000000000 ) ) ;
#64 = CARTESIAN_POINT ( 'NONE',  ( 0.000000000000000000, 0.000000000000000000, 0.000000000000000000 ) ) ;
#65 = AXIS2_PLACEMENT_3D ( 'NONE', #263, #301, #335 ) ;
#66 = ORIENTED_EDGE ( 'NONE', *, *, #254, .F. ) ;
#67 = VERTEX_POINT ( 'NONE', #310 ) ;
#68 = CC_DESIGN_PERSON_AND_ORGANIZATION_ASSIGNMENT ( #289, #376, ( #278 ) ) ;
#69 = PRODUCT_DEFINITION_SHAPE ( 'NONE', 'NONE',  #365 ) ;
#70 = DIRECTION ( 'NONE',  ( 1.000000000000000000, 0.000000000000000000, 0.000000000000000000 ) ) ;
#71 = CYLINDRICAL_SURFACE ( 'NONE', #378, 2.000000000000000000 ) ;
#72 = ADVANCED_FACE ( 'NONE', ( #20 ), #52, .F. ) ;
#73 = CARTESIAN_POINT ( 'NONE',  ( -6.000000000000000888, 0.000000000000000000, 5.000000000000000000 ) ) ;
#74 = AXIS2_PLACEMENT_3D ( 'NONE', #126, #127, #338 ) ;
#75 = CARTESIAN_POINT ( 'NONE',  ( -3.000000000000000444, 0.000000000000000000, 405.0000000000000000 ) ) ;
#76 = CARTESIAN_POINT ( 'NONE',  ( 0.000000000000000000, 0.000000000000000000, 405.0000000000000000 ) ) ;
#77 = PERSON_AND_ORGANIZATION ( #155, #354 ) ;
#78 =( GEOMETRIC_REPRESENTATION_CONTEXT ( 3 ) GLOBAL_UNCERTAINTY_ASSIGNED_CONTEXT ( ( #353 ) ) GLOBAL_UNIT_ASSIGNED_CONTEXT ( ( #239, #176, #271 ) ) REPRESENTATION_CONTEXT ( 'NONE', 'WORKASPACE' ) );
#79 = EDGE_CURVE ( 'NONE', #351, #372, #246, .T. ) ;
#80 = DATE_AND_TIME ( #200, #359 ) ;
#81 = DIRECTION ( 'NONE',  ( 0.000000000000000000, 0.000000000000000000, 1.000000000000000000 ) ) ;
#82 = ORIENTED_EDGE ( 'NONE', *, *, #1, .F. ) ;
#83 = APPROVAL_ROLE ( '' ) ;
#84 = ADVANCED_FACE ( 'NONE', ( #363, #213 ), #189, .T. ) ;
#85 = DIRECTION ( 'NONE',  ( -1.000000000000000000, 1.224646799147354440E-16, 0.000000000000000000 ) ) ;
#86 = VERTEX_POINT ( 'NONE', #253 ) ;
#87 = CIRCLE ( 'NONE', #258, 6.000000000000000888 ) ;
#88 = EDGE_LOOP ( 'NONE', ( #308, #352, #138, #153 ) ) ;
#89 = APPROVAL_STATUS ( 'not_yet_approved' ) ;
#90 = FACE_OUTER_BOUND ( 'NONE', #328, .T. ) ;
#91 = FACE_BOUND ( 'NONE', #276, .T. ) ;
#92 = CIRCLE ( 'NONE', #112, 2.000000000000000000 ) ;
#93 = DATE_TIME_ROLE ( 'classification_date' ) ;
#94 = DIRECTION ( 'NONE',  ( 1.000000000000000000, 0.000000000000000000, 0.000000000000000000 ) ) ;
#95 = ORIENTED_EDGE ( 'NONE', *, *, #123, .F. ) ;
#96 = AXIS2_PLACEMENT_3D ( 'NONE', #212, #236, #244 ) ;
#97 = CARTESIAN_POINT ( 'NONE',  ( 3.000000000000000444, 3.673940397442060361E-16, 5.500000000000005329 ) ) ;
#98 = DIRECTION ( 'NONE',  ( 1.000000000000000000, 0.000000000000000000, 0.000000000000000000 ) ) ;
#99 = VERTEX_POINT ( 'NONE', #53 ) ;
#100 = DIRECTION ( 'NONE',  ( 0.000000000000000000, 0.000000000000000000, -1.000000000000000000 ) ) ;
#101 = AXIS2_PLACEMENT_3D ( 'NONE', #201, #268, #148 ) ;
#102 = DIRECTION ( 'NONE',  ( -1.000000000000000000, 0.000000000000000000, 0.000000000000000000 ) ) ;
#103 = APPROVAL ( #89, 'NEURÈENÝ' ) ;
#104 = PERSON_AND_ORGANIZATION_ROLE ( 'design_supplier' ) ;
#105 = DIRECTION ( 'NONE',  ( 0.000000000000000000, 0.000000000000000000, 1.000000000000000000 ) ) ;
#106 = CALENDAR_DATE ( 2022, 8, 7 ) ;
#107 = VECTOR ( 'NONE', #8, 1000.000000000000000 ) ;
#108 = ORIENTED_EDGE ( 'NONE', *, *, #1, .T. ) ;
#109 = PERSON_AND_ORGANIZATION ( #155, #354 ) ;
#110 = AXIS2_PLACEMENT_3D ( 'NONE', #38, #122, #152 ) ;
#111 = VERTEX_POINT ( 'NONE', #27 ) ;
#112 = AXIS2_PLACEMENT_3D ( 'NONE', #151, #215, #309 ) ;
#113 = CARTESIAN_POINT ( 'NONE',  ( 0.000000000000000000, 0.000000000000000000, 405.0000000000000000 ) ) ;
#114 = EDGE_CURVE ( 'NONE', #351, #199, #4, .T. ) ;
#115 = CIRCLE ( 'NONE', #96, 3.000000000000000444 ) ;
#116 = CARTESIAN_POINT ( 'NONE',  ( 0.000000000000000000, 0.000000000000000000, 5.000000000000000000 ) ) ;
#117 = ADVANCED_FACE ( 'NONE', ( #284 ), #221, .T. ) ;
#118 = CALENDAR_DATE ( 2022, 8, 7 ) ;
#119 = EDGE_LOOP ( 'NONE', ( #232, #364 ) ) ;
#120 = CYLINDRICAL_SURFACE ( 'NONE', #237, 2.000000000000000000 ) ;
#121 = LINE ( 'NONE', #240, #150 ) ;
#122 = DIRECTION ( 'NONE',  ( 0.000000000000000000, 0.000000000000000000, 1.000000000000000000 ) ) ;
#123 = EDGE_CURVE ( 'NONE', #39, #178, #208, .T. ) ;
#124 = AXIS2_PLACEMENT_3D ( 'NONE', #318, #321, #380 ) ;
#125 = ORIENTED_EDGE ( 'NONE', *, *, #375, .T. ) ;
#126 = CARTESIAN_POINT ( 'NONE',  ( 0.000000000000000000, 0.000000000000000000, 405.0000000000000000 ) ) ;
#127 = DIRECTION ( 'NONE',  ( -0.000000000000000000, -0.000000000000000000, -1.000000000000000000 ) ) ;
#128 = LOCAL_TIME ( 17, 34, 44.00000000000000000, #325 ) ;
#129 = VERTEX_POINT ( 'NONE', #51 ) ;
#130 = APPROVAL_ROLE ( '' ) ;
#131 = ORIENTED_EDGE ( 'NONE', *, *, #375, .F. ) ;
#132 = CARTESIAN_POINT ( 'NONE',  ( 3.000000000000000444, 3.673940397442060361E-16, 405.0000000000000000 ) ) ;
#133 = AXIS2_PLACEMENT_3D ( 'NONE', #76, #275, #11 ) ;
#134 = DIRECTION ( 'NONE',  ( -0.000000000000000000, -0.000000000000000000, -1.000000000000000000 ) ) ;
#135 = ORIENTED_EDGE ( 'NONE', *, *, #312, .F. ) ;
#136 = CC_DESIGN_PERSON_AND_ORGANIZATION_ASSIGNMENT ( #77, #187, ( #54 ) ) ;
#137 = CARTESIAN_POINT ( 'NONE',  ( 0.000000000000000000, 0.000000000000000000, 5.000000000000000000 ) ) ;
#138 = ORIENTED_EDGE ( 'NONE', *, *, #123, .T. ) ;
#139 = VECTOR ( 'NONE', #314, 1000.000000000000000 ) ;
#140 = DIRECTION ( 'NONE',  ( -0.000000000000000000, -0.000000000000000000, -1.000000000000000000 ) ) ;
#141 = DIRECTION ( 'NONE',  ( 0.000000000000000000, 0.000000000000000000, 1.000000000000000000 ) ) ;
#142 = AXIS2_PLACEMENT_3D ( 'NONE', #296, #347, #85 ) ;
#143 = EDGE_LOOP ( 'NONE', ( #190, #303, #12, #186 ) ) ;
#144 = APPROVAL_DATE_TIME ( #332, #272 ) ;
#145 = EDGE_CURVE ( 'NONE', #295, #306, #167, .T. ) ;
#146 = AXIS2_PLACEMENT_3D ( 'NONE', #17, #358, #102 ) ;
#147 = CIRCLE ( 'NONE', #10, 2.000000000000000000 ) ;
#148 = DIRECTION ( 'NONE',  ( 1.000000000000000000, 0.000000000000000000, -0.000000000000000000 ) ) ;
#149 = CARTESIAN_POINT ( 'NONE',  ( 0.000000000000000000, 0.000000000000000000, 5.500000000000005329 ) ) ;
#150 = VECTOR ( 'NONE', #46, 1000.000000000000000 ) ;
#151 = CARTESIAN_POINT ( 'NONE',  ( 0.000000000000000000, 0.000000000000000000, 405.0000000000000000 ) ) ;
#152 = DIRECTION ( 'NONE',  ( 1.000000000000000000, 0.000000000000000000, 0.000000000000000000 ) ) ;
#153 = ORIENTED_EDGE ( 'NONE', *, *, #302, .F. ) ;
#154 = CARTESIAN_POINT ( 'NONE',  ( 0.000000000000000000, 0.000000000000000000, 405.0000000000000000 ) ) ;
#155 = PERSON ( 'NEURÈENÝ', 'NEURÈENÝ', 'NEURÈENÝ', ('NEURÈENÝ'), ('NEURÈENÝ'), ('NEURÈENÝ') ) ;
#156 = EDGE_CURVE ( 'NONE', #372, #351, #206, .T. ) ;
#157 = EDGE_LOOP ( 'NONE', ( #260, #57, #279, #82 ) ) ;
#158 = COORDINATED_UNIVERSAL_TIME_OFFSET ( 1, 0, .AHEAD. ) ;
#159 = EDGE_LOOP ( 'NONE', ( #355, #162 ) ) ;
#160 = CARTESIAN_POINT ( 'NONE',  ( 0.000000000000000000, 0.000000000000000000, 0.000000000000000000 ) ) ;
#161 = LOCAL_TIME ( 17, 34, 44.00000000000000000, #158 ) ;
#162 = ORIENTED_EDGE ( 'NONE', *, *, #192, .T. ) ;
#163 = CARTESIAN_POINT ( 'NONE',  ( 0.000000000000000000, 0.000000000000000000, 5.500000000000005329 ) ) ;
#164 = ORIENTED_EDGE ( 'NONE', *, *, #177, .F. ) ;
#165 = CALENDAR_DATE ( 2022, 8, 7 ) ;
#166 = CARTESIAN_POINT ( 'NONE',  ( 0.000000000000000000, 0.000000000000000000, 5.000000000000000000 ) ) ;
#167 = CIRCLE ( 'NONE', #179, 6.000000000000000888 ) ;
#168 = DIRECTION ( 'NONE',  ( 1.000000000000000000, 0.000000000000000000, 0.000000000000000000 ) ) ;
#169 = DESIGN_CONTEXT ( 'detailed design', #29, 'design' ) ;
#170 = DIRECTION ( 'NONE',  ( -0.000000000000000000, -0.000000000000000000, -1.000000000000000000 ) ) ;
#171 = PERSON_AND_ORGANIZATION ( #155, #354 ) ;
#172 = DIRECTION ( 'NONE',  ( -0.000000000000000000, -0.000000000000000000, -1.000000000000000000 ) ) ;
#173 = ADVANCED_FACE ( 'NONE', ( #291 ), #28, .F. ) ;
#174 = CC_DESIGN_APPROVAL ( #272, ( #54 ) ) ;
#175 = EDGE_LOOP ( 'NONE', ( #218, #370, #108, #361 ) ) ;
#176 =( NAMED_UNIT ( * ) PLANE_ANGLE_UNIT ( ) SI_UNIT ( $, .RADIAN. ) );
#177 = EDGE_CURVE ( 'NONE', #111, #372, #188, .T. ) ;
#178 = VERTEX_POINT ( 'NONE', #256 ) ;
#179 = AXIS2_PLACEMENT_3D ( 'NONE', #137, #105, #23 ) ;
#180 = LINE ( 'NONE', #73, #139 ) ;
#181 = DIRECTION ( 'NONE',  ( -0.000000000000000000, -0.000000000000000000, -1.000000000000000000 ) ) ;
#182 = ADVANCED_FACE ( 'NONE', ( #350, #90 ), #327, .T. ) ;
#183 = ORIENTED_EDGE ( 'NONE', *, *, #292, .F. ) ;
#184 = CARTESIAN_POINT ( 'NONE',  ( -3.000000000000000444, 0.000000000000000000, 5.500000000000005329 ) ) ;
#185 = CC_DESIGN_PERSON_AND_ORGANIZATION_ASSIGNMENT ( #369, #104, ( #24 ) ) ;
#186 = ORIENTED_EDGE ( 'NONE', *, *, #265, .F. ) ;
#187 = PERSON_AND_ORGANIZATION_ROLE ( 'classification_officer' ) ;
#188 = LINE ( 'NONE', #132, #47 ) ;
#189 = PLANE ( 'NONE',  #124 ) ;
#190 = ORIENTED_EDGE ( 'NONE', *, *, #341, .F. ) ;
#191 = AXIS2_PLACEMENT_3D ( 'NONE', #166, #140, #261 ) ;
#192 = EDGE_CURVE ( 'NONE', #306, #295, #87, .T. ) ;
#193 = DIRECTION ( 'NONE',  ( -1.000000000000000000, 0.000000000000000000, 0.000000000000000000 ) ) ;
#194 = ORIENTED_EDGE ( 'NONE', *, *, #209, .F. ) ;
#195 = APPROVAL_STATUS ( 'not_yet_approved' ) ;
#196 = CC_DESIGN_APPROVAL ( #103, ( #24 ) ) ;
#197 = DIRECTION ( 'NONE',  ( 1.000000000000000000, 0.000000000000000000, 0.000000000000000000 ) ) ;
#198 = APPROVAL ( #195, 'NEURÈENÝ' ) ;
#199 = VERTEX_POINT ( 'NONE', #205 ) ;
#200 = CALENDAR_DATE ( 2022, 8, 7 ) ;
#201 = CARTESIAN_POINT ( 'NONE',  ( 0.000000000000000000, 0.000000000000000000, 405.0000000000000000 ) ) ;
#202 = ORIENTED_EDGE ( 'NONE', *, *, #302, .T. ) ;
#203 = CARTESIAN_POINT ( 'NONE',  ( 2.000000000000000000, 2.449293598294706414E-16, 405.0000000000000000 ) ) ;
#204 = CIRCLE ( 'NONE', #285, 2.000000000000000000 ) ;
#205 = CARTESIAN_POINT ( 'NONE',  ( -3.500000000000000444, 4.286263797015737088E-16, 5.000000000000002665 ) ) ;
#206 = CIRCLE ( 'NONE', #342, 3.000000000000000444 ) ;
#207 = DIRECTION ( 'NONE',  ( -0.000000000000000000, -0.000000000000000000, -1.000000000000000000 ) ) ;
#208 = CIRCLE ( 'NONE', #60, 6.000000000000000888 ) ;
#209 = EDGE_CURVE ( 'NONE', #129, #99, #147, .T. ) ;
#210 = ORIENTED_EDGE ( 'NONE', *, *, #265, .T. ) ;
#211 = CIRCLE ( 'NONE', #21, 0.5000000000000004441 ) ;
#212 = CARTESIAN_POINT ( 'NONE',  ( 0.000000000000000000, 0.000000000000000000, 405.0000000000000000 ) ) ;
#213 = FACE_OUTER_BOUND ( 'NONE', #159, .T. ) ;
#214 = AXIS2_PLACEMENT_3D ( 'NONE', #163, #374, #294 ) ;
#215 = DIRECTION ( 'NONE',  ( 0.000000000000000000, 0.000000000000000000, 1.000000000000000000 ) ) ;
#216 = CARTESIAN_POINT ( 'NONE',  ( -2.000000000000000000, 0.000000000000000000, 405.0000000000000000 ) ) ;
#217 = AXIS2_PLACEMENT_3D ( 'NONE', #63, #227, #235 ) ;
#218 = ORIENTED_EDGE ( 'NONE', *, *, #114, .F. ) ;
#219 = SECURITY_CLASSIFICATION_LEVEL ( 'unclassified' ) ;
#220 = ADVANCED_FACE ( 'NONE', ( #31 ), #357, .T. ) ;
#221 = CYLINDRICAL_SURFACE ( 'NONE', #255, 6.000000000000000888 ) ;
#222 = ORIENTED_EDGE ( 'NONE', *, *, #341, .T. ) ;
#223 = APPLICATION_PROTOCOL_DEFINITION ( 'international standard', 'config_control_design', 1994, #29 ) ;
#224 = DATE_AND_TIME ( #106, #128 ) ;
#225 = CARTESIAN_POINT ( 'NONE',  ( 0.000000000000000000, 0.000000000000000000, 5.000000000000000000 ) ) ;
#226 = DIRECTION ( 'NONE',  ( 0.000000000000000000, 0.000000000000000000, 1.000000000000000000 ) ) ;
#227 = DIRECTION ( 'NONE',  ( 0.000000000000000000, 0.000000000000000000, 1.000000000000000000 ) ) ;
#228 = VECTOR ( 'NONE', #172, 1000.000000000000000 ) ;
#229 = DIRECTION ( 'NONE',  ( 0.000000000000000000, -1.000000000000000000, 0.000000000000000000 ) ) ;
#230 = DIRECTION ( 'NONE',  ( 0.000000000000000000, 0.000000000000000000, -1.000000000000000000 ) ) ;
#231 = DATE_AND_TIME ( #118, #243 ) ;
#232 = ORIENTED_EDGE ( 'NONE', *, *, #247, .T. ) ;
#233 = CARTESIAN_POINT ( 'NONE',  ( 0.000000000000000000, 0.000000000000000000, 0.000000000000000000 ) ) ;
#234 = CC_DESIGN_DATE_AND_TIME_ASSIGNMENT ( #80, #19, ( #365 ) ) ;
#235 = DIRECTION ( 'NONE',  ( 1.000000000000000000, 0.000000000000000000, -0.000000000000000000 ) ) ;
#236 = DIRECTION ( 'NONE',  ( 0.000000000000000000, 0.000000000000000000, 1.000000000000000000 ) ) ;
#237 = AXIS2_PLACEMENT_3D ( 'NONE', #154, #100, #40 ) ;
#238 = EDGE_LOOP ( 'NONE', ( #25, #59, #202, #16 ) ) ;
#239 =( LENGTH_UNIT ( ) NAMED_UNIT ( * ) SI_UNIT ( .MILLI., .METRE. ) );
#240 = CARTESIAN_POINT ( 'NONE',  ( 2.000000000000000000, 2.449293598294706414E-16, 405.0000000000000000 ) ) ;
#241 = EDGE_CURVE ( 'NONE', #306, #39, #2, .T. ) ;
#242 = ORIENTED_EDGE ( 'NONE', *, *, #282, .T. ) ;
#243 = LOCAL_TIME ( 17, 34, 44.00000000000000000, #317 ) ;
#244 = DIRECTION ( 'NONE',  ( 1.000000000000000000, 0.000000000000000000, 0.000000000000000000 ) ) ;
#245 = PERSON_AND_ORGANIZATION_ROLE ( 'creator' ) ;
#246 = CIRCLE ( 'NONE', #110, 3.000000000000000444 ) ;
#247 = EDGE_CURVE ( 'NONE', #5, #199, #41, .T. ) ;
#248 = APPROVAL_DATE_TIME ( #22, #103 ) ;
#249 = APPROVAL_PERSON_ORGANIZATION ( #346, #198, #83 ) ;
#250 = CARTESIAN_POINT ( 'NONE',  ( 0.000000000000000000, 0.000000000000000000, 5.500000000000005329 ) ) ;
#251 = PRODUCT_RELATED_PRODUCT_CATEGORY ( 'detail', '', ( #278 ) ) ;
#252 = ORIENTED_EDGE ( 'NONE', *, *, #79, .T. ) ;
#253 = CARTESIAN_POINT ( 'NONE',  ( -3.000000000000000444, 0.000000000000000000, 405.0000000000000000 ) ) ;
#254 = EDGE_CURVE ( 'NONE', #178, #39, #324, .T. ) ;
#255 = AXIS2_PLACEMENT_3D ( 'NONE', #225, #134, #193 ) ;
#256 = CARTESIAN_POINT ( 'NONE',  ( -6.000000000000000888, 0.000000000000000000, 0.000000000000000000 ) ) ;
#257 = EDGE_LOOP ( 'NONE', ( #336, #125, #319, #316 ) ) ;
#258 = AXIS2_PLACEMENT_3D ( 'NONE', #116, #329, #7 ) ;
#259 = DIRECTION ( 'NONE',  ( 1.000000000000000000, 0.000000000000000000, 0.000000000000000000 ) ) ;
#260 = ORIENTED_EDGE ( 'NONE', *, *, #79, .F. ) ;
#261 = DIRECTION ( 'NONE',  ( 1.000000000000000000, 0.000000000000000000, 0.000000000000000000 ) ) ;
#262 = SHAPE_DEFINITION_REPRESENTATION ( #69, #33 ) ;
#263 = CARTESIAN_POINT ( 'NONE',  ( 0.000000000000000000, 0.000000000000000000, 5.000000000000000000 ) ) ;
#264 = CARTESIAN_POINT ( 'NONE',  ( 6.000000000000000888, 7.347880794884120722E-16, 5.000000000000000000 ) ) ;
#265 = EDGE_CURVE ( 'NONE', #86, #351, #362, .T. ) ;
#266 = AXIS2_PLACEMENT_3D ( 'NONE', #320, #345, #371 ) ;
#267 = CARTESIAN_POINT ( 'NONE',  ( 6.000000000000000888, 7.347880794884120722E-16, 0.000000000000000000 ) ) ;
#268 = DIRECTION ( 'NONE',  ( 0.000000000000000000, 0.000000000000000000, 1.000000000000000000 ) ) ;
#269 = ORIENTED_EDGE ( 'NONE', *, *, #209, .T. ) ;
#270 = LINE ( 'NONE', #216, #107 ) ;
#271 =( NAMED_UNIT ( * ) SI_UNIT ( $, .STERADIAN. ) SOLID_ANGLE_UNIT ( ) );
#272 = APPROVAL ( #300, 'NEURÈENÝ' ) ;
#273 = VECTOR ( 'NONE', #181, 1000.000000000000000 ) ;
#274 = ORIENTED_EDGE ( 'NONE', *, *, #58, .F. ) ;
#275 = DIRECTION ( 'NONE',  ( 0.000000000000000000, 0.000000000000000000, 1.000000000000000000 ) ) ;
#276 = EDGE_LOOP ( 'NONE', ( #194, #183 ) ) ;
#277 = FACE_OUTER_BOUND ( 'NONE', #293, .T. ) ;
#278 = PRODUCT ( 'd0e4', 'd0e4', '', ( #48 ) ) ;
#279 = ORIENTED_EDGE ( 'NONE', *, *, #247, .F. ) ;
#280 = FACE_OUTER_BOUND ( 'NONE', #143, .T. ) ;
#281 = AXIS2_PLACEMENT_3D ( 'NONE', #297, #207, #36 ) ;
#282 = EDGE_CURVE ( 'NONE', #67, #129, #270, .T. ) ;
#283 = PERSON_AND_ORGANIZATION_ROLE ( 'creator' ) ;
#284 = FACE_OUTER_BOUND ( 'NONE', #88, .T. ) ;
#285 = AXIS2_PLACEMENT_3D ( 'NONE', #113, #226, #168 ) ;
#286 = CALENDAR_DATE ( 2022, 8, 7 ) ;
#287 = MANIFOLD_SOLID_BREP ( 'Odebrat vysunutím3', #14 ) ;
#288 = EDGE_CURVE ( 'NONE', #86, #111, #115, .T. ) ;
#289 = PERSON_AND_ORGANIZATION ( #155, #354 ) ;
#290 = CC_DESIGN_APPROVAL ( #198, ( #365 ) ) ;
#291 = FACE_OUTER_BOUND ( 'NONE', #157, .T. ) ;
#292 = EDGE_CURVE ( 'NONE', #99, #129, #315, .T. ) ;
#293 = EDGE_LOOP ( 'NONE', ( #164, #313, #210, #252 ) ) ;
#294 = DIRECTION ( 'NONE',  ( 1.000000000000000000, 0.000000000000000000, 0.000000000000000000 ) ) ;
#295 = VERTEX_POINT ( 'NONE', #45 ) ;
#296 = CARTESIAN_POINT ( 'NONE',  ( -3.500000000000000444, 4.286263797015737088E-16, 5.500000000000005329 ) ) ;
#297 = CARTESIAN_POINT ( 'NONE',  ( 0.000000000000000000, 0.000000000000000000, 5.000000000000000000 ) ) ;
#298 = FACE_OUTER_BOUND ( 'NONE', #257, .T. ) ;
#299 = ADVANCED_FACE ( 'NONE', ( #277 ), #13, .T. ) ;
#300 = APPROVAL_STATUS ( 'not_yet_approved' ) ;
#301 = DIRECTION ( 'NONE',  ( -0.000000000000000000, -0.000000000000000000, -1.000000000000000000 ) ) ;
#302 = EDGE_CURVE ( 'NONE', #295, #178, #180, .T. ) ;
#303 = ORIENTED_EDGE ( 'NONE', *, *, #177, .T. ) ;
#304 = CARTESIAN_POINT ( 'NONE',  ( 6.000000000000000888, 7.347880794884120722E-16, 5.000000000000000000 ) ) ;
#305 = CARTESIAN_POINT ( 'NONE',  ( 0.000000000000000000, 0.000000000000000000, 405.0000000000000000 ) ) ;
#306 = VERTEX_POINT ( 'NONE', #304 ) ;
#307 = ADVANCED_FACE ( 'NONE', ( #366 ), #120, .F. ) ;
#308 = ORIENTED_EDGE ( 'NONE', *, *, #192, .F. ) ;
#309 = DIRECTION ( 'NONE',  ( 1.000000000000000000, 0.000000000000000000, 0.000000000000000000 ) ) ;
#310 = CARTESIAN_POINT ( 'NONE',  ( -2.000000000000000000, 0.000000000000000000, 405.0000000000000000 ) ) ;
#311 = AXIS2_PLACEMENT_3D ( 'NONE', #149, #360, #98 ) ;
#312 = EDGE_CURVE ( 'NONE', #67, #42, #92, .T. ) ;
#313 = ORIENTED_EDGE ( 'NONE', *, *, #288, .F. ) ;
#314 = DIRECTION ( 'NONE',  ( -0.000000000000000000, -0.000000000000000000, -1.000000000000000000 ) ) ;
#315 = CIRCLE ( 'NONE', #333, 2.000000000000000000 ) ;
#316 = ORIENTED_EDGE ( 'NONE', *, *, #282, .F. ) ;
#317 = COORDINATED_UNIVERSAL_TIME_OFFSET ( 1, 0, .AHEAD. ) ;
#318 = CARTESIAN_POINT ( 'NONE',  ( 0.000000000000000000, 0.000000000000000000, 5.000000000000000000 ) ) ;
#319 = ORIENTED_EDGE ( 'NONE', *, *, #292, .T. ) ;
#320 = CARTESIAN_POINT ( 'NONE',  ( 0.000000000000000000, 0.000000000000000000, 0.000000000000000000 ) ) ;
#321 = DIRECTION ( 'NONE',  ( 0.000000000000000000, 0.000000000000000000, 1.000000000000000000 ) ) ;
#322 = CIRCLE ( 'NONE', #191, 3.500000000000000444 ) ;
#323 = APPLICATION_PROTOCOL_DEFINITION ( 'international standard', 'config_control_design', 1994, #9 ) ;
#324 = CIRCLE ( 'NONE', #34, 6.000000000000000888 ) ;
#325 = COORDINATED_UNIVERSAL_TIME_OFFSET ( 1, 0, .AHEAD. ) ;
#326 = APPROVAL_PERSON_ORGANIZATION ( #171, #272, #61 ) ;
#327 = PLANE ( 'NONE',  #101 ) ;
#328 = EDGE_LOOP ( 'NONE', ( #344, #222 ) ) ;
#329 = DIRECTION ( 'NONE',  ( 0.000000000000000000, 0.000000000000000000, 1.000000000000000000 ) ) ;
#330 = ADVANCED_FACE ( 'NONE', ( #280 ), #37, .T. ) ;
#331 = FACE_OUTER_BOUND ( 'NONE', #377, .T. ) ;
#332 = DATE_AND_TIME ( #165, #348 ) ;
#333 = AXIS2_PLACEMENT_3D ( 'NONE', #43, #340, #337 ) ;
#334 = CARTESIAN_POINT ( 'NONE',  ( 3.500000000000000444, 0.000000000000000000, 5.500000000000005329 ) ) ;
#335 = DIRECTION ( 'NONE',  ( 1.000000000000000000, 0.000000000000000000, 0.000000000000000000 ) ) ;
#336 = ORIENTED_EDGE ( 'NONE', *, *, #312, .T. ) ;
#337 = DIRECTION ( 'NONE',  ( 1.000000000000000000, 0.000000000000000000, 0.000000000000000000 ) ) ;
#338 = DIRECTION ( 'NONE',  ( -1.000000000000000000, 0.000000000000000000, 0.000000000000000000 ) ) ;
#339 = APPROVAL_PERSON_ORGANIZATION ( #26, #103, #130 ) ;
#340 = DIRECTION ( 'NONE',  ( -0.000000000000000000, -0.000000000000000000, -1.000000000000000000 ) ) ;
#341 = EDGE_CURVE ( 'NONE', #111, #86, #6, .T. ) ;
#342 = AXIS2_PLACEMENT_3D ( 'NONE', #250, #81, #259 ) ;
#343 = CC_DESIGN_DATE_AND_TIME_ASSIGNMENT ( #231, #93, ( #54 ) ) ;
#344 = ORIENTED_EDGE ( 'NONE', *, *, #288, .T. ) ;
#345 = DIRECTION ( 'NONE',  ( 0.000000000000000000, 0.000000000000000000, 1.000000000000000000 ) ) ;
#346 = PERSON_AND_ORGANIZATION ( #155, #354 ) ;
#347 = DIRECTION ( 'NONE',  ( 1.224646799147353207E-16, 1.000000000000000000, -0.000000000000000000 ) ) ;
#348 = LOCAL_TIME ( 17, 34, 44.00000000000000000, #32 ) ;
#349 = APPROVAL_DATE_TIME ( #224, #198 ) ;
#350 = FACE_BOUND ( 'NONE', #3, .T. ) ;
#351 = VERTEX_POINT ( 'NONE', #184 ) ;
#352 = ORIENTED_EDGE ( 'NONE', *, *, #241, .T. ) ;
#353 = UNCERTAINTY_MEASURE_WITH_UNIT (LENGTH_MEASURE( 1.000000000000000082E-05 ), #239, 'distance_accuracy_value', 'NONE');
#354 = ORGANIZATION ( 'NEURÈENÝ', 'NEURÈENÝ', '' ) ;
#355 = ORIENTED_EDGE ( 'NONE', *, *, #145, .T. ) ;
#356 = PLANE ( 'NONE',  #217 ) ;
#357 = CYLINDRICAL_SURFACE ( 'NONE', #281, 6.000000000000000888 ) ;
#358 = DIRECTION ( 'NONE',  ( -0.000000000000000000, -0.000000000000000000, -1.000000000000000000 ) ) ;
#359 = LOCAL_TIME ( 17, 34, 44.00000000000000000, #55 ) ;
#360 = DIRECTION ( 'NONE',  ( 0.000000000000000000, 0.000000000000000000, 1.000000000000000000 ) ) ;
#361 = ORIENTED_EDGE ( 'NONE', *, *, #50, .F. ) ;
#362 = LINE ( 'NONE', #75, #273 ) ;
#363 = FACE_BOUND ( 'NONE', #119, .T. ) ;
#364 = ORIENTED_EDGE ( 'NONE', *, *, #50, .T. ) ;
#365 = PRODUCT_DEFINITION ( 'NEZNÁMÝ', '', #24, #169 ) ;
#366 = FACE_OUTER_BOUND ( 'NONE', #381, .T. ) ;
#367 = DIRECTION ( 'NONE',  ( -1.000000000000000000, 0.000000000000000000, 0.000000000000000000 ) ) ;
#368 = ORIENTED_EDGE ( 'NONE', *, *, #58, .T. ) ;
#369 = PERSON_AND_ORGANIZATION ( #155, #354 ) ;
#370 = ORIENTED_EDGE ( 'NONE', *, *, #156, .F. ) ;
#371 = DIRECTION ( 'NONE',  ( 1.000000000000000000, 0.000000000000000000, 0.000000000000000000 ) ) ;
#372 = VERTEX_POINT ( 'NONE', #97 ) ;
#373 = PERSON_AND_ORGANIZATION ( #155, #354 ) ;
#374 = DIRECTION ( 'NONE',  ( 0.000000000000000000, 0.000000000000000000, 1.000000000000000000 ) ) ;
#375 = EDGE_CURVE ( 'NONE', #42, #99, #121, .T. ) ;
#376 = PERSON_AND_ORGANIZATION_ROLE ( 'design_owner' ) ;
#377 = EDGE_LOOP ( 'NONE', ( #66, #95 ) ) ;
#378 = AXIS2_PLACEMENT_3D ( 'NONE', #305, #44, #367 ) ;
#379 = CC_DESIGN_PERSON_AND_ORGANIZATION_ASSIGNMENT ( #109, #283, ( #365 ) ) ;
#380 = DIRECTION ( 'NONE',  ( 1.000000000000000000, 0.000000000000000000, -0.000000000000000000 ) ) ;
#381 = EDGE_LOOP ( 'NONE', ( #131, #368, #242, #269 ) ) ;
ENDSEC;
END-ISO-10303-21;
