ISO-10303-21;
HEADER;
FILE_DESCRIPTION (( 'STEP AP203' ),
    '1' );
FILE_NAME ('db69.STEP',
    '2022-07-08T15:14:43',
    ( '' ),
    ( '' ),
    'SwSTEP 2.0',
    'SolidWorks 2019',
    '' );
FILE_SCHEMA (( 'CONFIG_CONTROL_DESIGN' ));
ENDSEC;

DATA;
#1 = COORDINATED_UNIVERSAL_TIME_OFFSET ( 1, 0, .AHEAD. ) ;
#2 = ADVANCED_FACE ( 'NONE', ( #339, #45 ), #47, .T. ) ;
#3 = CARTESIAN_POINT ( 'NONE',  ( 5.000000000000000000, 6.123233995736766282E-16, 5.499999999999949374 ) ) ;
#4 = CIRCLE ( 'NONE', #168, 5.500000000000000000 ) ;
#5 = CIRCLE ( 'NONE', #307, 8.000000000000000000 ) ;
#6 = ORIENTED_EDGE ( 'NONE', *, *, #33, .T. ) ;
#7 = DATE_AND_TIME ( #39, #293 ) ;
#8 = EDGE_CURVE ( 'NONE', #124, #298, #315, .T. ) ;
#9 = DIRECTION ( 'NONE',  ( 1.000000000000000000, 0.000000000000000000, 0.000000000000000000 ) ) ;
#10 = APPLICATION_CONTEXT ( 'configuration controlled 3d designs of mechanical parts and assemblies' ) ;
#11 = ORIENTED_EDGE ( 'NONE', *, *, #79, .F. ) ;
#12 = DATE_AND_TIME ( #303, #157 ) ;
#13 = DIRECTION ( 'NONE',  ( 0.000000000000000000, 0.000000000000000000, 1.000000000000000000 ) ) ;
#14 = DIRECTION ( 'NONE',  ( 1.000000000000000000, 0.000000000000000000, 0.000000000000000000 ) ) ;
#15 = VECTOR ( 'NONE', #369, 1000.000000000000000 ) ;
#16 = AXIS2_PLACEMENT_3D ( 'NONE', #250, #81, #276 ) ;
#17 = CARTESIAN_POINT ( 'NONE',  ( -5.000000000000000000, 0.000000000000000000, 705.0000000000000000 ) ) ;
#18 = EDGE_CURVE ( 'NONE', #330, #356, #261, .T. ) ;
#19 = LINE ( 'NONE', #129, #301 ) ;
#20 = CARTESIAN_POINT ( 'NONE',  ( -2.500000000000000000, 0.000000000000000000, 705.0000000000000000 ) ) ;
#21 = DIRECTION ( 'NONE',  ( 0.000000000000000000, 0.000000000000000000, 1.000000000000000000 ) ) ;
#22 = CIRCLE ( 'NONE', #232, 8.000000000000000000 ) ;
#23 = APPROVAL ( #88, 'NEURÈENÝ' ) ;
#24 = CARTESIAN_POINT ( 'NONE',  ( -8.000000000000000000, 0.000000000000000000, 5.000000000000000000 ) ) ;
#25 = ORIENTED_EDGE ( 'NONE', *, *, #8, .F. ) ;
#26 = CARTESIAN_POINT ( 'NONE',  ( 0.000000000000000000, 0.000000000000000000, 5.499999999999949374 ) ) ;
#27 = PERSON_AND_ORGANIZATION_ROLE ( 'creator' ) ;
#28 = AXIS2_PLACEMENT_3D ( 'NONE', #97, #66, #210 ) ;
#29 = PERSON_AND_ORGANIZATION ( #205, #268 ) ;
#30 = EDGE_LOOP ( 'NONE', ( #244, #328 ) ) ;
#31 = EDGE_CURVE ( 'NONE', #180, #145, #321, .T. ) ;
#32 = AXIS2_PLACEMENT_3D ( 'NONE', #273, #52, #169 ) ;
#33 = EDGE_CURVE ( 'NONE', #274, #124, #190, .T. ) ;
#34 = APPROVAL_ROLE ( '' ) ;
#35 = CARTESIAN_POINT ( 'NONE',  ( 0.000000000000000000, 0.000000000000000000, 5.000000000000000000 ) ) ;
#36 = ORIENTED_EDGE ( 'NONE', *, *, #323, .F. ) ;
#37 = SECURITY_CLASSIFICATION_LEVEL ( 'unclassified' ) ;
#38 = DIRECTION ( 'NONE',  ( -0.000000000000000000, -0.000000000000000000, -1.000000000000000000 ) ) ;
#39 = CALENDAR_DATE ( 2022, 8, 7 ) ;
#40 = ORIENTED_EDGE ( 'NONE', *, *, #235, .F. ) ;
#41 = FACE_OUTER_BOUND ( 'NONE', #243, .T. ) ;
#42 = AXIS2_PLACEMENT_3D ( 'NONE', #147, #357, #294 ) ;
#43 = AXIS2_PLACEMENT_3D ( 'NONE', #177, #291, #59 ) ;
#44 = LINE ( 'NONE', #46, #162 ) ;
#45 = FACE_OUTER_BOUND ( 'NONE', #308, .T. ) ;
#46 = CARTESIAN_POINT ( 'NONE',  ( 2.500000000000000000, 3.061616997868383141E-16, 705.0000000000000000 ) ) ;
#47 = PLANE ( 'NONE',  #247 ) ;
#48 = DESIGN_CONTEXT ( 'detailed design', #166, 'design' ) ;
#49 = CC_DESIGN_PERSON_AND_ORGANIZATION_ASSIGNMENT ( #211, #300, ( #334 ) ) ;
#50 = VECTOR ( 'NONE', #312, 1000.000000000000000 ) ;
#51 = LOCAL_TIME ( 17, 14, 43.00000000000000000, #348 ) ;
#52 = DIRECTION ( 'NONE',  ( 0.000000000000000000, 0.000000000000000000, -1.000000000000000000 ) ) ;
#53 = DIRECTION ( 'NONE',  ( 0.000000000000000000, 0.000000000000000000, 1.000000000000000000 ) ) ;
#54 = CYLINDRICAL_SURFACE ( 'NONE', #127, 2.500000000000000000 ) ;
#55 = DIRECTION ( 'NONE',  ( -1.000000000000000000, 0.000000000000000000, 0.000000000000000000 ) ) ;
#56 = CLOSED_SHELL ( 'NONE', ( #282, #285, #254, #113, #264, #345, #142, #125, #2, #296, #349 ) ) ;
#57 = AXIS2_PLACEMENT_3D ( 'NONE', #136, #53, #258 ) ;
#58 = CARTESIAN_POINT ( 'NONE',  ( 5.500000000000000000, 0.000000000000000000, 5.499999999999949374 ) ) ;
#59 = DIRECTION ( 'NONE',  ( 1.000000000000000000, 0.000000000000000000, 0.000000000000000000 ) ) ;
#60 = ORIENTED_EDGE ( 'NONE', *, *, #207, .F. ) ;
#61 = DATE_TIME_ROLE ( 'creation_date' ) ;
#62 = DIRECTION ( 'NONE',  ( 0.000000000000000000, 0.000000000000000000, -1.000000000000000000 ) ) ;
#63 = ORIENTED_EDGE ( 'NONE', *, *, #267, .T. ) ;
#64 = DIRECTION ( 'NONE',  ( 1.000000000000000000, 0.000000000000000000, 0.000000000000000000 ) ) ;
#65 = ORIENTED_EDGE ( 'NONE', *, *, #239, .F. ) ;
#66 = DIRECTION ( 'NONE',  ( 0.000000000000000000, 0.000000000000000000, 1.000000000000000000 ) ) ;
#67 = ORIENTED_EDGE ( 'NONE', *, *, #18, .F. ) ;
#68 = ORIENTED_EDGE ( 'NONE', *, *, #207, .T. ) ;
#69 = PERSON_AND_ORGANIZATION ( #205, #268 ) ;
#70 = LINE ( 'NONE', #270, #212 ) ;
#71 = VERTEX_POINT ( 'NONE', #106 ) ;
#72 = CARTESIAN_POINT ( 'NONE',  ( 0.000000000000000000, 0.000000000000000000, 5.000000000000000000 ) ) ;
#73 = PERSON_AND_ORGANIZATION ( #205, #268 ) ;
#74 = DIRECTION ( 'NONE',  ( 1.000000000000000000, 0.000000000000000000, 0.000000000000000000 ) ) ;
#75 = AXIS2_PLACEMENT_3D ( 'NONE', #220, #343, #350 ) ;
#76 = EDGE_CURVE ( 'NONE', #225, #281, #332, .T. ) ;
#77 = DIRECTION ( 'NONE',  ( -1.000000000000000000, 0.000000000000000000, 0.000000000000000000 ) ) ;
#78 = CARTESIAN_POINT ( 'NONE',  ( 0.000000000000000000, 0.000000000000000000, 705.0000000000000000 ) ) ;
#79 = EDGE_CURVE ( 'NONE', #274, #115, #373, .T. ) ;
#80 = FACE_OUTER_BOUND ( 'NONE', #344, .T. ) ;
#81 = DIRECTION ( 'NONE',  ( -0.000000000000000000, -0.000000000000000000, -1.000000000000000000 ) ) ;
#82 = AXIS2_PLACEMENT_3D ( 'NONE', #58, #352, #62 ) ;
#83 = CARTESIAN_POINT ( 'NONE',  ( 0.000000000000000000, 0.000000000000000000, 5.000000000000000000 ) ) ;
#84 = ORIENTED_EDGE ( 'NONE', *, *, #323, .T. ) ;
#85 = EDGE_CURVE ( 'NONE', #145, #180, #4, .T. ) ;
#86 = LOCAL_TIME ( 17, 14, 43.00000000000000000, #1 ) ;
#87 = EDGE_CURVE ( 'NONE', #124, #145, #204, .T. ) ;
#88 = APPROVAL_STATUS ( 'not_yet_approved' ) ;
#89 = ORIENTED_EDGE ( 'NONE', *, *, #213, .F. ) ;
#90 = CARTESIAN_POINT ( 'NONE',  ( 2.500000000000000000, 3.061616997868383141E-16, 705.0000000000000000 ) ) ;
#91 = ORIENTED_EDGE ( 'NONE', *, *, #213, .T. ) ;
#92 = CIRCLE ( 'NONE', #305, 8.000000000000000000 ) ;
#93 = FACE_BOUND ( 'NONE', #378, .T. ) ;
#94 = ORIENTED_EDGE ( 'NONE', *, *, #100, .F. ) ;
#95 = ORIENTED_EDGE ( 'NONE', *, *, #374, .F. ) ;
#96 = APPROVAL_DATE_TIME ( #333, #137 ) ;
#97 = CARTESIAN_POINT ( 'NONE',  ( 0.000000000000000000, 0.000000000000000000, 0.000000000000000000 ) ) ;
#98 = CIRCLE ( 'NONE', #149, 5.000000000000000000 ) ;
#99 = CARTESIAN_POINT ( 'NONE',  ( 5.000000000000000000, 6.123233995736766282E-16, 705.0000000000000000 ) ) ;
#100 = EDGE_CURVE ( 'NONE', #115, #274, #266, .T. ) ;
#101 = CARTESIAN_POINT ( 'NONE',  ( 8.000000000000000000, 9.797174393178825657E-16, 0.000000000000000000 ) ) ;
#102 = ORIENTED_EDGE ( 'NONE', *, *, #87, .F. ) ;
#103 = AXIS2_PLACEMENT_3D ( 'NONE', #72, #304, #9 ) ;
#104 = AXIS2_PLACEMENT_3D ( 'NONE', #130, #222, #77 ) ;
#105 = PLANE ( 'NONE',  #337 ) ;
#106 = CARTESIAN_POINT ( 'NONE',  ( 8.000000000000000000, 9.797174393178825657E-16, 5.000000000000000000 ) ) ;
#107 = CARTESIAN_POINT ( 'NONE',  ( 2.500000000000000000, 3.061616997868383141E-16, 0.000000000000000000 ) ) ;
#108 = DIRECTION ( 'NONE',  ( 1.000000000000000000, 0.000000000000000000, -0.000000000000000000 ) ) ;
#109 = VERTEX_POINT ( 'NONE', #289 ) ;
#110 = EDGE_CURVE ( 'NONE', #281, #225, #197, .T. ) ;
#111 = MECHANICAL_CONTEXT ( 'NONE', #10, 'mechanical' ) ;
#112 = APPROVAL_STATUS ( 'not_yet_approved' ) ;
#113 = ADVANCED_FACE ( 'NONE', ( #355 ), #327, .T. ) ;
#114 = APPLICATION_PROTOCOL_DEFINITION ( 'international standard', 'config_control_design', 1994, #166 ) ;
#115 = VERTEX_POINT ( 'NONE', #17 ) ;
#116 =( NAMED_UNIT ( * ) PLANE_ANGLE_UNIT ( ) SI_UNIT ( $, .RADIAN. ) );
#117 = DIRECTION ( 'NONE',  ( 0.000000000000000000, 0.000000000000000000, 1.000000000000000000 ) ) ;
#118 = PERSON_AND_ORGANIZATION ( #205, #268 ) ;
#119 = ORIENTED_EDGE ( 'NONE', *, *, #31, .T. ) ;
#120 = CC_DESIGN_PERSON_AND_ORGANIZATION_ASSIGNMENT ( #230, #263, ( #380 ) ) ;
#121 = CIRCLE ( 'NONE', #103, 8.000000000000000000 ) ;
#122 = CYLINDRICAL_SURFACE ( 'NONE', #381, 5.000000000000000000 ) ;
#123 = DIRECTION ( 'NONE',  ( -0.000000000000000000, -0.000000000000000000, -1.000000000000000000 ) ) ;
#124 = VERTEX_POINT ( 'NONE', #3 ) ;
#125 = ADVANCED_FACE ( 'NONE', ( #358 ), #122, .T. ) ;
#126 = APPROVAL_DATE_TIME ( #12, #329 ) ;
#127 = AXIS2_PLACEMENT_3D ( 'NONE', #178, #196, #55 ) ;
#128 = CYLINDRICAL_SURFACE ( 'NONE', #16, 5.000000000000000000 ) ;
#129 = CARTESIAN_POINT ( 'NONE',  ( -2.500000000000000000, 0.000000000000000000, 705.0000000000000000 ) ) ;
#130 = CARTESIAN_POINT ( 'NONE',  ( 0.000000000000000000, 0.000000000000000000, 5.000000000000000000 ) ) ;
#131 = CARTESIAN_POINT ( 'NONE',  ( 0.000000000000000000, 0.000000000000000000, 5.000000000000000000 ) ) ;
#132 = AXIS2_PLACEMENT_3D ( 'NONE', #26, #139, #260 ) ;
#133 = CC_DESIGN_SECURITY_CLASSIFICATION ( #322, ( #334 ) ) ;
#134 = FACE_BOUND ( 'NONE', #290, .T. ) ;
#135 = CARTESIAN_POINT ( 'NONE',  ( 0.000000000000000000, 0.000000000000000000, 705.0000000000000000 ) ) ;
#136 = CARTESIAN_POINT ( 'NONE',  ( 0.000000000000000000, 0.000000000000000000, 5.499999999999949374 ) ) ;
#137 = APPROVAL ( #112, 'NEURÈENÝ' ) ;
#138 = CARTESIAN_POINT ( 'NONE',  ( 0.000000000000000000, 0.000000000000000000, 0.000000000000000000 ) ) ;
#139 = DIRECTION ( 'NONE',  ( 0.000000000000000000, 0.000000000000000000, 1.000000000000000000 ) ) ;
#140 = ORIENTED_EDGE ( 'NONE', *, *, #33, .F. ) ;
#141 =( GEOMETRIC_REPRESENTATION_CONTEXT ( 3 ) GLOBAL_UNCERTAINTY_ASSIGNED_CONTEXT ( ( #275 ) ) GLOBAL_UNIT_ASSIGNED_CONTEXT ( ( #284, #116, #226 ) ) REPRESENTATION_CONTEXT ( 'NONE', 'WORKASPACE' ) );
#142 = ADVANCED_FACE ( 'NONE', ( #93, #41 ), #269, .F. ) ;
#143 = PRODUCT_DEFINITION ( 'NEZNÁMÝ', '', #334, #48 ) ;
#144 = CARTESIAN_POINT ( 'NONE',  ( 0.000000000000000000, 0.000000000000000000, 705.0000000000000000 ) ) ;
#145 = VERTEX_POINT ( 'NONE', #181 ) ;
#146 = DIRECTION ( 'NONE',  ( 0.000000000000000000, 0.000000000000000000, 1.000000000000000000 ) ) ;
#147 = CARTESIAN_POINT ( 'NONE',  ( 0.000000000000000000, 0.000000000000000000, 0.000000000000000000 ) ) ;
#148 = COORDINATED_UNIVERSAL_TIME_OFFSET ( 1, 0, .AHEAD. ) ;
#149 = AXIS2_PLACEMENT_3D ( 'NONE', #167, #219, #342 ) ;
#150 = TOROIDAL_SURFACE ( 'NONE', #57, 5.500000000000000000, 0.5000000000000000000 ) ;
#151 = ORIENTED_EDGE ( 'NONE', *, *, #110, .T. ) ;
#152 = DIRECTION ( 'NONE',  ( -0.000000000000000000, -0.000000000000000000, -1.000000000000000000 ) ) ;
#153 = ORIENTED_EDGE ( 'NONE', *, *, #170, .T. ) ;
#154 = CARTESIAN_POINT ( 'NONE',  ( 0.000000000000000000, 0.000000000000000000, 705.0000000000000000 ) ) ;
#155 = CIRCLE ( 'NONE', #299, 0.5000000000000004441 ) ;
#156 = DIRECTION ( 'NONE',  ( -1.000000000000000000, 0.000000000000000000, 0.000000000000000000 ) ) ;
#157 = LOCAL_TIME ( 17, 14, 43.00000000000000000, #185 ) ;
#158 = EDGE_CURVE ( 'NONE', #295, #71, #121, .T. ) ;
#159 = PERSON_AND_ORGANIZATION_ROLE ( 'design_supplier' ) ;
#160 = DIRECTION ( 'NONE',  ( -1.000000000000000000, 1.224646799147351482E-16, 0.000000000000000000 ) ) ;
#161 = AXIS2_PLACEMENT_3D ( 'NONE', #144, #117, #324 ) ;
#162 = VECTOR ( 'NONE', #336, 1000.000000000000000 ) ;
#163 = DIRECTION ( 'NONE',  ( 1.000000000000000000, 0.000000000000000000, 0.000000000000000000 ) ) ;
#164 = FACE_OUTER_BOUND ( 'NONE', #198, .T. ) ;
#165 = ORIENTED_EDGE ( 'NONE', *, *, #79, .T. ) ;
#166 = APPLICATION_CONTEXT ( 'configuration controlled 3d designs of mechanical parts and assemblies' ) ;
#167 = CARTESIAN_POINT ( 'NONE',  ( 0.000000000000000000, 0.000000000000000000, 5.499999999999949374 ) ) ;
#168 = AXIS2_PLACEMENT_3D ( 'NONE', #83, #320, #231 ) ;
#169 = DIRECTION ( 'NONE',  ( -1.000000000000000000, 0.000000000000000000, 0.000000000000000000 ) ) ;
#170 = EDGE_CURVE ( 'NONE', #295, #109, #184, .T. ) ;
#171 = ADVANCED_BREP_SHAPE_REPRESENTATION ( 'db69', ( #326, #224 ), #141 ) ;
#172 = FACE_OUTER_BOUND ( 'NONE', #360, .T. ) ;
#173 = ORIENTED_EDGE ( 'NONE', *, *, #158, .F. ) ;
#174 = CARTESIAN_POINT ( 'NONE',  ( 0.000000000000000000, 0.000000000000000000, 0.000000000000000000 ) ) ;
#175 = ORIENTED_EDGE ( 'NONE', *, *, #85, .T. ) ;
#176 = DIRECTION ( 'NONE',  ( 1.000000000000000000, 0.000000000000000000, 0.000000000000000000 ) ) ;
#177 = CARTESIAN_POINT ( 'NONE',  ( 0.000000000000000000, 0.000000000000000000, 705.0000000000000000 ) ) ;
#178 = CARTESIAN_POINT ( 'NONE',  ( 0.000000000000000000, 0.000000000000000000, 705.0000000000000000 ) ) ;
#179 = AXIS2_PLACEMENT_3D ( 'NONE', #131, #255, #257 ) ;
#180 = VERTEX_POINT ( 'NONE', #331 ) ;
#181 = CARTESIAN_POINT ( 'NONE',  ( 5.500000000000000000, 0.000000000000000000, 4.999999999999975131 ) ) ;
#182 = EDGE_LOOP ( 'NONE', ( #65, #68, #341, #102 ) ) ;
#183 = EDGE_CURVE ( 'NONE', #71, #283, #70, .T. ) ;
#184 = LINE ( 'NONE', #297, #362 ) ;
#185 = COORDINATED_UNIVERSAL_TIME_OFFSET ( 1, 0, .AHEAD. ) ;
#186 = AXIS2_PLACEMENT_3D ( 'NONE', #154, #13, #14 ) ;
#187 = CARTESIAN_POINT ( 'NONE',  ( -5.500000000000000000, 6.735557395310442023E-16, 5.499999999999949374 ) ) ;
#188 = COORDINATED_UNIVERSAL_TIME_OFFSET ( 1, 0, .AHEAD. ) ;
#189 = CARTESIAN_POINT ( 'NONE',  ( 0.000000000000000000, 0.000000000000000000, 0.000000000000000000 ) ) ;
#190 = LINE ( 'NONE', #313, #15 ) ;
#191 = APPROVAL_PERSON_ORGANIZATION ( #118, #329, #34 ) ;
#192 = ORIENTED_EDGE ( 'NONE', *, *, #267, .F. ) ;
#193 = CYLINDRICAL_SURFACE ( 'NONE', #104, 8.000000000000000000 ) ;
#194 = ORIENTED_EDGE ( 'NONE', *, *, #110, .F. ) ;
#195 = APPROVAL_DATE_TIME ( #354, #23 ) ;
#196 = DIRECTION ( 'NONE',  ( 0.000000000000000000, 0.000000000000000000, -1.000000000000000000 ) ) ;
#197 = CIRCLE ( 'NONE', #42, 2.500000000000000000 ) ;
#198 = EDGE_LOOP ( 'NONE', ( #60, #25, #372, #252 ) ) ;
#199 = CC_DESIGN_APPROVAL ( #23, ( #143 ) ) ;
#200 = EDGE_LOOP ( 'NONE', ( #11, #6, #227, #40 ) ) ;
#201 = PERSON_AND_ORGANIZATION ( #205, #268 ) ;
#202 = EDGE_LOOP ( 'NONE', ( #203, #370, #208, #286 ) ) ;
#203 = ORIENTED_EDGE ( 'NONE', *, *, #214, .F. ) ;
#204 = CIRCLE ( 'NONE', #82, 0.5000000000000004441 ) ;
#205 = PERSON ( 'NEURÈENÝ', 'NEURÈENÝ', 'NEURÈENÝ', ('NEURÈENÝ'), ('NEURÈENÝ'), ('NEURÈENÝ') ) ;
#206 = EDGE_LOOP ( 'NONE', ( #140, #94, #233, #278 ) ) ;
#207 = EDGE_CURVE ( 'NONE', #298, #180, #155, .T. ) ;
#208 = ORIENTED_EDGE ( 'NONE', *, *, #309, .T. ) ;
#209 = DATE_TIME_ROLE ( 'classification_date' ) ;
#210 = DIRECTION ( 'NONE',  ( 1.000000000000000000, 0.000000000000000000, -0.000000000000000000 ) ) ;
#211 = PERSON_AND_ORGANIZATION ( #205, #268 ) ;
#212 = VECTOR ( 'NONE', #38, 1000.000000000000000 ) ;
#213 = EDGE_CURVE ( 'NONE', #356, #330, #353, .T. ) ;
#214 = EDGE_CURVE ( 'NONE', #71, #295, #22, .T. ) ;
#215 = CARTESIAN_POINT ( 'NONE',  ( -5.000000000000000000, 0.000000000000000000, 5.499999999999949374 ) ) ;
#216 = DIRECTION ( 'NONE',  ( 0.000000000000000000, 0.000000000000000000, 1.000000000000000000 ) ) ;
#217 = CC_DESIGN_APPROVAL ( #137, ( #334 ) ) ;
#218 = DIRECTION ( 'NONE',  ( 1.000000000000000000, 0.000000000000000000, -0.000000000000000000 ) ) ;
#219 = DIRECTION ( 'NONE',  ( 0.000000000000000000, 0.000000000000000000, 1.000000000000000000 ) ) ;
#220 = CARTESIAN_POINT ( 'NONE',  ( 0.000000000000000000, 0.000000000000000000, 0.000000000000000000 ) ) ;
#221 = ORIENTED_EDGE ( 'NONE', *, *, #100, .T. ) ;
#222 = DIRECTION ( 'NONE',  ( -0.000000000000000000, -0.000000000000000000, -1.000000000000000000 ) ) ;
#223 = DIRECTION ( 'NONE',  ( 0.000000000000000000, 0.000000000000000000, 1.000000000000000000 ) ) ;
#224 = AXIS2_PLACEMENT_3D ( 'NONE', #138, #234, #176 ) ;
#225 = VERTEX_POINT ( 'NONE', #107 ) ;
#226 =( NAMED_UNIT ( * ) SI_UNIT ( $, .STERADIAN. ) SOLID_ANGLE_UNIT ( ) );
#227 = ORIENTED_EDGE ( 'NONE', *, *, #8, .T. ) ;
#228 = APPROVAL_ROLE ( '' ) ;
#229 = ORIENTED_EDGE ( 'NONE', *, *, #18, .T. ) ;
#230 = PERSON_AND_ORGANIZATION ( #205, #268 ) ;
#231 = DIRECTION ( 'NONE',  ( 1.000000000000000000, 0.000000000000000000, 0.000000000000000000 ) ) ;
#232 = AXIS2_PLACEMENT_3D ( 'NONE', #364, #248, #335 ) ;
#233 = ORIENTED_EDGE ( 'NONE', *, *, #235, .T. ) ;
#234 = DIRECTION ( 'NONE',  ( 0.000000000000000000, 0.000000000000000000, 1.000000000000000000 ) ) ;
#235 = EDGE_CURVE ( 'NONE', #115, #298, #306, .T. ) ;
#236 = EDGE_LOOP ( 'NONE', ( #280, #173, #153, #279 ) ) ;
#237 = APPROVAL_STATUS ( 'not_yet_approved' ) ;
#238 = DIRECTION ( 'NONE',  ( -0.000000000000000000, -0.000000000000000000, -1.000000000000000000 ) ) ;
#239 = EDGE_CURVE ( 'NONE', #298, #124, #98, .T. ) ;
#240 = AXIS2_PLACEMENT_3D ( 'NONE', #35, #152, #265 ) ;
#241 = CC_DESIGN_PERSON_AND_ORGANIZATION_ASSIGNMENT ( #201, #27, ( #143 ) ) ;
#242 = CARTESIAN_POINT ( 'NONE',  ( 0.000000000000000000, 0.000000000000000000, 705.0000000000000000 ) ) ;
#243 = EDGE_LOOP ( 'NONE', ( #95, #272 ) ) ;
#244 = ORIENTED_EDGE ( 'NONE', *, *, #158, .T. ) ;
#245 = CALENDAR_DATE ( 2022, 8, 7 ) ;
#246 = PERSON_AND_ORGANIZATION_ROLE ( 'classification_officer' ) ;
#247 = AXIS2_PLACEMENT_3D ( 'NONE', #78, #21, #108 ) ;
#248 = DIRECTION ( 'NONE',  ( 0.000000000000000000, 0.000000000000000000, 1.000000000000000000 ) ) ;
#249 = CC_DESIGN_DATE_AND_TIME_ASSIGNMENT ( #377, #61, ( #143 ) ) ;
#250 = CARTESIAN_POINT ( 'NONE',  ( 0.000000000000000000, 0.000000000000000000, 705.0000000000000000 ) ) ;
#251 = FACE_OUTER_BOUND ( 'NONE', #30, .T. ) ;
#252 = ORIENTED_EDGE ( 'NONE', *, *, #31, .F. ) ;
#253 = DIRECTION ( 'NONE',  ( 0.000000000000000000, 0.000000000000000000, 1.000000000000000000 ) ) ;
#254 = ADVANCED_FACE ( 'NONE', ( #338 ), #128, .T. ) ;
#255 = DIRECTION ( 'NONE',  ( -0.000000000000000000, -0.000000000000000000, -1.000000000000000000 ) ) ;
#256 = AXIS2_PLACEMENT_3D ( 'NONE', #371, #310, #74 ) ;
#257 = DIRECTION ( 'NONE',  ( 1.000000000000000000, 0.000000000000000000, 0.000000000000000000 ) ) ;
#258 = DIRECTION ( 'NONE',  ( 1.000000000000000000, 0.000000000000000000, 0.000000000000000000 ) ) ;
#259 = PRODUCT_DEFINITION_SHAPE ( 'NONE', 'NONE',  #143 ) ;
#260 = DIRECTION ( 'NONE',  ( 1.000000000000000000, 0.000000000000000000, 0.000000000000000000 ) ) ;
#261 = CIRCLE ( 'NONE', #277, 2.500000000000000000 ) ;
#262 = ORIENTED_EDGE ( 'NONE', *, *, #76, .T. ) ;
#263 = PERSON_AND_ORGANIZATION_ROLE ( 'design_owner' ) ;
#264 = ADVANCED_FACE ( 'NONE', ( #346 ), #193, .T. ) ;
#265 = DIRECTION ( 'NONE',  ( -1.000000000000000000, 0.000000000000000000, 0.000000000000000000 ) ) ;
#266 = CIRCLE ( 'NONE', #43, 5.000000000000000000 ) ;
#267 = EDGE_CURVE ( 'NONE', #356, #225, #44, .T. ) ;
#268 = ORGANIZATION ( 'NEURÈENÝ', 'NEURÈENÝ', '' ) ;
#269 = PLANE ( 'NONE',  #28 ) ;
#270 = CARTESIAN_POINT ( 'NONE',  ( 8.000000000000000000, 9.797174393178825657E-16, 5.000000000000000000 ) ) ;
#271 = CC_DESIGN_PERSON_AND_ORGANIZATION_ASSIGNMENT ( #73, #159, ( #334 ) ) ;
#272 = ORIENTED_EDGE ( 'NONE', *, *, #309, .F. ) ;
#273 = CARTESIAN_POINT ( 'NONE',  ( 0.000000000000000000, 0.000000000000000000, 705.0000000000000000 ) ) ;
#274 = VERTEX_POINT ( 'NONE', #99 ) ;
#275 = UNCERTAINTY_MEASURE_WITH_UNIT (LENGTH_MEASURE( 1.000000000000000082E-05 ), #284, 'distance_accuracy_value', 'NONE');
#276 = DIRECTION ( 'NONE',  ( -1.000000000000000000, 0.000000000000000000, 0.000000000000000000 ) ) ;
#277 = AXIS2_PLACEMENT_3D ( 'NONE', #135, #223, #347 ) ;
#278 = ORIENTED_EDGE ( 'NONE', *, *, #239, .T. ) ;
#279 = ORIENTED_EDGE ( 'NONE', *, *, #374, .T. ) ;
#280 = ORIENTED_EDGE ( 'NONE', *, *, #183, .F. ) ;
#281 = VERTEX_POINT ( 'NONE', #368 ) ;
#282 = ADVANCED_FACE ( 'NONE', ( #172 ), #340, .F. ) ;
#283 = VERTEX_POINT ( 'NONE', #101 ) ;
#284 =( LENGTH_UNIT ( ) NAMED_UNIT ( * ) SI_UNIT ( .MILLI., .METRE. ) );
#285 = ADVANCED_FACE ( 'NONE', ( #317 ), #363, .F. ) ;
#286 = ORIENTED_EDGE ( 'NONE', *, *, #170, .F. ) ;
#287 = PRODUCT_RELATED_PRODUCT_CATEGORY ( 'detail', '', ( #380 ) ) ;
#288 = APPLICATION_PROTOCOL_DEFINITION ( 'international standard', 'config_control_design', 1994, #10 ) ;
#289 = CARTESIAN_POINT ( 'NONE',  ( -8.000000000000000000, 0.000000000000000000, 0.000000000000000000 ) ) ;
#290 = EDGE_LOOP ( 'NONE', ( #175, #119 ) ) ;
#291 = DIRECTION ( 'NONE',  ( 0.000000000000000000, 0.000000000000000000, 1.000000000000000000 ) ) ;
#292 = ORIENTED_EDGE ( 'NONE', *, *, #76, .F. ) ;
#293 = LOCAL_TIME ( 17, 14, 43.00000000000000000, #188 ) ;
#294 = DIRECTION ( 'NONE',  ( 1.000000000000000000, 0.000000000000000000, 0.000000000000000000 ) ) ;
#295 = VERTEX_POINT ( 'NONE', #24 ) ;
#296 = ADVANCED_FACE ( 'NONE', ( #164 ), #150, .F. ) ;
#297 = CARTESIAN_POINT ( 'NONE',  ( -8.000000000000000000, 0.000000000000000000, 5.000000000000000000 ) ) ;
#298 = VERTEX_POINT ( 'NONE', #215 ) ;
#299 = AXIS2_PLACEMENT_3D ( 'NONE', #187, #302, #160 ) ;
#300 = PERSON_AND_ORGANIZATION_ROLE ( 'creator' ) ;
#301 = VECTOR ( 'NONE', #367, 1000.000000000000000 ) ;
#302 = DIRECTION ( 'NONE',  ( 1.224646799147353207E-16, 1.000000000000000000, -0.000000000000000000 ) ) ;
#303 = CALENDAR_DATE ( 2022, 8, 7 ) ;
#304 = DIRECTION ( 'NONE',  ( 0.000000000000000000, 0.000000000000000000, 1.000000000000000000 ) ) ;
#305 = AXIS2_PLACEMENT_3D ( 'NONE', #189, #253, #163 ) ;
#306 = LINE ( 'NONE', #314, #50 ) ;
#307 = AXIS2_PLACEMENT_3D ( 'NONE', #174, #146, #64 ) ;
#308 = EDGE_LOOP ( 'NONE', ( #221, #165 ) ) ;
#309 = EDGE_CURVE ( 'NONE', #283, #109, #92, .T. ) ;
#310 = DIRECTION ( 'NONE',  ( 0.000000000000000000, 0.000000000000000000, 1.000000000000000000 ) ) ;
#311 = EDGE_LOOP ( 'NONE', ( #67, #89 ) ) ;
#312 = DIRECTION ( 'NONE',  ( -0.000000000000000000, -0.000000000000000000, -1.000000000000000000 ) ) ;
#313 = CARTESIAN_POINT ( 'NONE',  ( 5.000000000000000000, 6.123233995736766282E-16, 705.0000000000000000 ) ) ;
#314 = CARTESIAN_POINT ( 'NONE',  ( -5.000000000000000000, 0.000000000000000000, 705.0000000000000000 ) ) ;
#315 = CIRCLE ( 'NONE', #132, 5.000000000000000000 ) ;
#316 = APPROVAL_PERSON_ORGANIZATION ( #319, #137, #228 ) ;
#317 = FACE_OUTER_BOUND ( 'NONE', #182, .T. ) ;
#318 = CC_DESIGN_PERSON_AND_ORGANIZATION_ASSIGNMENT ( #69, #246, ( #322 ) ) ;
#319 = PERSON_AND_ORGANIZATION ( #205, #268 ) ;
#320 = DIRECTION ( 'NONE',  ( -0.000000000000000000, -0.000000000000000000, -1.000000000000000000 ) ) ;
#321 = CIRCLE ( 'NONE', #179, 5.500000000000000000 ) ;
#322 = SECURITY_CLASSIFICATION ( '', '', #37 ) ;
#323 = EDGE_CURVE ( 'NONE', #330, #281, #19, .T. ) ;
#324 = DIRECTION ( 'NONE',  ( 1.000000000000000000, 0.000000000000000000, 0.000000000000000000 ) ) ;
#325 = CALENDAR_DATE ( 2022, 8, 7 ) ;
#326 = MANIFOLD_SOLID_BREP ( 'Odebrat vysunutím3', #56 ) ;
#327 = CYLINDRICAL_SURFACE ( 'NONE', #240, 8.000000000000000000 ) ;
#328 = ORIENTED_EDGE ( 'NONE', *, *, #214, .T. ) ;
#329 = APPROVAL ( #237, 'NEURÈENÝ' ) ;
#330 = VERTEX_POINT ( 'NONE', #20 ) ;
#331 = CARTESIAN_POINT ( 'NONE',  ( -5.500000000000000000, 6.735557395310442023E-16, 4.999999999999975131 ) ) ;
#332 = CIRCLE ( 'NONE', #75, 2.500000000000000000 ) ;
#333 = DATE_AND_TIME ( #245, #375 ) ;
#334 = PRODUCT_DEFINITION_FORMATION_WITH_SPECIFIED_SOURCE ( 'LIBOVOLNÝ', '', #380, .NOT_KNOWN. ) ;
#335 = DIRECTION ( 'NONE',  ( 1.000000000000000000, 0.000000000000000000, 0.000000000000000000 ) ) ;
#336 = DIRECTION ( 'NONE',  ( 0.000000000000000000, 0.000000000000000000, -1.000000000000000000 ) ) ;
#337 = AXIS2_PLACEMENT_3D ( 'NONE', #365, #216, #218 ) ;
#338 = FACE_OUTER_BOUND ( 'NONE', #200, .T. ) ;
#339 = FACE_BOUND ( 'NONE', #311, .T. ) ;
#340 = CYLINDRICAL_SURFACE ( 'NONE', #32, 2.500000000000000000 ) ;
#341 = ORIENTED_EDGE ( 'NONE', *, *, #85, .F. ) ;
#342 = DIRECTION ( 'NONE',  ( 1.000000000000000000, 0.000000000000000000, 0.000000000000000000 ) ) ;
#343 = DIRECTION ( 'NONE',  ( -0.000000000000000000, -0.000000000000000000, -1.000000000000000000 ) ) ;
#344 = EDGE_LOOP ( 'NONE', ( #192, #91, #84, #151 ) ) ;
#345 = ADVANCED_FACE ( 'NONE', ( #134, #251 ), #105, .T. ) ;
#346 = FACE_OUTER_BOUND ( 'NONE', #236, .T. ) ;
#347 = DIRECTION ( 'NONE',  ( 1.000000000000000000, 0.000000000000000000, 0.000000000000000000 ) ) ;
#348 = COORDINATED_UNIVERSAL_TIME_OFFSET ( 1, 0, .AHEAD. ) ;
#349 = ADVANCED_FACE ( 'NONE', ( #80 ), #54, .F. ) ;
#350 = DIRECTION ( 'NONE',  ( 1.000000000000000000, 0.000000000000000000, 0.000000000000000000 ) ) ;
#351 = APPROVAL_ROLE ( '' ) ;
#352 = DIRECTION ( 'NONE',  ( 0.000000000000000000, -1.000000000000000000, 0.000000000000000000 ) ) ;
#353 = CIRCLE ( 'NONE', #186, 2.500000000000000000 ) ;
#354 = DATE_AND_TIME ( #379, #86 ) ;
#355 = FACE_OUTER_BOUND ( 'NONE', #202, .T. ) ;
#356 = VERTEX_POINT ( 'NONE', #90 ) ;
#357 = DIRECTION ( 'NONE',  ( -0.000000000000000000, -0.000000000000000000, -1.000000000000000000 ) ) ;
#358 = FACE_OUTER_BOUND ( 'NONE', #206, .T. ) ;
#359 = APPROVAL_PERSON_ORGANIZATION ( #29, #23, #351 ) ;
#360 = EDGE_LOOP ( 'NONE', ( #229, #63, #262, #36 ) ) ;
#361 = SHAPE_DEFINITION_REPRESENTATION ( #259, #171 ) ;
#362 = VECTOR ( 'NONE', #123, 1000.000000000000000 ) ;
#363 = TOROIDAL_SURFACE ( 'NONE', #256, 5.500000000000000000, 0.5000000000000000000 ) ;
#364 = CARTESIAN_POINT ( 'NONE',  ( 0.000000000000000000, 0.000000000000000000, 5.000000000000000000 ) ) ;
#365 = CARTESIAN_POINT ( 'NONE',  ( 0.000000000000000000, 0.000000000000000000, 5.000000000000000000 ) ) ;
#366 = CC_DESIGN_APPROVAL ( #329, ( #322 ) ) ;
#367 = DIRECTION ( 'NONE',  ( 0.000000000000000000, 0.000000000000000000, -1.000000000000000000 ) ) ;
#368 = CARTESIAN_POINT ( 'NONE',  ( -2.500000000000000000, 0.000000000000000000, 0.000000000000000000 ) ) ;
#369 = DIRECTION ( 'NONE',  ( -0.000000000000000000, -0.000000000000000000, -1.000000000000000000 ) ) ;
#370 = ORIENTED_EDGE ( 'NONE', *, *, #183, .T. ) ;
#371 = CARTESIAN_POINT ( 'NONE',  ( 0.000000000000000000, 0.000000000000000000, 5.499999999999949374 ) ) ;
#372 = ORIENTED_EDGE ( 'NONE', *, *, #87, .T. ) ;
#373 = CIRCLE ( 'NONE', #161, 5.000000000000000000 ) ;
#374 = EDGE_CURVE ( 'NONE', #109, #283, #5, .T. ) ;
#375 = LOCAL_TIME ( 17, 14, 43.00000000000000000, #148 ) ;
#376 = CC_DESIGN_DATE_AND_TIME_ASSIGNMENT ( #7, #209, ( #322 ) ) ;
#377 = DATE_AND_TIME ( #325, #51 ) ;
#378 = EDGE_LOOP ( 'NONE', ( #194, #292 ) ) ;
#379 = CALENDAR_DATE ( 2022, 8, 7 ) ;
#380 = PRODUCT ( 'db69', 'db69', '', ( #111 ) ) ;
#381 = AXIS2_PLACEMENT_3D ( 'NONE', #242, #238, #156 ) ;
ENDSEC;
END-ISO-10303-21;
