ISO-10303-21;
HEADER;
FILE_DESCRIPTION (( 'STEP AP203' ),
    '1' );
FILE_NAME ('2dc5.STEP',
    '2022-07-08T15:39:27',
    ( '' ),
    ( '' ),
    'SwSTEP 2.0',
    'SolidWorks 2019',
    '' );
FILE_SCHEMA (( 'CONFIG_CONTROL_DESIGN' ));
ENDSEC;

DATA;
#1 = AXIS2_PLACEMENT_3D ( 'NONE', #344, #205, #18 ) ;
#2 = CARTESIAN_POINT ( 'NONE',  ( 0.000000000000000000, 0.000000000000000000, 5.000000000000000000 ) ) ;
#3 = DIRECTION ( 'NONE',  ( 0.000000000000000000, 0.000000000000000000, 1.000000000000000000 ) ) ;
#4 = CARTESIAN_POINT ( 'NONE',  ( 0.000000000000000000, 0.000000000000000000, 0.000000000000000000 ) ) ;
#5 = AXIS2_PLACEMENT_3D ( 'NONE', #89, #3, #29 ) ;
#6 = CARTESIAN_POINT ( 'NONE',  ( 0.000000000000000000, 0.000000000000000000, 165.0000000000000000 ) ) ;
#7 = VERTEX_POINT ( 'NONE', #8 ) ;
#8 = CARTESIAN_POINT ( 'NONE',  ( 1.750000000000000000, 2.143131898507868297E-16, 0.000000000000000000 ) ) ;
#9 = ADVANCED_BREP_SHAPE_REPRESENTATION ( '2dc5', ( #327, #218 ), #97 ) ;
#10 = DIRECTION ( 'NONE',  ( 0.000000000000000000, 0.000000000000000000, 1.000000000000000000 ) ) ;
#11 = CIRCLE ( 'NONE', #87, 0.4999999999999995559 ) ;
#12 = COORDINATED_UNIVERSAL_TIME_OFFSET ( 1, 0, .AHEAD. ) ;
#13 = ORIENTED_EDGE ( 'NONE', *, *, #346, .F. ) ;
#14 = CALENDAR_DATE ( 2022, 8, 7 ) ;
#15 = ORIENTED_EDGE ( 'NONE', *, *, #39, .F. ) ;
#16 = PRODUCT_DEFINITION_SHAPE ( 'NONE', 'NONE',  #214 ) ;
#17 = EDGE_CURVE ( 'NONE', #107, #269, #263, .T. ) ;
#18 = DIRECTION ( 'NONE',  ( 1.000000000000000000, 0.000000000000000000, 0.000000000000000000 ) ) ;
#19 = DATE_AND_TIME ( #287, #161 ) ;
#20 = ADVANCED_FACE ( 'NONE', ( #47, #109 ), #165, .T. ) ;
#21 = CARTESIAN_POINT ( 'NONE',  ( 3.000000000000000444, 3.673940397442060361E-16, 5.500000000000005329 ) ) ;
#22 = TOROIDAL_SURFACE ( 'NONE', #311, 3.500000000000000444, 0.5000000000000000000 ) ;
#23 = LOCAL_TIME ( 17, 39, 27.00000000000000000, #12 ) ;
#24 = PERSON_AND_ORGANIZATION ( #134, #43 ) ;
#25 = DIRECTION ( 'NONE',  ( 1.000000000000000000, 0.000000000000000000, -0.000000000000000000 ) ) ;
#26 = ORIENTED_EDGE ( 'NONE', *, *, #54, .T. ) ;
#27 = DIRECTION ( 'NONE',  ( 0.000000000000000000, 0.000000000000000000, 1.000000000000000000 ) ) ;
#28 = VECTOR ( 'NONE', #120, 1000.000000000000000 ) ;
#29 = DIRECTION ( 'NONE',  ( 1.000000000000000000, 0.000000000000000000, 0.000000000000000000 ) ) ;
#30 = ORIENTED_EDGE ( 'NONE', *, *, #286, .F. ) ;
#31 = EDGE_CURVE ( 'NONE', #254, #262, #208, .T. ) ;
#32 = FACE_OUTER_BOUND ( 'NONE', #243, .T. ) ;
#33 = DIRECTION ( 'NONE',  ( 0.000000000000000000, 0.000000000000000000, -1.000000000000000000 ) ) ;
#34 = APPROVAL ( #46, 'NEURÈENÝ' ) ;
#35 = AXIS2_PLACEMENT_3D ( 'NONE', #274, #118, #345 ) ;
#36 = CC_DESIGN_APPROVAL ( #186, ( #75 ) ) ;
#37 = DIRECTION ( 'NONE',  ( -0.000000000000000000, -0.000000000000000000, -1.000000000000000000 ) ) ;
#38 = CARTESIAN_POINT ( 'NONE',  ( 0.000000000000000000, 0.000000000000000000, 5.500000000000005329 ) ) ;
#39 = EDGE_CURVE ( 'NONE', #130, #254, #244, .T. ) ;
#40 = ORIENTED_EDGE ( 'NONE', *, *, #123, .F. ) ;
#41 = CC_DESIGN_DATE_AND_TIME_ASSIGNMENT ( #234, #210, ( #312 ) ) ;
#42 = CIRCLE ( 'NONE', #289, 1.750000000000000000 ) ;
#43 = ORGANIZATION ( 'NEURÈENÝ', 'NEURÈENÝ', '' ) ;
#44 = MECHANICAL_CONTEXT ( 'NONE', #143, 'mechanical' ) ;
#45 = ORIENTED_EDGE ( 'NONE', *, *, #108, .F. ) ;
#46 = APPROVAL_STATUS ( 'not_yet_approved' ) ;
#47 = FACE_BOUND ( 'NONE', #281, .T. ) ;
#48 = EDGE_CURVE ( 'NONE', #254, #130, #192, .T. ) ;
#49 = ORIENTED_EDGE ( 'NONE', *, *, #31, .T. ) ;
#50 = APPLICATION_CONTEXT ( 'configuration controlled 3d designs of mechanical parts and assemblies' ) ;
#51 = CIRCLE ( 'NONE', #187, 3.500000000000000444 ) ;
#52 = DIRECTION ( 'NONE',  ( -1.000000000000000000, 0.000000000000000000, 0.000000000000000000 ) ) ;
#53 = CIRCLE ( 'NONE', #251, 3.500000000000000444 ) ;
#54 = EDGE_CURVE ( 'NONE', #241, #290, #375, .T. ) ;
#55 = CARTESIAN_POINT ( 'NONE',  ( 0.000000000000000000, 0.000000000000000000, 5.500000000000005329 ) ) ;
#56 = CC_DESIGN_SECURITY_CLASSIFICATION ( #312, ( #75 ) ) ;
#57 = APPROVAL_STATUS ( 'not_yet_approved' ) ;
#58 = DIRECTION ( 'NONE',  ( 1.000000000000000000, 0.000000000000000000, 0.000000000000000000 ) ) ;
#59 = ORIENTED_EDGE ( 'NONE', *, *, #48, .F. ) ;
#60 = FACE_OUTER_BOUND ( 'NONE', #249, .T. ) ;
#61 = DIRECTION ( 'NONE',  ( 1.000000000000000000, 0.000000000000000000, 0.000000000000000000 ) ) ;
#62 = APPROVAL_PERSON_ORGANIZATION ( #24, #186, #313 ) ;
#63 = ORIENTED_EDGE ( 'NONE', *, *, #64, .F. ) ;
#64 = EDGE_CURVE ( 'NONE', #290, #107, #325, .T. ) ;
#65 = CARTESIAN_POINT ( 'NONE',  ( 6.000000000000000888, 7.347880794884120722E-16, 5.000000000000000000 ) ) ;
#66 = CARTESIAN_POINT ( 'NONE',  ( 0.000000000000000000, 0.000000000000000000, 5.000000000000000000 ) ) ;
#67 = CARTESIAN_POINT ( 'NONE',  ( 0.000000000000000000, 0.000000000000000000, 5.000000000000000000 ) ) ;
#68 = DIRECTION ( 'NONE',  ( 0.000000000000000000, 0.000000000000000000, 1.000000000000000000 ) ) ;
#69 = VECTOR ( 'NONE', #33, 1000.000000000000000 ) ;
#70 = CARTESIAN_POINT ( 'NONE',  ( 3.000000000000000444, 3.673940397442060361E-16, 165.0000000000000000 ) ) ;
#71 =( LENGTH_UNIT ( ) NAMED_UNIT ( * ) SI_UNIT ( .MILLI., .METRE. ) );
#72 =( NAMED_UNIT ( * ) SI_UNIT ( $, .STERADIAN. ) SOLID_ANGLE_UNIT ( ) );
#73 = EDGE_LOOP ( 'NONE', ( #347, #191 ) ) ;
#74 = CIRCLE ( 'NONE', #296, 3.000000000000000444 ) ;
#75 = PRODUCT_DEFINITION_FORMATION_WITH_SPECIFIED_SOURCE ( 'LIBOVOLNÝ', '', #264, .NOT_KNOWN. ) ;
#76 = ORIENTED_EDGE ( 'NONE', *, *, #90, .F. ) ;
#77 = CALENDAR_DATE ( 2022, 8, 7 ) ;
#78 = ORIENTED_EDGE ( 'NONE', *, *, #31, .F. ) ;
#79 = CALENDAR_DATE ( 2022, 8, 7 ) ;
#80 = ORIENTED_EDGE ( 'NONE', *, *, #129, .F. ) ;
#81 = CYLINDRICAL_SURFACE ( 'NONE', #368, 6.000000000000000888 ) ;
#82 = EDGE_CURVE ( 'NONE', #107, #290, #376, .T. ) ;
#83 = PERSON_AND_ORGANIZATION_ROLE ( 'design_supplier' ) ;
#84 = PERSON_AND_ORGANIZATION ( #134, #43 ) ;
#85 = PLANE ( 'NONE',  #338 ) ;
#86 = COORDINATED_UNIVERSAL_TIME_OFFSET ( 1, 0, .AHEAD. ) ;
#87 = AXIS2_PLACEMENT_3D ( 'NONE', #221, #154, #184 ) ;
#88 = CARTESIAN_POINT ( 'NONE',  ( 0.000000000000000000, 0.000000000000000000, 5.500000000000005329 ) ) ;
#89 = CARTESIAN_POINT ( 'NONE',  ( 0.000000000000000000, 0.000000000000000000, 165.0000000000000000 ) ) ;
#90 = EDGE_CURVE ( 'NONE', #269, #132, #51, .T. ) ;
#91 = VERTEX_POINT ( 'NONE', #258 ) ;
#92 = CARTESIAN_POINT ( 'NONE',  ( 1.750000000000000000, 2.143131898507868297E-16, 165.0000000000000000 ) ) ;
#93 = EDGE_CURVE ( 'NONE', #130, #378, #142, .T. ) ;
#94 = EDGE_LOOP ( 'NONE', ( #267, #364, #167, #13 ) ) ;
#95 = CARTESIAN_POINT ( 'NONE',  ( 3.500000000000000444, 0.000000000000000000, 5.000000000000002665 ) ) ;
#96 = CARTESIAN_POINT ( 'NONE',  ( 3.000000000000000444, 3.673940397442060361E-16, 165.0000000000000000 ) ) ;
#97 =( GEOMETRIC_REPRESENTATION_CONTEXT ( 3 ) GLOBAL_UNCERTAINTY_ASSIGNED_CONTEXT ( ( #105 ) ) GLOBAL_UNIT_ASSIGNED_CONTEXT ( ( #71, #359, #72 ) ) REPRESENTATION_CONTEXT ( 'NONE', 'WORKASPACE' ) );
#98 = CARTESIAN_POINT ( 'NONE',  ( 0.000000000000000000, 0.000000000000000000, 165.0000000000000000 ) ) ;
#99 = PERSON_AND_ORGANIZATION ( #134, #43 ) ;
#100 = ORIENTED_EDGE ( 'NONE', *, *, #158, .F. ) ;
#101 = EDGE_LOOP ( 'NONE', ( #78, #15, #329, #306 ) ) ;
#102 = CC_DESIGN_PERSON_AND_ORGANIZATION_ASSIGNMENT ( #202, #83, ( #75 ) ) ;
#103 = CIRCLE ( 'NONE', #237, 6.000000000000000888 ) ;
#104 = DIRECTION ( 'NONE',  ( 1.000000000000000000, 0.000000000000000000, 0.000000000000000000 ) ) ;
#105 = UNCERTAINTY_MEASURE_WITH_UNIT (LENGTH_MEASURE( 1.000000000000000082E-05 ), #71, 'distance_accuracy_value', 'NONE');
#106 = PERSON_AND_ORGANIZATION ( #134, #43 ) ;
#107 = VERTEX_POINT ( 'NONE', #21 ) ;
#108 = EDGE_CURVE ( 'NONE', #91, #133, #146, .T. ) ;
#109 = FACE_OUTER_BOUND ( 'NONE', #73, .T. ) ;
#110 = PERSON_AND_ORGANIZATION_ROLE ( 'classification_officer' ) ;
#111 = DIRECTION ( 'NONE',  ( -0.000000000000000000, -0.000000000000000000, -1.000000000000000000 ) ) ;
#112 = DIRECTION ( 'NONE',  ( 0.000000000000000000, 0.000000000000000000, -1.000000000000000000 ) ) ;
#113 = APPROVAL_DATE_TIME ( #372, #186 ) ;
#114 = DIRECTION ( 'NONE',  ( 0.000000000000000000, 0.000000000000000000, 1.000000000000000000 ) ) ;
#115 = APPROVAL_PERSON_ORGANIZATION ( #204, #153, #138 ) ;
#116 = DIRECTION ( 'NONE',  ( 1.000000000000000000, 0.000000000000000000, 0.000000000000000000 ) ) ;
#117 = ORIENTED_EDGE ( 'NONE', *, *, #293, .F. ) ;
#118 = DIRECTION ( 'NONE',  ( 0.000000000000000000, 0.000000000000000000, 1.000000000000000000 ) ) ;
#119 = ADVANCED_FACE ( 'NONE', ( #60 ), #81, .T. ) ;
#120 = DIRECTION ( 'NONE',  ( -0.000000000000000000, -0.000000000000000000, -1.000000000000000000 ) ) ;
#121 = DIRECTION ( 'NONE',  ( -0.000000000000000000, -0.000000000000000000, -1.000000000000000000 ) ) ;
#122 = CARTESIAN_POINT ( 'NONE',  ( 0.000000000000000000, 0.000000000000000000, 165.0000000000000000 ) ) ;
#123 = EDGE_CURVE ( 'NONE', #378, #262, #103, .T. ) ;
#124 = FACE_OUTER_BOUND ( 'NONE', #199, .T. ) ;
#125 = VECTOR ( 'NONE', #316, 1000.000000000000000 ) ;
#126 = AXIS2_PLACEMENT_3D ( 'NONE', #190, #361, #159 ) ;
#127 = ADVANCED_FACE ( 'NONE', ( #233, #337 ), #85, .F. ) ;
#128 = EDGE_LOOP ( 'NONE', ( #30, #215, #362, #162 ) ) ;
#129 = EDGE_CURVE ( 'NONE', #262, #378, #137, .T. ) ;
#130 = VERTEX_POINT ( 'NONE', #318 ) ;
#131 = VECTOR ( 'NONE', #111, 1000.000000000000000 ) ;
#132 = VERTEX_POINT ( 'NONE', #314 ) ;
#133 = VERTEX_POINT ( 'NONE', #172 ) ;
#134 = PERSON ( 'NEURÈENÝ', 'NEURÈENÝ', 'NEURÈENÝ', ('NEURÈENÝ'), ('NEURÈENÝ'), ('NEURÈENÝ') ) ;
#135 = PERSON_AND_ORGANIZATION_ROLE ( 'creator' ) ;
#136 = DIRECTION ( 'NONE',  ( 1.000000000000000000, 0.000000000000000000, 0.000000000000000000 ) ) ;
#137 = CIRCLE ( 'NONE', #180, 6.000000000000000888 ) ;
#138 = APPROVAL_ROLE ( '' ) ;
#139 = AXIS2_PLACEMENT_3D ( 'NONE', #4, #352, #61 ) ;
#140 = DIRECTION ( 'NONE',  ( -0.000000000000000000, -0.000000000000000000, -1.000000000000000000 ) ) ;
#141 = EDGE_CURVE ( 'NONE', #241, #152, #209, .T. ) ;
#142 = LINE ( 'NONE', #371, #227 ) ;
#143 = APPLICATION_CONTEXT ( 'configuration controlled 3d designs of mechanical parts and assemblies' ) ;
#144 = EDGE_LOOP ( 'NONE', ( #308, #256, #230, #225 ) ) ;
#145 = COORDINATED_UNIVERSAL_TIME_OFFSET ( 1, 0, .AHEAD. ) ;
#146 = LINE ( 'NONE', #179, #168 ) ;
#147 = AXIS2_PLACEMENT_3D ( 'NONE', #294, #380, #246 ) ;
#148 = DIRECTION ( 'NONE',  ( 0.000000000000000000, 0.000000000000000000, 1.000000000000000000 ) ) ;
#149 = LOCAL_TIME ( 17, 39, 27.00000000000000000, #86 ) ;
#150 = EDGE_CURVE ( 'NONE', #152, #107, #324, .T. ) ;
#151 = DIRECTION ( 'NONE',  ( 0.000000000000000000, 0.000000000000000000, 1.000000000000000000 ) ) ;
#152 = VERTEX_POINT ( 'NONE', #70 ) ;
#153 = APPROVAL ( #285, 'NEURÈENÝ' ) ;
#154 = DIRECTION ( 'NONE',  ( 1.224646799147353207E-16, 1.000000000000000000, -0.000000000000000000 ) ) ;
#155 = DIRECTION ( 'NONE',  ( -0.000000000000000000, -0.000000000000000000, -1.000000000000000000 ) ) ;
#156 = DIRECTION ( 'NONE',  ( 1.000000000000000000, 0.000000000000000000, 0.000000000000000000 ) ) ;
#157 = DIRECTION ( 'NONE',  ( -0.000000000000000000, -0.000000000000000000, -1.000000000000000000 ) ) ;
#158 = EDGE_CURVE ( 'NONE', #197, #91, #292, .T. ) ;
#159 = DIRECTION ( 'NONE',  ( -1.000000000000000000, 0.000000000000000000, 0.000000000000000000 ) ) ;
#160 = AXIS2_PLACEMENT_3D ( 'NONE', #55, #232, #176 ) ;
#161 = LOCAL_TIME ( 17, 39, 27.00000000000000000, #145 ) ;
#162 = ORIENTED_EDGE ( 'NONE', *, *, #54, .F. ) ;
#163 = FACE_OUTER_BOUND ( 'NONE', #331, .T. ) ;
#164 = DESIGN_CONTEXT ( 'detailed design', #50, 'design' ) ;
#165 = PLANE ( 'NONE',  #174 ) ;
#166 = DIRECTION ( 'NONE',  ( 0.000000000000000000, 0.000000000000000000, -1.000000000000000000 ) ) ;
#167 = ORIENTED_EDGE ( 'NONE', *, *, #17, .T. ) ;
#168 = VECTOR ( 'NONE', #112, 1000.000000000000000 ) ;
#169 = CYLINDRICAL_SURFACE ( 'NONE', #351, 1.750000000000000000 ) ;
#170 = ORIENTED_EDGE ( 'NONE', *, *, #93, .F. ) ;
#171 = EDGE_CURVE ( 'NONE', #290, #132, #11, .T. ) ;
#172 = CARTESIAN_POINT ( 'NONE',  ( -1.750000000000000000, 0.000000000000000000, 0.000000000000000000 ) ) ;
#173 = DIRECTION ( 'NONE',  ( 1.000000000000000000, 0.000000000000000000, 0.000000000000000000 ) ) ;
#174 = AXIS2_PLACEMENT_3D ( 'NONE', #67, #10, #25 ) ;
#175 = CC_DESIGN_DATE_AND_TIME_ASSIGNMENT ( #198, #309, ( #214 ) ) ;
#176 = DIRECTION ( 'NONE',  ( 1.000000000000000000, 0.000000000000000000, 0.000000000000000000 ) ) ;
#177 = PERSON_AND_ORGANIZATION ( #134, #43 ) ;
#178 = DIRECTION ( 'NONE',  ( -1.000000000000000000, 0.000000000000000000, 0.000000000000000000 ) ) ;
#179 = CARTESIAN_POINT ( 'NONE',  ( -1.750000000000000000, 0.000000000000000000, 165.0000000000000000 ) ) ;
#180 = AXIS2_PLACEMENT_3D ( 'NONE', #342, #211, #116 ) ;
#181 = CARTESIAN_POINT ( 'NONE',  ( 0.000000000000000000, 0.000000000000000000, 165.0000000000000000 ) ) ;
#182 = PRODUCT_RELATED_PRODUCT_CATEGORY ( 'detail', '', ( #264 ) ) ;
#183 = CARTESIAN_POINT ( 'NONE',  ( 1.750000000000000000, 2.143131898507868297E-16, 165.0000000000000000 ) ) ;
#184 = DIRECTION ( 'NONE',  ( -1.000000000000000000, 1.224646799147354440E-16, 0.000000000000000000 ) ) ;
#185 = ORIENTED_EDGE ( 'NONE', *, *, #150, .F. ) ;
#186 = APPROVAL ( #57, 'NEURÈENÝ' ) ;
#187 = AXIS2_PLACEMENT_3D ( 'NONE', #265, #288, #58 ) ;
#188 = CARTESIAN_POINT ( 'NONE',  ( 6.000000000000000888, 7.347880794884120722E-16, 0.000000000000000000 ) ) ;
#189 = FACE_BOUND ( 'NONE', #277, .T. ) ;
#190 = CARTESIAN_POINT ( 'NONE',  ( 0.000000000000000000, 0.000000000000000000, 165.0000000000000000 ) ) ;
#191 = ORIENTED_EDGE ( 'NONE', *, *, #48, .T. ) ;
#192 = CIRCLE ( 'NONE', #226, 6.000000000000000888 ) ;
#193 = PERSON_AND_ORGANIZATION ( #134, #43 ) ;
#194 = CARTESIAN_POINT ( 'NONE',  ( 3.500000000000000444, 0.000000000000000000, 5.500000000000005329 ) ) ;
#195 = DATE_AND_TIME ( #77, #297 ) ;
#196 = ADVANCED_FACE ( 'NONE', ( #242 ), #216, .F. ) ;
#197 = VERTEX_POINT ( 'NONE', #92 ) ;
#198 = DATE_AND_TIME ( #79, #23 ) ;
#199 = EDGE_LOOP ( 'NONE', ( #279, #304 ) ) ;
#200 = AXIS2_PLACEMENT_3D ( 'NONE', #219, #157, #323 ) ;
#201 = LOCAL_TIME ( 17, 39, 27.00000000000000000, #255 ) ;
#202 = PERSON_AND_ORGANIZATION ( #134, #43 ) ;
#203 = CARTESIAN_POINT ( 'NONE',  ( 0.000000000000000000, 0.000000000000000000, 5.000000000000000000 ) ) ;
#204 = PERSON_AND_ORGANIZATION ( #134, #43 ) ;
#205 = DIRECTION ( 'NONE',  ( 0.000000000000000000, 0.000000000000000000, 1.000000000000000000 ) ) ;
#206 = CC_DESIGN_PERSON_AND_ORGANIZATION_ASSIGNMENT ( #84, #135, ( #75 ) ) ;
#207 = CALENDAR_DATE ( 2022, 8, 7 ) ;
#208 = LINE ( 'NONE', #339, #131 ) ;
#209 = CIRCLE ( 'NONE', #5, 3.000000000000000444 ) ;
#210 = DATE_TIME_ROLE ( 'classification_date' ) ;
#211 = DIRECTION ( 'NONE',  ( 0.000000000000000000, 0.000000000000000000, 1.000000000000000000 ) ) ;
#212 = ORIENTED_EDGE ( 'NONE', *, *, #320, .T. ) ;
#213 = DIRECTION ( 'NONE',  ( -0.000000000000000000, -0.000000000000000000, -1.000000000000000000 ) ) ;
#214 = PRODUCT_DEFINITION ( 'NEZNÁMÝ', '', #75, #164 ) ;
#215 = ORIENTED_EDGE ( 'NONE', *, *, #150, .T. ) ;
#216 = TOROIDAL_SURFACE ( 'NONE', #350, 3.500000000000000444, 0.5000000000000000000 ) ;
#217 = DIRECTION ( 'NONE',  ( 0.000000000000000000, 0.000000000000000000, 1.000000000000000000 ) ) ;
#218 = AXIS2_PLACEMENT_3D ( 'NONE', #250, #278, #363 ) ;
#219 = CARTESIAN_POINT ( 'NONE',  ( 0.000000000000000000, 0.000000000000000000, 165.0000000000000000 ) ) ;
#220 = DIRECTION ( 'NONE',  ( 1.000000000000000000, 0.000000000000000000, 0.000000000000000000 ) ) ;
#221 = CARTESIAN_POINT ( 'NONE',  ( -3.500000000000000444, 4.286263797015737088E-16, 5.500000000000005329 ) ) ;
#222 = CYLINDRICAL_SURFACE ( 'NONE', #126, 1.750000000000000000 ) ;
#223 = ORIENTED_EDGE ( 'NONE', *, *, #346, .T. ) ;
#224 = EDGE_CURVE ( 'NONE', #91, #197, #231, .T. ) ;
#225 = ORIENTED_EDGE ( 'NONE', *, *, #293, .T. ) ;
#226 = AXIS2_PLACEMENT_3D ( 'NONE', #317, #27, #136 ) ;
#227 = VECTOR ( 'NONE', #213, 1000.000000000000000 ) ;
#228 = EDGE_LOOP ( 'NONE', ( #185, #236, #26, #248 ) ) ;
#229 = ORIENTED_EDGE ( 'NONE', *, *, #320, .F. ) ;
#230 = ORIENTED_EDGE ( 'NONE', *, *, #108, .T. ) ;
#231 = CIRCLE ( 'NONE', #303, 1.750000000000000000 ) ;
#232 = DIRECTION ( 'NONE',  ( 0.000000000000000000, 0.000000000000000000, 1.000000000000000000 ) ) ;
#233 = FACE_BOUND ( 'NONE', #349, .T. ) ;
#234 = DATE_AND_TIME ( #207, #149 ) ;
#235 = DIRECTION ( 'NONE',  ( 1.000000000000000000, 0.000000000000000000, -0.000000000000000000 ) ) ;
#236 = ORIENTED_EDGE ( 'NONE', *, *, #141, .F. ) ;
#237 = AXIS2_PLACEMENT_3D ( 'NONE', #373, #148, #367 ) ;
#238 = CARTESIAN_POINT ( 'NONE',  ( -3.000000000000000444, 0.000000000000000000, 165.0000000000000000 ) ) ;
#239 = ADVANCED_FACE ( 'NONE', ( #32 ), #22, .F. ) ;
#240 = FACE_OUTER_BOUND ( 'NONE', #101, .T. ) ;
#241 = VERTEX_POINT ( 'NONE', #322 ) ;
#242 = FACE_OUTER_BOUND ( 'NONE', #94, .T. ) ;
#243 = EDGE_LOOP ( 'NONE', ( #63, #310, #76, #360 ) ) ;
#244 = CIRCLE ( 'NONE', #1, 6.000000000000000888 ) ;
#245 = FACE_OUTER_BOUND ( 'NONE', #228, .T. ) ;
#246 = DIRECTION ( 'NONE',  ( -1.000000000000000000, 0.000000000000000000, 0.000000000000000000 ) ) ;
#247 = FACE_OUTER_BOUND ( 'NONE', #144, .T. ) ;
#248 = ORIENTED_EDGE ( 'NONE', *, *, #64, .T. ) ;
#249 = EDGE_LOOP ( 'NONE', ( #59, #49, #321, #170 ) ) ;
#250 = CARTESIAN_POINT ( 'NONE',  ( 0.000000000000000000, 0.000000000000000000, 0.000000000000000000 ) ) ;
#251 = AXIS2_PLACEMENT_3D ( 'NONE', #2, #121, #104 ) ;
#252 = CC_DESIGN_PERSON_AND_ORGANIZATION_ASSIGNMENT ( #99, #305, ( #264 ) ) ;
#253 = PLANE ( 'NONE',  #377 ) ;
#254 = VERTEX_POINT ( 'NONE', #65 ) ;
#255 = COORDINATED_UNIVERSAL_TIME_OFFSET ( 1, 0, .AHEAD. ) ;
#256 = ORIENTED_EDGE ( 'NONE', *, *, #158, .T. ) ;
#257 = SHAPE_DEFINITION_REPRESENTATION ( #16, #9 ) ;
#258 = CARTESIAN_POINT ( 'NONE',  ( -1.750000000000000000, 0.000000000000000000, 165.0000000000000000 ) ) ;
#259 = CC_DESIGN_APPROVAL ( #34, ( #214 ) ) ;
#260 = SECURITY_CLASSIFICATION_LEVEL ( 'unclassified' ) ;
#261 = APPROVAL_DATE_TIME ( #19, #153 ) ;
#262 = VERTEX_POINT ( 'NONE', #188 ) ;
#263 = CIRCLE ( 'NONE', #276, 0.5000000000000004441 ) ;
#264 = PRODUCT ( '2dc5', '2dc5', '', ( #44 ) ) ;
#265 = CARTESIAN_POINT ( 'NONE',  ( 0.000000000000000000, 0.000000000000000000, 5.000000000000000000 ) ) ;
#266 = CYLINDRICAL_SURFACE ( 'NONE', #370, 6.000000000000000888 ) ;
#267 = ORIENTED_EDGE ( 'NONE', *, *, #171, .F. ) ;
#268 = DIRECTION ( 'NONE',  ( 1.000000000000000000, 0.000000000000000000, 0.000000000000000000 ) ) ;
#269 = VERTEX_POINT ( 'NONE', #95 ) ;
#270 = CLOSED_SHELL ( 'NONE', ( #358, #239, #299, #119, #336, #20, #127, #302, #369, #196, #379 ) ) ;
#271 = DIRECTION ( 'NONE',  ( -1.000000000000000000, 0.000000000000000000, 0.000000000000000000 ) ) ;
#272 = CC_DESIGN_APPROVAL ( #153, ( #312 ) ) ;
#273 = FACE_OUTER_BOUND ( 'NONE', #128, .T. ) ;
#274 = CARTESIAN_POINT ( 'NONE',  ( 0.000000000000000000, 0.000000000000000000, 165.0000000000000000 ) ) ;
#275 = APPLICATION_PROTOCOL_DEFINITION ( 'international standard', 'config_control_design', 1994, #143 ) ;
#276 = AXIS2_PLACEMENT_3D ( 'NONE', #194, #365, #366 ) ;
#277 = EDGE_LOOP ( 'NONE', ( #374, #100 ) ) ;
#278 = DIRECTION ( 'NONE',  ( 0.000000000000000000, 0.000000000000000000, 1.000000000000000000 ) ) ;
#279 = ORIENTED_EDGE ( 'NONE', *, *, #141, .T. ) ;
#280 = APPROVAL_ROLE ( '' ) ;
#281 = EDGE_LOOP ( 'NONE', ( #283, #223 ) ) ;
#282 = DIRECTION ( 'NONE',  ( 1.000000000000000000, 0.000000000000000000, -0.000000000000000000 ) ) ;
#283 = ORIENTED_EDGE ( 'NONE', *, *, #90, .T. ) ;
#284 = ORIENTED_EDGE ( 'NONE', *, *, #301, .T. ) ;
#285 = APPROVAL_STATUS ( 'not_yet_approved' ) ;
#286 = EDGE_CURVE ( 'NONE', #152, #241, #74, .T. ) ;
#287 = CALENDAR_DATE ( 2022, 8, 7 ) ;
#288 = DIRECTION ( 'NONE',  ( -0.000000000000000000, -0.000000000000000000, -1.000000000000000000 ) ) ;
#289 = AXIS2_PLACEMENT_3D ( 'NONE', #326, #37, #156 ) ;
#290 = VERTEX_POINT ( 'NONE', #295 ) ;
#291 = DIRECTION ( 'NONE',  ( 0.000000000000000000, 0.000000000000000000, 1.000000000000000000 ) ) ;
#292 = CIRCLE ( 'NONE', #35, 1.750000000000000000 ) ;
#293 = EDGE_CURVE ( 'NONE', #133, #7, #42, .T. ) ;
#294 = CARTESIAN_POINT ( 'NONE',  ( 0.000000000000000000, 0.000000000000000000, 165.0000000000000000 ) ) ;
#295 = CARTESIAN_POINT ( 'NONE',  ( -3.000000000000000444, 0.000000000000000000, 5.500000000000005329 ) ) ;
#296 = AXIS2_PLACEMENT_3D ( 'NONE', #181, #68, #268 ) ;
#297 = LOCAL_TIME ( 17, 39, 27.00000000000000000, #332 ) ;
#298 = DIRECTION ( 'NONE',  ( 1.000000000000000000, 0.000000000000000000, 0.000000000000000000 ) ) ;
#299 = ADVANCED_FACE ( 'NONE', ( #273 ), #381, .T. ) ;
#300 = CYLINDRICAL_SURFACE ( 'NONE', #200, 3.000000000000000444 ) ;
#301 = EDGE_CURVE ( 'NONE', #197, #7, #354, .T. ) ;
#302 = ADVANCED_FACE ( 'NONE', ( #245 ), #300, .T. ) ;
#303 = AXIS2_PLACEMENT_3D ( 'NONE', #122, #217, #319 ) ;
#304 = ORIENTED_EDGE ( 'NONE', *, *, #286, .T. ) ;
#305 = PERSON_AND_ORGANIZATION_ROLE ( 'design_owner' ) ;
#306 = ORIENTED_EDGE ( 'NONE', *, *, #123, .T. ) ;
#307 = APPROVAL_DATE_TIME ( #195, #34 ) ;
#308 = ORIENTED_EDGE ( 'NONE', *, *, #301, .F. ) ;
#309 = DATE_TIME_ROLE ( 'creation_date' ) ;
#310 = ORIENTED_EDGE ( 'NONE', *, *, #171, .T. ) ;
#311 = AXIS2_PLACEMENT_3D ( 'NONE', #353, #151, #220 ) ;
#312 = SECURITY_CLASSIFICATION ( '', '', #260 ) ;
#313 = APPROVAL_ROLE ( '' ) ;
#314 = CARTESIAN_POINT ( 'NONE',  ( -3.500000000000000444, 4.286263797015737088E-16, 5.000000000000002665 ) ) ;
#315 = CC_DESIGN_PERSON_AND_ORGANIZATION_ASSIGNMENT ( #177, #110, ( #312 ) ) ;
#316 = DIRECTION ( 'NONE',  ( -0.000000000000000000, -0.000000000000000000, -1.000000000000000000 ) ) ;
#317 = CARTESIAN_POINT ( 'NONE',  ( 0.000000000000000000, 0.000000000000000000, 5.000000000000000000 ) ) ;
#318 = CARTESIAN_POINT ( 'NONE',  ( -6.000000000000000888, 0.000000000000000000, 5.000000000000000000 ) ) ;
#319 = DIRECTION ( 'NONE',  ( 1.000000000000000000, 0.000000000000000000, 0.000000000000000000 ) ) ;
#320 = EDGE_CURVE ( 'NONE', #7, #133, #355, .T. ) ;
#321 = ORIENTED_EDGE ( 'NONE', *, *, #129, .T. ) ;
#322 = CARTESIAN_POINT ( 'NONE',  ( -3.000000000000000444, 0.000000000000000000, 165.0000000000000000 ) ) ;
#323 = DIRECTION ( 'NONE',  ( -1.000000000000000000, 0.000000000000000000, 0.000000000000000000 ) ) ;
#324 = LINE ( 'NONE', #96, #28 ) ;
#325 = CIRCLE ( 'NONE', #160, 3.000000000000000444 ) ;
#326 = CARTESIAN_POINT ( 'NONE',  ( 0.000000000000000000, 0.000000000000000000, 0.000000000000000000 ) ) ;
#327 = MANIFOLD_SOLID_BREP ( 'Odebrat vysunutím3', #270 ) ;
#328 = DIRECTION ( 'NONE',  ( 0.000000000000000000, 0.000000000000000000, 1.000000000000000000 ) ) ;
#329 = ORIENTED_EDGE ( 'NONE', *, *, #93, .T. ) ;
#330 = APPLICATION_PROTOCOL_DEFINITION ( 'international standard', 'config_control_design', 1994, #50 ) ;
#331 = EDGE_LOOP ( 'NONE', ( #333, #284, #212, #45 ) ) ;
#332 = COORDINATED_UNIVERSAL_TIME_OFFSET ( 1, 0, .AHEAD. ) ;
#333 = ORIENTED_EDGE ( 'NONE', *, *, #224, .T. ) ;
#334 = PERSON_AND_ORGANIZATION_ROLE ( 'creator' ) ;
#335 = EDGE_LOOP ( 'NONE', ( #40, #80 ) ) ;
#336 = ADVANCED_FACE ( 'NONE', ( #240 ), #266, .T. ) ;
#337 = FACE_OUTER_BOUND ( 'NONE', #335, .T. ) ;
#338 = AXIS2_PLACEMENT_3D ( 'NONE', #340, #114, #235 ) ;
#339 = CARTESIAN_POINT ( 'NONE',  ( 6.000000000000000888, 7.347880794884120722E-16, 5.000000000000000000 ) ) ;
#340 = CARTESIAN_POINT ( 'NONE',  ( 0.000000000000000000, 0.000000000000000000, 0.000000000000000000 ) ) ;
#341 = CC_DESIGN_PERSON_AND_ORGANIZATION_ASSIGNMENT ( #106, #334, ( #214 ) ) ;
#342 = CARTESIAN_POINT ( 'NONE',  ( 0.000000000000000000, 0.000000000000000000, 0.000000000000000000 ) ) ;
#343 = AXIS2_PLACEMENT_3D ( 'NONE', #88, #291, #173 ) ;
#344 = CARTESIAN_POINT ( 'NONE',  ( 0.000000000000000000, 0.000000000000000000, 5.000000000000000000 ) ) ;
#345 = DIRECTION ( 'NONE',  ( 1.000000000000000000, 0.000000000000000000, 0.000000000000000000 ) ) ;
#346 = EDGE_CURVE ( 'NONE', #132, #269, #53, .T. ) ;
#347 = ORIENTED_EDGE ( 'NONE', *, *, #39, .T. ) ;
#348 = DIRECTION ( 'NONE',  ( 0.000000000000000000, 0.000000000000000000, 1.000000000000000000 ) ) ;
#349 = EDGE_LOOP ( 'NONE', ( #117, #229 ) ) ;
#350 = AXIS2_PLACEMENT_3D ( 'NONE', #38, #348, #298 ) ;
#351 = AXIS2_PLACEMENT_3D ( 'NONE', #98, #166, #52 ) ;
#352 = DIRECTION ( 'NONE',  ( -0.000000000000000000, -0.000000000000000000, -1.000000000000000000 ) ) ;
#353 = CARTESIAN_POINT ( 'NONE',  ( 0.000000000000000000, 0.000000000000000000, 5.500000000000005329 ) ) ;
#354 = LINE ( 'NONE', #183, #69 ) ;
#355 = CIRCLE ( 'NONE', #139, 1.750000000000000000 ) ;
#356 = APPROVAL_PERSON_ORGANIZATION ( #193, #34, #280 ) ;
#357 = CARTESIAN_POINT ( 'NONE',  ( -6.000000000000000888, 0.000000000000000000, 0.000000000000000000 ) ) ;
#358 = ADVANCED_FACE ( 'NONE', ( #163 ), #169, .F. ) ;
#359 =( NAMED_UNIT ( * ) PLANE_ANGLE_UNIT ( ) SI_UNIT ( $, .RADIAN. ) );
#360 = ORIENTED_EDGE ( 'NONE', *, *, #17, .F. ) ;
#361 = DIRECTION ( 'NONE',  ( 0.000000000000000000, 0.000000000000000000, -1.000000000000000000 ) ) ;
#362 = ORIENTED_EDGE ( 'NONE', *, *, #82, .T. ) ;
#363 = DIRECTION ( 'NONE',  ( 1.000000000000000000, 0.000000000000000000, 0.000000000000000000 ) ) ;
#364 = ORIENTED_EDGE ( 'NONE', *, *, #82, .F. ) ;
#365 = DIRECTION ( 'NONE',  ( 0.000000000000000000, -1.000000000000000000, 0.000000000000000000 ) ) ;
#366 = DIRECTION ( 'NONE',  ( 0.000000000000000000, 0.000000000000000000, -1.000000000000000000 ) ) ;
#367 = DIRECTION ( 'NONE',  ( 1.000000000000000000, 0.000000000000000000, 0.000000000000000000 ) ) ;
#368 = AXIS2_PLACEMENT_3D ( 'NONE', #203, #140, #178 ) ;
#369 = ADVANCED_FACE ( 'NONE', ( #189, #124 ), #253, .T. ) ;
#370 = AXIS2_PLACEMENT_3D ( 'NONE', #66, #155, #271 ) ;
#371 = CARTESIAN_POINT ( 'NONE',  ( -6.000000000000000888, 0.000000000000000000, 5.000000000000000000 ) ) ;
#372 = DATE_AND_TIME ( #14, #201 ) ;
#373 = CARTESIAN_POINT ( 'NONE',  ( 0.000000000000000000, 0.000000000000000000, 0.000000000000000000 ) ) ;
#374 = ORIENTED_EDGE ( 'NONE', *, *, #224, .F. ) ;
#375 = LINE ( 'NONE', #238, #125 ) ;
#376 = CIRCLE ( 'NONE', #343, 3.000000000000000444 ) ;
#377 = AXIS2_PLACEMENT_3D ( 'NONE', #6, #328, #282 ) ;
#378 = VERTEX_POINT ( 'NONE', #357 ) ;
#379 = ADVANCED_FACE ( 'NONE', ( #247 ), #222, .F. ) ;
#380 = DIRECTION ( 'NONE',  ( -0.000000000000000000, -0.000000000000000000, -1.000000000000000000 ) ) ;
#381 = CYLINDRICAL_SURFACE ( 'NONE', #147, 3.000000000000000444 ) ;
ENDSEC;
END-ISO-10303-21;
