ISO-10303-21;
HEADER;
FILE_DESCRIPTION (( 'STEP AP203' ),
    '1' );
FILE_NAME ('99c1.STEP',
    '2022-07-08T14:25:27',
    ( '' ),
    ( '' ),
    'SwSTEP 2.0',
    'SolidWorks 2019',
    '' );
FILE_SCHEMA (( 'CONFIG_CONTROL_DESIGN' ));
ENDSEC;

DATA;
#1 = ORIENTED_EDGE ( 'NONE', *, *, #303, .T. ) ;
#2 = ORIENTED_EDGE ( 'NONE', *, *, #260, .T. ) ;
#3 = AXIS2_PLACEMENT_3D ( 'NONE', #71, #314, #370 ) ;
#4 = ORIENTED_EDGE ( 'NONE', *, *, #260, .F. ) ;
#5 = EDGE_LOOP ( 'NONE', ( #330, #326, #320, #345 ) ) ;
#6 = CARTESIAN_POINT ( 'NONE',  ( 0.000000000000000000, 0.000000000000000000, 0.000000000000000000 ) ) ;
#7 = DIRECTION ( 'NONE',  ( 1.000000000000000000, 0.000000000000000000, 0.000000000000000000 ) ) ;
#8 = CARTESIAN_POINT ( 'NONE',  ( 0.000000000000000000, 0.000000000000000000, 0.000000000000000000 ) ) ;
#9 = DIRECTION ( 'NONE',  ( -0.000000000000000000, -0.000000000000000000, -1.000000000000000000 ) ) ;
#10 = CALENDAR_DATE ( 2022, 8, 7 ) ;
#11 = CARTESIAN_POINT ( 'NONE',  ( 0.000000000000000000, 0.000000000000000000, 7.000000000000000000 ) ) ;
#12 = LINE ( 'NONE', #210, #161 ) ;
#13 = FACE_OUTER_BOUND ( 'NONE', #270, .T. ) ;
#14 = ADVANCED_FACE ( 'NONE', ( #114 ), #249, .F. ) ;
#15 = DIRECTION ( 'NONE',  ( 0.000000000000000000, 0.000000000000000000, 1.000000000000000000 ) ) ;
#16 = CC_DESIGN_DATE_AND_TIME_ASSIGNMENT ( #19, #215, ( #65 ) ) ;
#17 = AXIS2_PLACEMENT_3D ( 'NONE', #295, #188, #30 ) ;
#18 = FACE_OUTER_BOUND ( 'NONE', #35, .T. ) ;
#19 = DATE_AND_TIME ( #96, #233 ) ;
#20 = CC_DESIGN_APPROVAL ( #103, ( #65 ) ) ;
#21 = CC_DESIGN_APPROVAL ( #281, ( #186 ) ) ;
#22 = ORIENTED_EDGE ( 'NONE', *, *, #179, .F. ) ;
#23 = DIRECTION ( 'NONE',  ( 1.000000000000000000, 0.000000000000000000, -0.000000000000000000 ) ) ;
#24 = ORIENTED_EDGE ( 'NONE', *, *, #227, .T. ) ;
#25 = DIRECTION ( 'NONE',  ( -1.000000000000000000, 1.224646799147353454E-16, 0.000000000000000000 ) ) ;
#26 = EDGE_CURVE ( 'NONE', #357, #49, #141, .T. ) ;
#27 = AXIS2_PLACEMENT_3D ( 'NONE', #337, #340, #111 ) ;
#28 = CARTESIAN_POINT ( 'NONE',  ( 0.000000000000000000, 0.000000000000000000, 7.000000000000000000 ) ) ;
#29 = ORIENTED_EDGE ( 'NONE', *, *, #160, .F. ) ;
#30 = DIRECTION ( 'NONE',  ( 1.000000000000000000, 0.000000000000000000, 0.000000000000000000 ) ) ;
#31 = ORIENTED_EDGE ( 'NONE', *, *, #121, .F. ) ;
#32 = EDGE_LOOP ( 'NONE', ( #165, #4, #269, #349 ) ) ;
#33 = CARTESIAN_POINT ( 'NONE',  ( 6.700000000000001066, 0.000000000000000000, 7.700000000000040146 ) ) ;
#34 =( GEOMETRIC_REPRESENTATION_CONTEXT ( 3 ) GLOBAL_UNCERTAINTY_ASSIGNED_CONTEXT ( ( #228 ) ) GLOBAL_UNIT_ASSIGNED_CONTEXT ( ( #316, #128, #377 ) ) REPRESENTATION_CONTEXT ( 'NONE', 'WORKASPACE' ) );
#35 = EDGE_LOOP ( 'NONE', ( #317, #220 ) ) ;
#36 = ORIENTED_EDGE ( 'NONE', *, *, #321, .T. ) ;
#37 = DIRECTION ( 'NONE',  ( 0.000000000000000000, 0.000000000000000000, 1.000000000000000000 ) ) ;
#38 = ORIENTED_EDGE ( 'NONE', *, *, #88, .F. ) ;
#39 = PERSON ( 'NEURÈENÝ', 'NEURÈENÝ', 'NEURÈENÝ', ('NEURÈENÝ'), ('NEURÈENÝ'), ('NEURÈENÝ') ) ;
#40 = APPLICATION_PROTOCOL_DEFINITION ( 'international standard', 'config_control_design', 1994, #158 ) ;
#41 = CARTESIAN_POINT ( 'NONE',  ( 4.500000000000000000, 5.510910596163087583E-16, 0.000000000000000000 ) ) ;
#42 = DIRECTION ( 'NONE',  ( 1.000000000000000000, 0.000000000000000000, 0.000000000000000000 ) ) ;
#43 = COORDINATED_UNIVERSAL_TIME_OFFSET ( 1, 0, .AHEAD. ) ;
#44 = AXIS2_PLACEMENT_3D ( 'NONE', #329, #145, #7 ) ;
#45 = PLANE ( 'NONE',  #190 ) ;
#46 = DIRECTION ( 'NONE',  ( 1.000000000000000000, 0.000000000000000000, 0.000000000000000000 ) ) ;
#47 = LOCAL_TIME ( 16, 25, 27.00000000000000000, #115 ) ;
#48 = EDGE_CURVE ( 'NONE', #273, #83, #212, .T. ) ;
#49 = VERTEX_POINT ( 'NONE', #89 ) ;
#50 = CIRCLE ( 'NONE', #371, 6.000000000000000888 ) ;
#51 = AXIS2_PLACEMENT_3D ( 'NONE', #69, #284, #359 ) ;
#52 = PERSON_AND_ORGANIZATION ( #39, #290 ) ;
#53 = ORIENTED_EDGE ( 'NONE', *, *, #98, .T. ) ;
#54 = ORIENTED_EDGE ( 'NONE', *, *, #166, .T. ) ;
#55 = ORIENTED_EDGE ( 'NONE', *, *, #250, .F. ) ;
#56 = DIRECTION ( 'NONE',  ( -0.000000000000000000, -0.000000000000000000, -1.000000000000000000 ) ) ;
#57 = EDGE_LOOP ( 'NONE', ( #2, #296 ) ) ;
#58 = CYLINDRICAL_SURFACE ( 'NONE', #353, 4.500000000000000000 ) ;
#59 = CIRCLE ( 'NONE', #44, 4.500000000000000000 ) ;
#60 = DIRECTION ( 'NONE',  ( 1.000000000000000000, 0.000000000000000000, 0.000000000000000000 ) ) ;
#61 = PERSON_AND_ORGANIZATION ( #39, #290 ) ;
#62 = DIRECTION ( 'NONE',  ( 0.000000000000000000, 0.000000000000000000, 1.000000000000000000 ) ) ;
#63 = PERSON_AND_ORGANIZATION ( #39, #290 ) ;
#64 = DIRECTION ( 'NONE',  ( -0.000000000000000000, -0.000000000000000000, -1.000000000000000000 ) ) ;
#65 = PRODUCT_DEFINITION ( 'NEZNÁMÝ', '', #67, #162 ) ;
#66 = DIRECTION ( 'NONE',  ( 0.000000000000000000, -1.000000000000000000, 0.000000000000000000 ) ) ;
#67 = PRODUCT_DEFINITION_FORMATION_WITH_SPECIFIED_SOURCE ( 'LIBOVOLNÝ', '', #308, .NOT_KNOWN. ) ;
#68 = DIRECTION ( 'NONE',  ( 0.000000000000000000, 0.000000000000000000, 1.000000000000000000 ) ) ;
#69 = CARTESIAN_POINT ( 'NONE',  ( 0.000000000000000000, 0.000000000000000000, 0.000000000000000000 ) ) ;
#70 = CYLINDRICAL_SURFACE ( 'NONE', #3, 4.500000000000000000 ) ;
#71 = CARTESIAN_POINT ( 'NONE',  ( 0.000000000000000000, 0.000000000000000000, 707.0000000000000000 ) ) ;
#72 = CARTESIAN_POINT ( 'NONE',  ( -4.500000000000000000, 0.000000000000000000, 707.0000000000000000 ) ) ;
#73 = ADVANCED_FACE ( 'NONE', ( #116 ), #167, .T. ) ;
#74 = PLANE ( 'NONE',  #279 ) ;
#75 = EDGE_CURVE ( 'NONE', #176, #310, #242, .T. ) ;
#76 = APPROVAL_PERSON_ORGANIZATION ( #61, #103, #372 ) ;
#77 = SECURITY_CLASSIFICATION_LEVEL ( 'unclassified' ) ;
#78 = CC_DESIGN_PERSON_AND_ORGANIZATION_ASSIGNMENT ( #311, #283, ( #65 ) ) ;
#79 = CIRCLE ( 'NONE', #157, 6.700000000000001066 ) ;
#80 = CARTESIAN_POINT ( 'NONE',  ( -6.000000000000000888, 0.000000000000000000, 7.700000000000040146 ) ) ;
#81 = ORIENTED_EDGE ( 'NONE', *, *, #315, .T. ) ;
#82 = DIRECTION ( 'NONE',  ( 0.000000000000000000, 0.000000000000000000, 1.000000000000000000 ) ) ;
#83 = VERTEX_POINT ( 'NONE', #181 ) ;
#84 = FACE_OUTER_BOUND ( 'NONE', #133, .T. ) ;
#85 = DIRECTION ( 'NONE',  ( 1.000000000000000000, 0.000000000000000000, 0.000000000000000000 ) ) ;
#86 = ADVANCED_FACE ( 'NONE', ( #13 ), #285, .F. ) ;
#87 = CIRCLE ( 'NONE', #344, 10.00000000000000000 ) ;
#88 = EDGE_CURVE ( 'NONE', #176, #201, #180, .T. ) ;
#89 = CARTESIAN_POINT ( 'NONE',  ( 4.500000000000000000, 5.510910596163087583E-16, 707.0000000000000000 ) ) ;
#90 = CARTESIAN_POINT ( 'NONE',  ( 0.000000000000000000, 0.000000000000000000, 707.0000000000000000 ) ) ;
#91 = DIRECTION ( 'NONE',  ( -0.000000000000000000, -0.000000000000000000, -1.000000000000000000 ) ) ;
#92 = DIRECTION ( 'NONE',  ( -0.000000000000000000, -0.000000000000000000, -1.000000000000000000 ) ) ;
#93 = APPROVAL_DATE_TIME ( #278, #281 ) ;
#94 = AXIS2_PLACEMENT_3D ( 'NONE', #187, #289, #127 ) ;
#95 = FACE_BOUND ( 'NONE', #304, .T. ) ;
#96 = CALENDAR_DATE ( 2022, 8, 7 ) ;
#97 = FACE_OUTER_BOUND ( 'NONE', #5, .T. ) ;
#98 = EDGE_CURVE ( 'NONE', #49, #357, #159, .T. ) ;
#99 = CIRCLE ( 'NONE', #286, 6.000000000000000888 ) ;
#100 = FACE_BOUND ( 'NONE', #164, .T. ) ;
#101 = EDGE_LOOP ( 'NONE', ( #22, #53, #236, #81 ) ) ;
#102 = AXIS2_PLACEMENT_3D ( 'NONE', #300, #62, #85 ) ;
#103 = APPROVAL ( #305, 'NEURÈENÝ' ) ;
#104 = FACE_BOUND ( 'NONE', #240, .T. ) ;
#105 = PERSON_AND_ORGANIZATION_ROLE ( 'design_supplier' ) ;
#106 = FACE_OUTER_BOUND ( 'NONE', #57, .T. ) ;
#107 = DIRECTION ( 'NONE',  ( 1.224646799147353207E-16, 1.000000000000000000, -0.000000000000000000 ) ) ;
#108 = EDGE_CURVE ( 'NONE', #301, #142, #50, .T. ) ;
#109 = VERTEX_POINT ( 'NONE', #41 ) ;
#110 = CARTESIAN_POINT ( 'NONE',  ( 0.000000000000000000, 0.000000000000000000, 7.700000000000040146 ) ) ;
#111 = DIRECTION ( 'NONE',  ( -1.000000000000000000, 0.000000000000000000, 0.000000000000000000 ) ) ;
#112 = APPROVAL_DATE_TIME ( #298, #381 ) ;
#113 = ORIENTED_EDGE ( 'NONE', *, *, #250, .T. ) ;
#114 = FACE_OUTER_BOUND ( 'NONE', #354, .T. ) ;
#115 = COORDINATED_UNIVERSAL_TIME_OFFSET ( 1, 0, .AHEAD. ) ;
#116 = FACE_OUTER_BOUND ( 'NONE', #32, .T. ) ;
#117 = MECHANICAL_CONTEXT ( 'NONE', #124, 'mechanical' ) ;
#118 = DIRECTION ( 'NONE',  ( 0.000000000000000000, 0.000000000000000000, 1.000000000000000000 ) ) ;
#119 = VECTOR ( 'NONE', #92, 1000.000000000000000 ) ;
#120 = DIRECTION ( 'NONE',  ( -1.000000000000000000, 0.000000000000000000, 0.000000000000000000 ) ) ;
#121 = EDGE_CURVE ( 'NONE', #148, #189, #253, .T. ) ;
#122 = LINE ( 'NONE', #72, #251 ) ;
#123 = CARTESIAN_POINT ( 'NONE',  ( 0.000000000000000000, 0.000000000000000000, 7.000000000000000000 ) ) ;
#124 = APPLICATION_CONTEXT ( 'configuration controlled 3d designs of mechanical parts and assemblies' ) ;
#125 = AXIS2_PLACEMENT_3D ( 'NONE', #211, #271, #358 ) ;
#126 = CARTESIAN_POINT ( 'NONE',  ( -4.500000000000000000, 0.000000000000000000, 707.0000000000000000 ) ) ;
#127 = DIRECTION ( 'NONE',  ( 1.000000000000000000, 0.000000000000000000, 0.000000000000000000 ) ) ;
#128 =( NAMED_UNIT ( * ) PLANE_ANGLE_UNIT ( ) SI_UNIT ( $, .RADIAN. ) );
#129 = ORIENTED_EDGE ( 'NONE', *, *, #244, .F. ) ;
#130 = ADVANCED_FACE ( 'NONE', ( #84 ), #280, .T. ) ;
#131 = ORIENTED_EDGE ( 'NONE', *, *, #227, .F. ) ;
#132 = CARTESIAN_POINT ( 'NONE',  ( -10.00000000000000000, 0.000000000000000000, 7.000000000000000000 ) ) ;
#133 = EDGE_LOOP ( 'NONE', ( #131, #138, #170, #328 ) ) ;
#134 = PERSON_AND_ORGANIZATION_ROLE ( 'creator' ) ;
#135 = CARTESIAN_POINT ( 'NONE',  ( 6.700000000000001066, 0.000000000000000000, 7.000000000000020428 ) ) ;
#136 = ADVANCED_FACE ( 'NONE', ( #331 ), #58, .F. ) ;
#137 = EDGE_CURVE ( 'NONE', #357, #193, #122, .T. ) ;
#138 = ORIENTED_EDGE ( 'NONE', *, *, #108, .F. ) ;
#139 = DIRECTION ( 'NONE',  ( 1.000000000000000000, 0.000000000000000000, 0.000000000000000000 ) ) ;
#140 = APPROVAL_ROLE ( '' ) ;
#141 = CIRCLE ( 'NONE', #347, 4.500000000000000000 ) ;
#142 = VERTEX_POINT ( 'NONE', #248 ) ;
#143 = CARTESIAN_POINT ( 'NONE',  ( 0.000000000000000000, 0.000000000000000000, 707.0000000000000000 ) ) ;
#144 = CARTESIAN_POINT ( 'NONE',  ( 0.000000000000000000, 0.000000000000000000, 7.700000000000040146 ) ) ;
#145 = DIRECTION ( 'NONE',  ( -0.000000000000000000, -0.000000000000000000, -1.000000000000000000 ) ) ;
#146 = ORIENTED_EDGE ( 'NONE', *, *, #346, .F. ) ;
#147 = ORIENTED_EDGE ( 'NONE', *, *, #75, .F. ) ;
#148 = VERTEX_POINT ( 'NONE', #342 ) ;
#149 = APPROVAL_ROLE ( '' ) ;
#150 = FACE_OUTER_BOUND ( 'NONE', #174, .T. ) ;
#151 = DIRECTION ( 'NONE',  ( 0.000000000000000000, 0.000000000000000000, -1.000000000000000000 ) ) ;
#152 = CIRCLE ( 'NONE', #309, 4.500000000000000000 ) ;
#153 = COORDINATED_UNIVERSAL_TIME_OFFSET ( 1, 0, .AHEAD. ) ;
#154 = CC_DESIGN_PERSON_AND_ORGANIZATION_ASSIGNMENT ( #257, #105, ( #67 ) ) ;
#155 = DIRECTION ( 'NONE',  ( 1.000000000000000000, 0.000000000000000000, 0.000000000000000000 ) ) ;
#156 = AXIS2_PLACEMENT_3D ( 'NONE', #110, #277, #198 ) ;
#157 = AXIS2_PLACEMENT_3D ( 'NONE', #123, #191, #195 ) ;
#158 = APPLICATION_CONTEXT ( 'configuration controlled 3d designs of mechanical parts and assemblies' ) ;
#159 = CIRCLE ( 'NONE', #216, 4.500000000000000000 ) ;
#160 = EDGE_CURVE ( 'NONE', #201, #302, #79, .T. ) ;
#161 = VECTOR ( 'NONE', #64, 1000.000000000000000 ) ;
#162 = DESIGN_CONTEXT ( 'detailed design', #158, 'design' ) ;
#163 = APPLICATION_PROTOCOL_DEFINITION ( 'international standard', 'config_control_design', 1994, #124 ) ;
#164 = EDGE_LOOP ( 'NONE', ( #292, #380 ) ) ;
#165 = ORIENTED_EDGE ( 'NONE', *, *, #321, .F. ) ;
#166 = EDGE_CURVE ( 'NONE', #310, #302, #366, .T. ) ;
#167 = CYLINDRICAL_SURFACE ( 'NONE', #293, 10.00000000000000000 ) ;
#168 = CARTESIAN_POINT ( 'NONE',  ( 6.000000000000000888, 7.347880794884120722E-16, 707.0000000000000000 ) ) ;
#169 = CALENDAR_DATE ( 2022, 8, 7 ) ;
#170 = ORIENTED_EDGE ( 'NONE', *, *, #288, .T. ) ;
#171 = CARTESIAN_POINT ( 'NONE',  ( 0.000000000000000000, 0.000000000000000000, 7.700000000000040146 ) ) ;
#172 = CIRCLE ( 'NONE', #94, 10.00000000000000000 ) ;
#173 = CC_DESIGN_PERSON_AND_ORGANIZATION_ASSIGNMENT ( #63, #205, ( #308 ) ) ;
#174 = EDGE_LOOP ( 'NONE', ( #374, #55 ) ) ;
#175 = SHAPE_DEFINITION_REPRESENTATION ( #378, #183 ) ;
#176 = VERTEX_POINT ( 'NONE', #324 ) ;
#177 = DIRECTION ( 'NONE',  ( -0.000000000000000000, -0.000000000000000000, -1.000000000000000000 ) ) ;
#178 = PLANE ( 'NONE',  #51 ) ;
#179 = EDGE_CURVE ( 'NONE', #49, #109, #266, .T. ) ;
#180 = CIRCLE ( 'NONE', #343, 0.7000000000000000666 ) ;
#181 = CARTESIAN_POINT ( 'NONE',  ( 10.00000000000000000, 1.224646799147353256E-15, 0.000000000000000000 ) ) ;
#182 = LOCAL_TIME ( 16, 25, 27.00000000000000000, #218 ) ;
#183 = ADVANCED_BREP_SHAPE_REPRESENTATION ( '99c1', ( #323, #361 ), #34 ) ;
#184 = DIRECTION ( 'NONE',  ( 1.000000000000000000, 0.000000000000000000, -0.000000000000000000 ) ) ;
#185 = ADVANCED_FACE ( 'NONE', ( #104, #106 ), #74, .T. ) ;
#186 = SECURITY_CLASSIFICATION ( '', '', #77 ) ;
#187 = CARTESIAN_POINT ( 'NONE',  ( 0.000000000000000000, 0.000000000000000000, 7.000000000000000000 ) ) ;
#188 = DIRECTION ( 'NONE',  ( -0.000000000000000000, -0.000000000000000000, -1.000000000000000000 ) ) ;
#189 = VERTEX_POINT ( 'NONE', #132 ) ;
#190 = AXIS2_PLACEMENT_3D ( 'NONE', #367, #15, #184 ) ;
#191 = DIRECTION ( 'NONE',  ( -0.000000000000000000, -0.000000000000000000, -1.000000000000000000 ) ) ;
#192 = ORIENTED_EDGE ( 'NONE', *, *, #209, .F. ) ;
#193 = VERTEX_POINT ( 'NONE', #226 ) ;
#194 = CIRCLE ( 'NONE', #348, 6.000000000000000888 ) ;
#195 = DIRECTION ( 'NONE',  ( 1.000000000000000000, 0.000000000000000000, 0.000000000000000000 ) ) ;
#196 = COORDINATED_UNIVERSAL_TIME_OFFSET ( 1, 0, .AHEAD. ) ;
#197 = ORIENTED_EDGE ( 'NONE', *, *, #315, .F. ) ;
#198 = DIRECTION ( 'NONE',  ( 1.000000000000000000, 0.000000000000000000, 0.000000000000000000 ) ) ;
#199 = CYLINDRICAL_SURFACE ( 'NONE', #255, 6.000000000000000888 ) ;
#200 = CARTESIAN_POINT ( 'NONE',  ( -6.700000000000001066, 8.205133554287267548E-16, 7.000000000000020428 ) ) ;
#201 = VERTEX_POINT ( 'NONE', #135 ) ;
#202 = CARTESIAN_POINT ( 'NONE',  ( 0.000000000000000000, 0.000000000000000000, 707.0000000000000000 ) ) ;
#203 = PERSON_AND_ORGANIZATION ( #39, #290 ) ;
#204 = DIRECTION ( 'NONE',  ( 1.000000000000000000, 0.000000000000000000, 0.000000000000000000 ) ) ;
#205 = PERSON_AND_ORGANIZATION_ROLE ( 'design_owner' ) ;
#206 = DIRECTION ( 'NONE',  ( -0.000000000000000000, -0.000000000000000000, -1.000000000000000000 ) ) ;
#207 = LINE ( 'NONE', #241, #119 ) ;
#208 = ADVANCED_FACE ( 'NONE', ( #350 ), #199, .T. ) ;
#209 = EDGE_CURVE ( 'NONE', #189, #273, #207, .T. ) ;
#210 = CARTESIAN_POINT ( 'NONE',  ( 10.00000000000000000, 1.224646799147353256E-15, 7.000000000000000000 ) ) ;
#211 = CARTESIAN_POINT ( 'NONE',  ( 0.000000000000000000, 0.000000000000000000, 7.000000000000000000 ) ) ;
#212 = CIRCLE ( 'NONE', #224, 10.00000000000000000 ) ;
#213 = LOCAL_TIME ( 16, 25, 27.00000000000000000, #196 ) ;
#214 = ADVANCED_FACE ( 'NONE', ( #282 ), #297, .T. ) ;
#215 = DATE_TIME_ROLE ( 'creation_date' ) ;
#216 = AXIS2_PLACEMENT_3D ( 'NONE', #143, #118, #204 ) ;
#217 = DIRECTION ( 'NONE',  ( -1.000000000000000000, 0.000000000000000000, 0.000000000000000000 ) ) ;
#218 = COORDINATED_UNIVERSAL_TIME_OFFSET ( 1, 0, .AHEAD. ) ;
#219 = VECTOR ( 'NONE', #177, 1000.000000000000000 ) ;
#220 = ORIENTED_EDGE ( 'NONE', *, *, #346, .T. ) ;
#221 = DIRECTION ( 'NONE',  ( 0.000000000000000000, 0.000000000000000000, -1.000000000000000000 ) ) ;
#222 = ORIENTED_EDGE ( 'NONE', *, *, #75, .T. ) ;
#223 = CARTESIAN_POINT ( 'NONE',  ( 4.500000000000000000, 5.510910596163087583E-16, 707.0000000000000000 ) ) ;
#224 = AXIS2_PLACEMENT_3D ( 'NONE', #8, #243, #60 ) ;
#225 = ORIENTED_EDGE ( 'NONE', *, *, #160, .T. ) ;
#226 = CARTESIAN_POINT ( 'NONE',  ( -4.500000000000000000, 0.000000000000000000, 0.000000000000000000 ) ) ;
#227 = EDGE_CURVE ( 'NONE', #142, #176, #356, .T. ) ;
#228 = UNCERTAINTY_MEASURE_WITH_UNIT (LENGTH_MEASURE( 1.000000000000000082E-05 ), #316, 'distance_accuracy_value', 'NONE');
#229 = CALENDAR_DATE ( 2022, 8, 7 ) ;
#230 = CC_DESIGN_PERSON_AND_ORGANIZATION_ASSIGNMENT ( #52, #134, ( #67 ) ) ;
#231 = CARTESIAN_POINT ( 'NONE',  ( -6.000000000000000888, 0.000000000000000000, 707.0000000000000000 ) ) ;
#232 = EDGE_LOOP ( 'NONE', ( #31, #36, #113, #192 ) ) ;
#233 = LOCAL_TIME ( 16, 25, 27.00000000000000000, #153 ) ;
#234 = LOCAL_TIME ( 16, 25, 27.00000000000000000, #43 ) ;
#235 = CARTESIAN_POINT ( 'NONE',  ( -10.00000000000000000, 0.000000000000000000, 0.000000000000000000 ) ) ;
#236 = ORIENTED_EDGE ( 'NONE', *, *, #137, .T. ) ;
#237 = CARTESIAN_POINT ( 'NONE',  ( 0.000000000000000000, 0.000000000000000000, 707.0000000000000000 ) ) ;
#238 = DATE_TIME_ROLE ( 'classification_date' ) ;
#239 = DIRECTION ( 'NONE',  ( 1.000000000000000000, 0.000000000000000000, 0.000000000000000000 ) ) ;
#240 = EDGE_LOOP ( 'NONE', ( #225, #1 ) ) ;
#241 = CARTESIAN_POINT ( 'NONE',  ( -10.00000000000000000, 0.000000000000000000, 7.000000000000000000 ) ) ;
#242 = CIRCLE ( 'NONE', #312, 6.000000000000000888 ) ;
#243 = DIRECTION ( 'NONE',  ( 0.000000000000000000, 0.000000000000000000, 1.000000000000000000 ) ) ;
#244 = EDGE_CURVE ( 'NONE', #310, #176, #194, .T. ) ;
#245 = CARTESIAN_POINT ( 'NONE',  ( 0.000000000000000000, 0.000000000000000000, 707.0000000000000000 ) ) ;
#246 = DATE_AND_TIME ( #169, #47 ) ;
#247 = PRODUCT_RELATED_PRODUCT_CATEGORY ( 'detail', '', ( #308 ) ) ;
#248 = CARTESIAN_POINT ( 'NONE',  ( 6.000000000000000888, 7.347880794884120722E-16, 707.0000000000000000 ) ) ;
#249 = TOROIDAL_SURFACE ( 'NONE', #156, 6.700000000000001066, 0.6999999999999999556 ) ;
#250 = EDGE_CURVE ( 'NONE', #83, #273, #87, .T. ) ;
#251 = VECTOR ( 'NONE', #151, 1000.000000000000000 ) ;
#252 = CC_DESIGN_SECURITY_CLASSIFICATION ( #186, ( #67 ) ) ;
#253 = CIRCLE ( 'NONE', #125, 10.00000000000000000 ) ;
#254 = ADVANCED_FACE ( 'NONE', ( #100, #18 ), #45, .T. ) ;
#255 = AXIS2_PLACEMENT_3D ( 'NONE', #90, #9, #365 ) ;
#256 = ORIENTED_EDGE ( 'NONE', *, *, #88, .T. ) ;
#257 = PERSON_AND_ORGANIZATION ( #39, #290 ) ;
#258 = ADVANCED_FACE ( 'NONE', ( #97 ), #70, .F. ) ;
#259 = ORIENTED_EDGE ( 'NONE', *, *, #351, .F. ) ;
#260 = EDGE_CURVE ( 'NONE', #189, #148, #172, .T. ) ;
#261 = CLOSED_SHELL ( 'NONE', ( #258, #86, #208, #214, #73, #185, #332, #130, #254, #14, #136 ) ) ;
#262 = AXIS2_PLACEMENT_3D ( 'NONE', #375, #107, #25 ) ;
#263 = APPROVAL_PERSON_ORGANIZATION ( #368, #381, #140 ) ;
#264 = LINE ( 'NONE', #379, #335 ) ;
#265 = APPROVAL_PERSON_ORGANIZATION ( #203, #281, #149 ) ;
#266 = LINE ( 'NONE', #223, #294 ) ;
#267 = PERSON_AND_ORGANIZATION ( #39, #290 ) ;
#268 = EDGE_LOOP ( 'NONE', ( #146, #24, #222, #325 ) ) ;
#269 = ORIENTED_EDGE ( 'NONE', *, *, #209, .T. ) ;
#270 = EDGE_LOOP ( 'NONE', ( #129, #54, #29, #38 ) ) ;
#271 = DIRECTION ( 'NONE',  ( 0.000000000000000000, 0.000000000000000000, 1.000000000000000000 ) ) ;
#272 = CARTESIAN_POINT ( 'NONE',  ( 0.000000000000000000, 0.000000000000000000, 0.000000000000000000 ) ) ;
#273 = VERTEX_POINT ( 'NONE', #235 ) ;
#274 = DIRECTION ( 'NONE',  ( 0.000000000000000000, 0.000000000000000000, 1.000000000000000000 ) ) ;
#275 = APPROVAL_STATUS ( 'not_yet_approved' ) ;
#276 = CARTESIAN_POINT ( 'NONE',  ( 0.000000000000000000, 0.000000000000000000, 707.0000000000000000 ) ) ;
#277 = DIRECTION ( 'NONE',  ( 0.000000000000000000, 0.000000000000000000, 1.000000000000000000 ) ) ;
#278 = DATE_AND_TIME ( #10, #234 ) ;
#279 = AXIS2_PLACEMENT_3D ( 'NONE', #28, #291, #23 ) ;
#280 = CYLINDRICAL_SURFACE ( 'NONE', #313, 6.000000000000000888 ) ;
#281 = APPROVAL ( #275, 'NEURÈENÝ' ) ;
#282 = FACE_OUTER_BOUND ( 'NONE', #232, .T. ) ;
#283 = PERSON_AND_ORGANIZATION_ROLE ( 'creator' ) ;
#284 = DIRECTION ( 'NONE',  ( 0.000000000000000000, 0.000000000000000000, 1.000000000000000000 ) ) ;
#285 = TOROIDAL_SURFACE ( 'NONE', #102, 6.700000000000001066, 0.6999999999999999556 ) ;
#286 = AXIS2_PLACEMENT_3D ( 'NONE', #276, #68, #334 ) ;
#287 = DATE_AND_TIME ( #373, #182 ) ;
#288 = EDGE_CURVE ( 'NONE', #301, #310, #264, .T. ) ;
#289 = DIRECTION ( 'NONE',  ( 0.000000000000000000, 0.000000000000000000, 1.000000000000000000 ) ) ;
#290 = ORGANIZATION ( 'NEURÈENÝ', 'NEURÈENÝ', '' ) ;
#291 = DIRECTION ( 'NONE',  ( 0.000000000000000000, 0.000000000000000000, 1.000000000000000000 ) ) ;
#292 = ORIENTED_EDGE ( 'NONE', *, *, #26, .F. ) ;
#293 = AXIS2_PLACEMENT_3D ( 'NONE', #11, #206, #355 ) ;
#294 = VECTOR ( 'NONE', #221, 1000.000000000000000 ) ;
#295 = CARTESIAN_POINT ( 'NONE',  ( 0.000000000000000000, 0.000000000000000000, 7.000000000000000000 ) ) ;
#296 = ORIENTED_EDGE ( 'NONE', *, *, #121, .T. ) ;
#297 = CYLINDRICAL_SURFACE ( 'NONE', #27, 10.00000000000000000 ) ;
#298 = DATE_AND_TIME ( #229, #213 ) ;
#299 = ORIENTED_EDGE ( 'NONE', *, *, #166, .F. ) ;
#300 = CARTESIAN_POINT ( 'NONE',  ( 0.000000000000000000, 0.000000000000000000, 7.700000000000040146 ) ) ;
#301 = VERTEX_POINT ( 'NONE', #231 ) ;
#302 = VERTEX_POINT ( 'NONE', #200 ) ;
#303 = EDGE_CURVE ( 'NONE', #302, #201, #376, .T. ) ;
#304 = EDGE_LOOP ( 'NONE', ( #197, #259 ) ) ;
#305 = APPROVAL_STATUS ( 'not_yet_approved' ) ;
#306 = DIRECTION ( 'NONE',  ( 0.000000000000000000, 0.000000000000000000, 1.000000000000000000 ) ) ;
#307 = DIRECTION ( 'NONE',  ( 0.000000000000000000, 0.000000000000000000, 1.000000000000000000 ) ) ;
#308 = PRODUCT ( '99c1', '99c1', '', ( #117 ) ) ;
#309 = AXIS2_PLACEMENT_3D ( 'NONE', #362, #369, #46 ) ;
#310 = VERTEX_POINT ( 'NONE', #80 ) ;
#311 = PERSON_AND_ORGANIZATION ( #39, #290 ) ;
#312 = AXIS2_PLACEMENT_3D ( 'NONE', #171, #82, #336 ) ;
#313 = AXIS2_PLACEMENT_3D ( 'NONE', #202, #91, #120 ) ;
#314 = DIRECTION ( 'NONE',  ( 0.000000000000000000, 0.000000000000000000, -1.000000000000000000 ) ) ;
#315 = EDGE_CURVE ( 'NONE', #193, #109, #59, .T. ) ;
#316 =( LENGTH_UNIT ( ) NAMED_UNIT ( * ) SI_UNIT ( .MILLI., .METRE. ) );
#317 = ORIENTED_EDGE ( 'NONE', *, *, #108, .T. ) ;
#318 = CC_DESIGN_DATE_AND_TIME_ASSIGNMENT ( #246, #238, ( #186 ) ) ;
#319 = APPROVAL_DATE_TIME ( #287, #103 ) ;
#320 = ORIENTED_EDGE ( 'NONE', *, *, #351, .T. ) ;
#321 = EDGE_CURVE ( 'NONE', #148, #83, #12, .T. ) ;
#322 = APPROVAL_STATUS ( 'not_yet_approved' ) ;
#323 = MANIFOLD_SOLID_BREP ( 'Odebrat vysunutím3', #261 ) ;
#324 = CARTESIAN_POINT ( 'NONE',  ( 6.000000000000000888, 7.347880794884120722E-16, 7.700000000000040146 ) ) ;
#325 = ORIENTED_EDGE ( 'NONE', *, *, #288, .F. ) ;
#326 = ORIENTED_EDGE ( 'NONE', *, *, #179, .T. ) ;
#327 = CC_DESIGN_PERSON_AND_ORGANIZATION_ASSIGNMENT ( #267, #352, ( #186 ) ) ;
#328 = ORIENTED_EDGE ( 'NONE', *, *, #244, .T. ) ;
#329 = CARTESIAN_POINT ( 'NONE',  ( 0.000000000000000000, 0.000000000000000000, 0.000000000000000000 ) ) ;
#330 = ORIENTED_EDGE ( 'NONE', *, *, #26, .T. ) ;
#331 = FACE_OUTER_BOUND ( 'NONE', #101, .T. ) ;
#332 = ADVANCED_FACE ( 'NONE', ( #95, #150 ), #178, .F. ) ;
#333 = DIRECTION ( 'NONE',  ( 0.000000000000000000, 0.000000000000000000, 1.000000000000000000 ) ) ;
#334 = DIRECTION ( 'NONE',  ( 1.000000000000000000, 0.000000000000000000, 0.000000000000000000 ) ) ;
#335 = VECTOR ( 'NONE', #56, 1000.000000000000000 ) ;
#336 = DIRECTION ( 'NONE',  ( 1.000000000000000000, 0.000000000000000000, 0.000000000000000000 ) ) ;
#337 = CARTESIAN_POINT ( 'NONE',  ( 0.000000000000000000, 0.000000000000000000, 7.000000000000000000 ) ) ;
#338 = ORIENTED_EDGE ( 'NONE', *, *, #303, .F. ) ;
#339 = DIRECTION ( 'NONE',  ( 0.000000000000000000, 0.000000000000000000, -1.000000000000000000 ) ) ;
#340 = DIRECTION ( 'NONE',  ( -0.000000000000000000, -0.000000000000000000, -1.000000000000000000 ) ) ;
#341 = CC_DESIGN_APPROVAL ( #381, ( #67 ) ) ;
#342 = CARTESIAN_POINT ( 'NONE',  ( 10.00000000000000000, 1.224646799147353256E-15, 7.000000000000000000 ) ) ;
#343 = AXIS2_PLACEMENT_3D ( 'NONE', #33, #66, #360 ) ;
#344 = AXIS2_PLACEMENT_3D ( 'NONE', #6, #333, #155 ) ;
#345 = ORIENTED_EDGE ( 'NONE', *, *, #137, .F. ) ;
#346 = EDGE_CURVE ( 'NONE', #142, #301, #99, .T. ) ;
#347 = AXIS2_PLACEMENT_3D ( 'NONE', #237, #274, #139 ) ;
#348 = AXIS2_PLACEMENT_3D ( 'NONE', #144, #307, #42 ) ;
#349 = ORIENTED_EDGE ( 'NONE', *, *, #48, .T. ) ;
#350 = FACE_OUTER_BOUND ( 'NONE', #268, .T. ) ;
#351 = EDGE_CURVE ( 'NONE', #109, #193, #152, .T. ) ;
#352 = PERSON_AND_ORGANIZATION_ROLE ( 'classification_officer' ) ;
#353 = AXIS2_PLACEMENT_3D ( 'NONE', #245, #339, #217 ) ;
#354 = EDGE_LOOP ( 'NONE', ( #299, #147, #256, #338 ) ) ;
#355 = DIRECTION ( 'NONE',  ( -1.000000000000000000, 0.000000000000000000, 0.000000000000000000 ) ) ;
#356 = LINE ( 'NONE', #168, #219 ) ;
#357 = VERTEX_POINT ( 'NONE', #126 ) ;
#358 = DIRECTION ( 'NONE',  ( 1.000000000000000000, 0.000000000000000000, 0.000000000000000000 ) ) ;
#359 = DIRECTION ( 'NONE',  ( 1.000000000000000000, 0.000000000000000000, -0.000000000000000000 ) ) ;
#360 = DIRECTION ( 'NONE',  ( 0.000000000000000000, 0.000000000000000000, -1.000000000000000000 ) ) ;
#361 = AXIS2_PLACEMENT_3D ( 'NONE', #272, #37, #239 ) ;
#362 = CARTESIAN_POINT ( 'NONE',  ( 0.000000000000000000, 0.000000000000000000, 0.000000000000000000 ) ) ;
#363 = CARTESIAN_POINT ( 'NONE',  ( 0.000000000000000000, 0.000000000000000000, 707.0000000000000000 ) ) ;
#364 = DIRECTION ( 'NONE',  ( 1.000000000000000000, 0.000000000000000000, 0.000000000000000000 ) ) ;
#365 = DIRECTION ( 'NONE',  ( -1.000000000000000000, 0.000000000000000000, 0.000000000000000000 ) ) ;
#366 = CIRCLE ( 'NONE', #262, 0.7000000000000000666 ) ;
#367 = CARTESIAN_POINT ( 'NONE',  ( 0.000000000000000000, 0.000000000000000000, 707.0000000000000000 ) ) ;
#368 = PERSON_AND_ORGANIZATION ( #39, #290 ) ;
#369 = DIRECTION ( 'NONE',  ( -0.000000000000000000, -0.000000000000000000, -1.000000000000000000 ) ) ;
#370 = DIRECTION ( 'NONE',  ( -1.000000000000000000, 0.000000000000000000, 0.000000000000000000 ) ) ;
#371 = AXIS2_PLACEMENT_3D ( 'NONE', #363, #306, #364 ) ;
#372 = APPROVAL_ROLE ( '' ) ;
#373 = CALENDAR_DATE ( 2022, 8, 7 ) ;
#374 = ORIENTED_EDGE ( 'NONE', *, *, #48, .F. ) ;
#375 = CARTESIAN_POINT ( 'NONE',  ( -6.700000000000001066, 8.205133554287267548E-16, 7.700000000000040146 ) ) ;
#376 = CIRCLE ( 'NONE', #17, 6.700000000000001066 ) ;
#377 =( NAMED_UNIT ( * ) SI_UNIT ( $, .STERADIAN. ) SOLID_ANGLE_UNIT ( ) );
#378 = PRODUCT_DEFINITION_SHAPE ( 'NONE', 'NONE',  #65 ) ;
#379 = CARTESIAN_POINT ( 'NONE',  ( -6.000000000000000888, 0.000000000000000000, 707.0000000000000000 ) ) ;
#380 = ORIENTED_EDGE ( 'NONE', *, *, #98, .F. ) ;
#381 = APPROVAL ( #322, 'NEURÈENÝ' ) ;
ENDSEC;
END-ISO-10303-21;
