ISO-10303-21;
HEADER;
FILE_DESCRIPTION (( 'STEP AP203' ),
    '1' );
FILE_NAME ('14a8.STEP',
    '2022-07-08T14:38:58',
    ( '' ),
    ( '' ),
    'SwSTEP 2.0',
    'SolidWorks 2019',
    '' );
FILE_SCHEMA (( 'CONFIG_CONTROL_DESIGN' ));
ENDSEC;

DATA;
#1 = CARTESIAN_POINT ( 'NONE',  ( 6.000000000000000888, 7.347880794884120722E-16, 182.0000000000000000 ) ) ;
#2 = FACE_OUTER_BOUND ( 'NONE', #141, .T. ) ;
#3 = DIRECTION ( 'NONE',  ( 1.000000000000000000, 0.000000000000000000, 0.000000000000000000 ) ) ;
#4 = ORIENTED_EDGE ( 'NONE', *, *, #123, .T. ) ;
#5 = CYLINDRICAL_SURFACE ( 'NONE', #303, 4.000000000000000000 ) ;
#6 = DIRECTION ( 'NONE',  ( -1.000000000000000000, 1.224646799147353454E-16, 0.000000000000000000 ) ) ;
#7 = FACE_OUTER_BOUND ( 'NONE', #251, .T. ) ;
#8 = FACE_BOUND ( 'NONE', #282, .T. ) ;
#9 = CARTESIAN_POINT ( 'NONE',  ( 6.000000000000000888, 7.347880794884120722E-16, 182.0000000000000000 ) ) ;
#10 = CARTESIAN_POINT ( 'NONE',  ( 0.000000000000000000, 0.000000000000000000, 7.700000000000012612 ) ) ;
#11 = CARTESIAN_POINT ( 'NONE',  ( 0.000000000000000000, 0.000000000000000000, 7.700000000000012612 ) ) ;
#12 = LOCAL_TIME ( 16, 38, 58.00000000000000000, #371 ) ;
#13 = PERSON_AND_ORGANIZATION ( #18, #256 ) ;
#14 = COORDINATED_UNIVERSAL_TIME_OFFSET ( 1, 0, .AHEAD. ) ;
#15 = ADVANCED_FACE ( 'NONE', ( #285, #111 ), #212, .T. ) ;
#16 = AXIS2_PLACEMENT_3D ( 'NONE', #266, #242, #226 ) ;
#17 = ORIENTED_EDGE ( 'NONE', *, *, #166, .F. ) ;
#18 = PERSON ( 'NEURÈENÝ', 'NEURÈENÝ', 'NEURÈENÝ', ('NEURÈENÝ'), ('NEURÈENÝ'), ('NEURÈENÝ') ) ;
#19 = DATE_AND_TIME ( #224, #257 ) ;
#20 = COORDINATED_UNIVERSAL_TIME_OFFSET ( 1, 0, .AHEAD. ) ;
#21 = FACE_OUTER_BOUND ( 'NONE', #149, .T. ) ;
#22 = ADVANCED_FACE ( 'NONE', ( #2 ), #31, .F. ) ;
#23 = ORIENTED_EDGE ( 'NONE', *, *, #64, .T. ) ;
#24 = LINE ( 'NONE', #1, #365 ) ;
#25 = ORIENTED_EDGE ( 'NONE', *, *, #259, .T. ) ;
#26 = AXIS2_PLACEMENT_3D ( 'NONE', #11, #41, #324 ) ;
#27 = CARTESIAN_POINT ( 'NONE',  ( -6.000000000000000888, 0.000000000000000000, 182.0000000000000000 ) ) ;
#28 = VERTEX_POINT ( 'NONE', #174 ) ;
#29 = FACE_BOUND ( 'NONE', #272, .T. ) ;
#30 = EDGE_CURVE ( 'NONE', #255, #359, #246, .T. ) ;
#31 = TOROIDAL_SURFACE ( 'NONE', #334, 6.700000000000001066, 0.6999999999999999556 ) ;
#32 = DIRECTION ( 'NONE',  ( 0.000000000000000000, 0.000000000000000000, -1.000000000000000000 ) ) ;
#33 = VECTOR ( 'NONE', #244, 1000.000000000000000 ) ;
#34 = CC_DESIGN_SECURITY_CLASSIFICATION ( #316, ( #304 ) ) ;
#35 = EDGE_LOOP ( 'NONE', ( #79, #62, #368, #318 ) ) ;
#36 =( NAMED_UNIT ( * ) PLANE_ANGLE_UNIT ( ) SI_UNIT ( $, .RADIAN. ) );
#37 = ORIENTED_EDGE ( 'NONE', *, *, #358, .T. ) ;
#38 = EDGE_CURVE ( 'NONE', #320, #235, #120, .T. ) ;
#39 = EDGE_LOOP ( 'NONE', ( #76, #230 ) ) ;
#40 = DIRECTION ( 'NONE',  ( 1.000000000000000000, 0.000000000000000000, 0.000000000000000000 ) ) ;
#41 = DIRECTION ( 'NONE',  ( 0.000000000000000000, 0.000000000000000000, 1.000000000000000000 ) ) ;
#42 = ADVANCED_FACE ( 'NONE', ( #293 ), #292, .F. ) ;
#43 = DIRECTION ( 'NONE',  ( 0.000000000000000000, 0.000000000000000000, 1.000000000000000000 ) ) ;
#44 = DIRECTION ( 'NONE',  ( 0.000000000000000000, 0.000000000000000000, 1.000000000000000000 ) ) ;
#45 = CIRCLE ( 'NONE', #248, 6.700000000000001066 ) ;
#46 = CALENDAR_DATE ( 2022, 8, 7 ) ;
#47 = EDGE_CURVE ( 'NONE', #320, #167, #127, .T. ) ;
#48 = DATE_AND_TIME ( #189, #50 ) ;
#49 = PERSON_AND_ORGANIZATION ( #18, #256 ) ;
#50 = LOCAL_TIME ( 16, 38, 58.00000000000000000, #14 ) ;
#51 = FACE_OUTER_BOUND ( 'NONE', #279, .T. ) ;
#52 = ORIENTED_EDGE ( 'NONE', *, *, #243, .T. ) ;
#53 = CARTESIAN_POINT ( 'NONE',  ( 0.000000000000000000, 0.000000000000000000, 0.000000000000000000 ) ) ;
#54 = VERTEX_POINT ( 'NONE', #72 ) ;
#55 = CLOSED_SHELL ( 'NONE', ( #337, #42, #301, #108, #205, #88, #181, #196, #15, #22, #236 ) ) ;
#56 = DIRECTION ( 'NONE',  ( 0.000000000000000000, 0.000000000000000000, 1.000000000000000000 ) ) ;
#57 = VERTEX_POINT ( 'NONE', #71 ) ;
#58 = CC_DESIGN_PERSON_AND_ORGANIZATION_ASSIGNMENT ( #307, #126, ( #304 ) ) ;
#59 = DIRECTION ( 'NONE',  ( -0.000000000000000000, -0.000000000000000000, -1.000000000000000000 ) ) ;
#60 = EDGE_LOOP ( 'NONE', ( #339, #249 ) ) ;
#61 = FACE_OUTER_BOUND ( 'NONE', #228, .T. ) ;
#62 = ORIENTED_EDGE ( 'NONE', *, *, #47, .F. ) ;
#63 = AXIS2_PLACEMENT_3D ( 'NONE', #80, #195, #283 ) ;
#64 = EDGE_CURVE ( 'NONE', #359, #54, #175, .T. ) ;
#65 = CC_DESIGN_APPROVAL ( #252, ( #316 ) ) ;
#66 = DIRECTION ( 'NONE',  ( 0.000000000000000000, 0.000000000000000000, 1.000000000000000000 ) ) ;
#67 = CARTESIAN_POINT ( 'NONE',  ( -10.00000000000000000, 0.000000000000000000, 7.000000000000000000 ) ) ;
#68 = AXIS2_PLACEMENT_3D ( 'NONE', #361, #300, #264 ) ;
#69 = CYLINDRICAL_SURFACE ( 'NONE', #210, 10.00000000000000000 ) ;
#70 = CC_DESIGN_PERSON_AND_ORGANIZATION_ASSIGNMENT ( #102, #225, ( #77 ) ) ;
#71 = CARTESIAN_POINT ( 'NONE',  ( 10.00000000000000000, 1.224646799147353256E-15, 0.000000000000000000 ) ) ;
#72 = CARTESIAN_POINT ( 'NONE',  ( 6.700000000000001066, 0.000000000000000000, 7.000000000000006217 ) ) ;
#73 = EDGE_CURVE ( 'NONE', #159, #255, #232, .T. ) ;
#74 = CIRCLE ( 'NONE', #187, 6.000000000000000888 ) ;
#75 = PERSON_AND_ORGANIZATION_ROLE ( 'design_supplier' ) ;
#76 = ORIENTED_EDGE ( 'NONE', *, *, #99, .F. ) ;
#77 = PRODUCT_DEFINITION ( 'NEZNÁMÝ', '', #304, #269 ) ;
#78 = PERSON_AND_ORGANIZATION ( #18, #256 ) ;
#79 = ORIENTED_EDGE ( 'NONE', *, *, #358, .F. ) ;
#80 = CARTESIAN_POINT ( 'NONE',  ( 0.000000000000000000, 0.000000000000000000, 7.000000000000000000 ) ) ;
#81 = DIRECTION ( 'NONE',  ( -0.000000000000000000, -0.000000000000000000, -1.000000000000000000 ) ) ;
#82 = DIRECTION ( 'NONE',  ( -0.000000000000000000, -0.000000000000000000, -1.000000000000000000 ) ) ;
#83 = EDGE_CURVE ( 'NONE', #28, #132, #112, .T. ) ;
#84 = ORIENTED_EDGE ( 'NONE', *, *, #217, .F. ) ;
#85 = DIRECTION ( 'NONE',  ( 0.000000000000000000, -1.000000000000000000, 0.000000000000000000 ) ) ;
#86 = DIRECTION ( 'NONE',  ( 1.000000000000000000, 0.000000000000000000, 0.000000000000000000 ) ) ;
#87 = ORIENTED_EDGE ( 'NONE', *, *, #73, .F. ) ;
#88 = ADVANCED_FACE ( 'NONE', ( #8, #21 ), #194, .T. ) ;
#89 = ORIENTED_EDGE ( 'NONE', *, *, #73, .T. ) ;
#90 = AXIS2_PLACEMENT_3D ( 'NONE', #291, #150, #6 ) ;
#91 = CARTESIAN_POINT ( 'NONE',  ( 0.000000000000000000, 0.000000000000000000, 182.0000000000000000 ) ) ;
#92 = AXIS2_PLACEMENT_3D ( 'NONE', #354, #296, #3 ) ;
#93 = EDGE_LOOP ( 'NONE', ( #209, #350, #89, #84 ) ) ;
#94 = DIRECTION ( 'NONE',  ( 1.000000000000000000, 0.000000000000000000, 0.000000000000000000 ) ) ;
#95 = CC_DESIGN_PERSON_AND_ORGANIZATION_ASSIGNMENT ( #173, #290, ( #183 ) ) ;
#96 =( NAMED_UNIT ( * ) SI_UNIT ( $, .STERADIAN. ) SOLID_ANGLE_UNIT ( ) );
#97 = APPROVAL_PERSON_ORGANIZATION ( #13, #344, #271 ) ;
#98 = DIRECTION ( 'NONE',  ( 1.000000000000000000, 0.000000000000000000, 0.000000000000000000 ) ) ;
#99 = EDGE_CURVE ( 'NONE', #235, #57, #144, .T. ) ;
#100 = DATE_TIME_ROLE ( 'creation_date' ) ;
#101 = AXIS2_PLACEMENT_3D ( 'NONE', #115, #234, #277 ) ;
#102 = PERSON_AND_ORGANIZATION ( #18, #256 ) ;
#103 = CARTESIAN_POINT ( 'NONE',  ( 0.000000000000000000, 0.000000000000000000, 7.000000000000000000 ) ) ;
#104 = DIRECTION ( 'NONE',  ( -0.000000000000000000, -0.000000000000000000, -1.000000000000000000 ) ) ;
#105 = EDGE_LOOP ( 'NONE', ( #147, #179 ) ) ;
#106 = ORIENTED_EDGE ( 'NONE', *, *, #83, .T. ) ;
#107 = CARTESIAN_POINT ( 'NONE',  ( 0.000000000000000000, 0.000000000000000000, 182.0000000000000000 ) ) ;
#108 = ADVANCED_FACE ( 'NONE', ( #51 ), #69, .T. ) ;
#109 = VERTEX_POINT ( 'NONE', #297 ) ;
#110 = DIRECTION ( 'NONE',  ( 0.000000000000000000, 0.000000000000000000, -1.000000000000000000 ) ) ;
#111 = FACE_OUTER_BOUND ( 'NONE', #105, .T. ) ;
#112 = CIRCLE ( 'NONE', #216, 4.000000000000000000 ) ;
#113 = AXIS2_PLACEMENT_3D ( 'NONE', #299, #43, #40 ) ;
#114 = CYLINDRICAL_SURFACE ( 'NONE', #101, 10.00000000000000000 ) ;
#115 = CARTESIAN_POINT ( 'NONE',  ( 0.000000000000000000, 0.000000000000000000, 7.000000000000000000 ) ) ;
#116 = DIRECTION ( 'NONE',  ( -1.000000000000000000, 0.000000000000000000, 0.000000000000000000 ) ) ;
#117 = ORIENTED_EDGE ( 'NONE', *, *, #243, .F. ) ;
#118 = CARTESIAN_POINT ( 'NONE',  ( 10.00000000000000000, 1.224646799147353256E-15, 7.000000000000000000 ) ) ;
#119 = PRODUCT_DEFINITION_SHAPE ( 'NONE', 'NONE',  #77 ) ;
#120 = LINE ( 'NONE', #213, #302 ) ;
#121 = EDGE_CURVE ( 'NONE', #28, #245, #134, .T. ) ;
#122 = AXIS2_PLACEMENT_3D ( 'NONE', #140, #85, #110 ) ;
#123 = EDGE_CURVE ( 'NONE', #57, #235, #329, .T. ) ;
#124 = APPROVAL_STATUS ( 'not_yet_approved' ) ;
#125 = CALENDAR_DATE ( 2022, 8, 7 ) ;
#126 = PERSON_AND_ORGANIZATION_ROLE ( 'creator' ) ;
#127 = CIRCLE ( 'NONE', #347, 10.00000000000000000 ) ;
#128 = CIRCLE ( 'NONE', #63, 10.00000000000000000 ) ;
#129 = LOCAL_TIME ( 16, 38, 58.00000000000000000, #20 ) ;
#130 = PERSON_AND_ORGANIZATION ( #18, #256 ) ;
#131 = EDGE_CURVE ( 'NONE', #245, #197, #309, .T. ) ;
#132 = VERTEX_POINT ( 'NONE', #340 ) ;
#133 = APPROVAL_STATUS ( 'not_yet_approved' ) ;
#134 = LINE ( 'NONE', #263, #33 ) ;
#135 = ORIENTED_EDGE ( 'NONE', *, *, #374, .F. ) ;
#136 = FACE_OUTER_BOUND ( 'NONE', #35, .T. ) ;
#137 = AXIS2_PLACEMENT_3D ( 'NONE', #53, #82, #315 ) ;
#138 = VECTOR ( 'NONE', #362, 1000.000000000000000 ) ;
#139 = DIRECTION ( 'NONE',  ( -1.000000000000000000, 0.000000000000000000, 0.000000000000000000 ) ) ;
#140 = CARTESIAN_POINT ( 'NONE',  ( 6.700000000000001066, 0.000000000000000000, 7.700000000000012612 ) ) ;
#141 = EDGE_LOOP ( 'NONE', ( #376, #87, #201, #204 ) ) ;
#142 = CARTESIAN_POINT ( 'NONE',  ( 10.00000000000000000, 1.224646799147353256E-15, 7.000000000000000000 ) ) ;
#143 = ORIENTED_EDGE ( 'NONE', *, *, #161, .T. ) ;
#144 = CIRCLE ( 'NONE', #360, 10.00000000000000000 ) ;
#145 = LOCAL_TIME ( 16, 38, 58.00000000000000000, #268 ) ;
#146 = DIRECTION ( 'NONE',  ( 0.000000000000000000, 0.000000000000000000, 1.000000000000000000 ) ) ;
#147 = ORIENTED_EDGE ( 'NONE', *, *, #233, .T. ) ;
#148 = APPLICATION_CONTEXT ( 'configuration controlled 3d designs of mechanical parts and assemblies' ) ;
#149 = EDGE_LOOP ( 'NONE', ( #207, #276 ) ) ;
#150 = DIRECTION ( 'NONE',  ( 1.224646799147353207E-16, 1.000000000000000000, -0.000000000000000000 ) ) ;
#151 = EDGE_CURVE ( 'NONE', #167, #320, #128, .T. ) ;
#152 = MECHANICAL_CONTEXT ( 'NONE', #148, 'mechanical' ) ;
#153 = VECTOR ( 'NONE', #250, 1000.000000000000000 ) ;
#154 = CARTESIAN_POINT ( 'NONE',  ( 0.000000000000000000, 0.000000000000000000, 7.000000000000000000 ) ) ;
#155 = CARTESIAN_POINT ( 'NONE',  ( 0.000000000000000000, 0.000000000000000000, 182.0000000000000000 ) ) ;
#156 = APPLICATION_PROTOCOL_DEFINITION ( 'international standard', 'config_control_design', 1994, #148 ) ;
#157 = DIRECTION ( 'NONE',  ( 1.000000000000000000, 0.000000000000000000, 0.000000000000000000 ) ) ;
#158 = DATE_AND_TIME ( #46, #129 ) ;
#159 = VERTEX_POINT ( 'NONE', #378 ) ;
#160 = APPROVAL_DATE_TIME ( #48, #326 ) ;
#161 = EDGE_CURVE ( 'NONE', #132, #28, #379, .T. ) ;
#162 = AXIS2_PLACEMENT_3D ( 'NONE', #231, #81, #139 ) ;
#163 = ORIENTED_EDGE ( 'NONE', *, *, #166, .T. ) ;
#164 = DATE_TIME_ROLE ( 'classification_date' ) ;
#165 = DIRECTION ( 'NONE',  ( 1.000000000000000000, 0.000000000000000000, 0.000000000000000000 ) ) ;
#166 = EDGE_CURVE ( 'NONE', #132, #197, #284, .T. ) ;
#167 = VERTEX_POINT ( 'NONE', #142 ) ;
#168 = CARTESIAN_POINT ( 'NONE',  ( -4.000000000000000000, 0.000000000000000000, 0.000000000000000000 ) ) ;
#169 = EDGE_LOOP ( 'NONE', ( #298, #106, #163, #25 ) ) ;
#170 = ORIENTED_EDGE ( 'NONE', *, *, #259, .F. ) ;
#171 = CARTESIAN_POINT ( 'NONE',  ( -4.000000000000000000, 0.000000000000000000, 182.0000000000000000 ) ) ;
#172 = CARTESIAN_POINT ( 'NONE',  ( 0.000000000000000000, 0.000000000000000000, 182.0000000000000000 ) ) ;
#173 = PERSON_AND_ORGANIZATION ( #18, #256 ) ;
#174 = CARTESIAN_POINT ( 'NONE',  ( 4.000000000000000000, 4.898587196589412829E-16, 182.0000000000000000 ) ) ;
#175 = CIRCLE ( 'NONE', #16, 6.700000000000001066 ) ;
#176 = FACE_OUTER_BOUND ( 'NONE', #93, .T. ) ;
#177 =( GEOMETRIC_REPRESENTATION_CONTEXT ( 3 ) GLOBAL_UNCERTAINTY_ASSIGNED_CONTEXT ( ( #370 ) ) GLOBAL_UNIT_ASSIGNED_CONTEXT ( ( #237, #36, #96 ) ) REPRESENTATION_CONTEXT ( 'NONE', 'WORKASPACE' ) );
#178 = DIRECTION ( 'NONE',  ( 0.000000000000000000, 0.000000000000000000, 1.000000000000000000 ) ) ;
#179 = ORIENTED_EDGE ( 'NONE', *, *, #331, .T. ) ;
#180 = DIRECTION ( 'NONE',  ( -1.000000000000000000, 0.000000000000000000, 0.000000000000000000 ) ) ;
#181 = ADVANCED_FACE ( 'NONE', ( #29, #346 ), #208, .F. ) ;
#182 = DIRECTION ( 'NONE',  ( 1.000000000000000000, 0.000000000000000000, 0.000000000000000000 ) ) ;
#183 = PRODUCT ( '14a8', '14a8', '', ( #152 ) ) ;
#184 = DIRECTION ( 'NONE',  ( 0.000000000000000000, 0.000000000000000000, 1.000000000000000000 ) ) ;
#185 = MANIFOLD_SOLID_BREP ( 'Odebrat vysunutím3', #55 ) ;
#186 = DATE_AND_TIME ( #125, #145 ) ;
#187 = AXIS2_PLACEMENT_3D ( 'NONE', #107, #375, #275 ) ;
#188 = APPROVAL_PERSON_ORGANIZATION ( #130, #252, #191 ) ;
#189 = CALENDAR_DATE ( 2022, 8, 7 ) ;
#190 = ADVANCED_BREP_SHAPE_REPRESENTATION ( '14a8', ( #185, #113 ), #177 ) ;
#191 = APPROVAL_ROLE ( '' ) ;
#192 = ORIENTED_EDGE ( 'NONE', *, *, #131, .T. ) ;
#193 = PERSON_AND_ORGANIZATION_ROLE ( 'classification_officer' ) ;
#194 = PLANE ( 'NONE',  #254 ) ;
#195 = DIRECTION ( 'NONE',  ( 0.000000000000000000, 0.000000000000000000, 1.000000000000000000 ) ) ;
#196 = ADVANCED_FACE ( 'NONE', ( #61 ), #253, .T. ) ;
#197 = VERTEX_POINT ( 'NONE', #168 ) ;
#198 = CYLINDRICAL_SURFACE ( 'NONE', #218, 4.000000000000000000 ) ;
#199 = ORIENTED_EDGE ( 'NONE', *, *, #374, .T. ) ;
#200 = FACE_OUTER_BOUND ( 'NONE', #169, .T. ) ;
#201 = ORIENTED_EDGE ( 'NONE', *, *, #295, .T. ) ;
#202 = CIRCLE ( 'NONE', #137, 4.000000000000000000 ) ;
#203 = CC_DESIGN_APPROVAL ( #326, ( #304 ) ) ;
#204 = ORIENTED_EDGE ( 'NONE', *, *, #64, .F. ) ;
#205 = ADVANCED_FACE ( 'NONE', ( #136 ), #114, .T. ) ;
#206 = CARTESIAN_POINT ( 'NONE',  ( 4.000000000000000000, 4.898587196589412829E-16, 0.000000000000000000 ) ) ;
#207 = ORIENTED_EDGE ( 'NONE', *, *, #47, .T. ) ;
#208 = PLANE ( 'NONE',  #322 ) ;
#209 = ORIENTED_EDGE ( 'NONE', *, *, #331, .F. ) ;
#210 = AXIS2_PLACEMENT_3D ( 'NONE', #274, #221, #308 ) ;
#211 = PRODUCT_RELATED_PRODUCT_CATEGORY ( 'detail', '', ( #183 ) ) ;
#212 = PLANE ( 'NONE',  #265 ) ;
#213 = CARTESIAN_POINT ( 'NONE',  ( -10.00000000000000000, 0.000000000000000000, 7.000000000000000000 ) ) ;
#214 = APPLICATION_CONTEXT ( 'configuration controlled 3d designs of mechanical parts and assemblies' ) ;
#215 = DIRECTION ( 'NONE',  ( 0.000000000000000000, 0.000000000000000000, 1.000000000000000000 ) ) ;
#216 = AXIS2_PLACEMENT_3D ( 'NONE', #155, #178, #338 ) ;
#217 = EDGE_CURVE ( 'NONE', #109, #255, #229, .T. ) ;
#218 = AXIS2_PLACEMENT_3D ( 'NONE', #351, #281, #247 ) ;
#219 = DIRECTION ( 'NONE',  ( 0.000000000000000000, 0.000000000000000000, 1.000000000000000000 ) ) ;
#220 = SHAPE_DEFINITION_REPRESENTATION ( #119, #190 ) ;
#221 = DIRECTION ( 'NONE',  ( -0.000000000000000000, -0.000000000000000000, -1.000000000000000000 ) ) ;
#222 = APPROVAL_ROLE ( '' ) ;
#223 = EDGE_CURVE ( 'NONE', #353, #159, #24, .T. ) ;
#224 = CALENDAR_DATE ( 2022, 8, 7 ) ;
#225 = PERSON_AND_ORGANIZATION_ROLE ( 'creator' ) ;
#226 = DIRECTION ( 'NONE',  ( 1.000000000000000000, 0.000000000000000000, 0.000000000000000000 ) ) ;
#227 = DIRECTION ( 'NONE',  ( 1.000000000000000000, 0.000000000000000000, 0.000000000000000000 ) ) ;
#228 = EDGE_LOOP ( 'NONE', ( #306, #381, #373, #199 ) ) ;
#229 = LINE ( 'NONE', #27, #153 ) ;
#230 = ORIENTED_EDGE ( 'NONE', *, *, #123, .F. ) ;
#231 = CARTESIAN_POINT ( 'NONE',  ( 0.000000000000000000, 0.000000000000000000, 182.0000000000000000 ) ) ;
#232 = CIRCLE ( 'NONE', #68, 6.000000000000000888 ) ;
#233 = EDGE_CURVE ( 'NONE', #109, #353, #74, .T. ) ;
#234 = DIRECTION ( 'NONE',  ( -0.000000000000000000, -0.000000000000000000, -1.000000000000000000 ) ) ;
#235 = VERTEX_POINT ( 'NONE', #352 ) ;
#236 = ADVANCED_FACE ( 'NONE', ( #200 ), #198, .F. ) ;
#237 =( LENGTH_UNIT ( ) NAMED_UNIT ( * ) SI_UNIT ( .MILLI., .METRE. ) );
#238 = LINE ( 'NONE', #118, #138 ) ;
#239 = AXIS2_PLACEMENT_3D ( 'NONE', #332, #104, #227 ) ;
#240 = SECURITY_CLASSIFICATION_LEVEL ( 'unclassified' ) ;
#241 = CALENDAR_DATE ( 2022, 8, 7 ) ;
#242 = DIRECTION ( 'NONE',  ( -0.000000000000000000, -0.000000000000000000, -1.000000000000000000 ) ) ;
#243 = EDGE_CURVE ( 'NONE', #54, #359, #45, .T. ) ;
#244 = DIRECTION ( 'NONE',  ( 0.000000000000000000, 0.000000000000000000, -1.000000000000000000 ) ) ;
#245 = VERTEX_POINT ( 'NONE', #206 ) ;
#246 = CIRCLE ( 'NONE', #90, 0.7000000000000000666 ) ;
#247 = DIRECTION ( 'NONE',  ( -1.000000000000000000, 0.000000000000000000, 0.000000000000000000 ) ) ;
#248 = AXIS2_PLACEMENT_3D ( 'NONE', #319, #313, #86 ) ;
#249 = ORIENTED_EDGE ( 'NONE', *, *, #83, .F. ) ;
#250 = DIRECTION ( 'NONE',  ( -0.000000000000000000, -0.000000000000000000, -1.000000000000000000 ) ) ;
#251 = EDGE_LOOP ( 'NONE', ( #143, #345, #192, #17 ) ) ;
#252 = APPROVAL ( #133, 'NEURÈENÝ' ) ;
#253 = CYLINDRICAL_SURFACE ( 'NONE', #162, 6.000000000000000888 ) ;
#254 = AXIS2_PLACEMENT_3D ( 'NONE', #154, #215, #363 ) ;
#255 = VERTEX_POINT ( 'NONE', #348 ) ;
#256 = ORGANIZATION ( 'NEURÈENÝ', 'NEURÈENÝ', '' ) ;
#257 = LOCAL_TIME ( 16, 38, 58.00000000000000000, #366 ) ;
#258 = DIRECTION ( 'NONE',  ( 0.000000000000000000, 0.000000000000000000, 1.000000000000000000 ) ) ;
#259 = EDGE_CURVE ( 'NONE', #197, #245, #202, .T. ) ;
#260 = DIRECTION ( 'NONE',  ( -0.000000000000000000, -0.000000000000000000, -1.000000000000000000 ) ) ;
#261 = CARTESIAN_POINT ( 'NONE',  ( -6.700000000000001066, 8.205133554287267548E-16, 7.000000000000006217 ) ) ;
#262 = CC_DESIGN_PERSON_AND_ORGANIZATION_ASSIGNMENT ( #49, #193, ( #316 ) ) ;
#263 = CARTESIAN_POINT ( 'NONE',  ( 4.000000000000000000, 4.898587196589412829E-16, 182.0000000000000000 ) ) ;
#264 = DIRECTION ( 'NONE',  ( 1.000000000000000000, 0.000000000000000000, 0.000000000000000000 ) ) ;
#265 = AXIS2_PLACEMENT_3D ( 'NONE', #172, #258, #321 ) ;
#266 = CARTESIAN_POINT ( 'NONE',  ( 0.000000000000000000, 0.000000000000000000, 7.000000000000000000 ) ) ;
#267 = CC_DESIGN_PERSON_AND_ORGANIZATION_ASSIGNMENT ( #78, #75, ( #304 ) ) ;
#268 = COORDINATED_UNIVERSAL_TIME_OFFSET ( 1, 0, .AHEAD. ) ;
#269 = DESIGN_CONTEXT ( 'detailed design', #214, 'design' ) ;
#270 = ORIENTED_EDGE ( 'NONE', *, *, #151, .F. ) ;
#271 = APPROVAL_ROLE ( '' ) ;
#272 = EDGE_LOOP ( 'NONE', ( #170, #342 ) ) ;
#273 = DATE_AND_TIME ( #241, #12 ) ;
#274 = CARTESIAN_POINT ( 'NONE',  ( 0.000000000000000000, 0.000000000000000000, 7.000000000000000000 ) ) ;
#275 = DIRECTION ( 'NONE',  ( 1.000000000000000000, 0.000000000000000000, 0.000000000000000000 ) ) ;
#276 = ORIENTED_EDGE ( 'NONE', *, *, #151, .T. ) ;
#277 = DIRECTION ( 'NONE',  ( -1.000000000000000000, 0.000000000000000000, 0.000000000000000000 ) ) ;
#278 = VECTOR ( 'NONE', #32, 1000.000000000000000 ) ;
#279 = EDGE_LOOP ( 'NONE', ( #270, #37, #4, #310 ) ) ;
#280 = CC_DESIGN_DATE_AND_TIME_ASSIGNMENT ( #158, #100, ( #77 ) ) ;
#281 = DIRECTION ( 'NONE',  ( 0.000000000000000000, 0.000000000000000000, -1.000000000000000000 ) ) ;
#282 = EDGE_LOOP ( 'NONE', ( #52, #23 ) ) ;
#283 = DIRECTION ( 'NONE',  ( 1.000000000000000000, 0.000000000000000000, 0.000000000000000000 ) ) ;
#284 = LINE ( 'NONE', #171, #278 ) ;
#285 = FACE_BOUND ( 'NONE', #60, .T. ) ;
#286 = AXIS2_PLACEMENT_3D ( 'NONE', #343, #146, #165 ) ;
#287 = APPROVAL_PERSON_ORGANIZATION ( #336, #326, #222 ) ;
#288 = DIRECTION ( 'NONE',  ( 0.000000000000000000, 0.000000000000000000, -1.000000000000000000 ) ) ;
#289 = ORIENTED_EDGE ( 'NONE', *, *, #30, .T. ) ;
#290 = PERSON_AND_ORGANIZATION_ROLE ( 'design_owner' ) ;
#291 = CARTESIAN_POINT ( 'NONE',  ( -6.700000000000001066, 8.205133554287267548E-16, 7.700000000000012612 ) ) ;
#292 = TOROIDAL_SURFACE ( 'NONE', #355, 6.700000000000001066, 0.6999999999999999556 ) ;
#293 = FACE_OUTER_BOUND ( 'NONE', #312, .T. ) ;
#294 = AXIS2_PLACEMENT_3D ( 'NONE', #372, #219, #330 ) ;
#295 = EDGE_CURVE ( 'NONE', #159, #54, #349, .T. ) ;
#296 = DIRECTION ( 'NONE',  ( 0.000000000000000000, 0.000000000000000000, 1.000000000000000000 ) ) ;
#297 = CARTESIAN_POINT ( 'NONE',  ( -6.000000000000000888, 0.000000000000000000, 182.0000000000000000 ) ) ;
#298 = ORIENTED_EDGE ( 'NONE', *, *, #121, .F. ) ;
#299 = CARTESIAN_POINT ( 'NONE',  ( 0.000000000000000000, 0.000000000000000000, 0.000000000000000000 ) ) ;
#300 = DIRECTION ( 'NONE',  ( 0.000000000000000000, 0.000000000000000000, 1.000000000000000000 ) ) ;
#301 = ADVANCED_FACE ( 'NONE', ( #176 ), #357, .T. ) ;
#302 = VECTOR ( 'NONE', #325, 1000.000000000000000 ) ;
#303 = AXIS2_PLACEMENT_3D ( 'NONE', #91, #288, #116 ) ;
#304 = PRODUCT_DEFINITION_FORMATION_WITH_SPECIFIED_SOURCE ( 'LIBOVOLNÝ', '', #183, .NOT_KNOWN. ) ;
#305 = APPLICATION_PROTOCOL_DEFINITION ( 'international standard', 'config_control_design', 1994, #214 ) ;
#306 = ORIENTED_EDGE ( 'NONE', *, *, #223, .F. ) ;
#307 = PERSON_AND_ORGANIZATION ( #18, #256 ) ;
#308 = DIRECTION ( 'NONE',  ( -1.000000000000000000, 0.000000000000000000, 0.000000000000000000 ) ) ;
#309 = CIRCLE ( 'NONE', #239, 4.000000000000000000 ) ;
#310 = ORIENTED_EDGE ( 'NONE', *, *, #38, .F. ) ;
#311 = DIRECTION ( 'NONE',  ( 0.000000000000000000, 0.000000000000000000, 1.000000000000000000 ) ) ;
#312 = EDGE_LOOP ( 'NONE', ( #135, #289, #117, #314 ) ) ;
#313 = DIRECTION ( 'NONE',  ( -0.000000000000000000, -0.000000000000000000, -1.000000000000000000 ) ) ;
#314 = ORIENTED_EDGE ( 'NONE', *, *, #295, .F. ) ;
#315 = DIRECTION ( 'NONE',  ( 1.000000000000000000, 0.000000000000000000, 0.000000000000000000 ) ) ;
#316 = SECURITY_CLASSIFICATION ( '', '', #240 ) ;
#317 = DIRECTION ( 'NONE',  ( 1.000000000000000000, 0.000000000000000000, -0.000000000000000000 ) ) ;
#318 = ORIENTED_EDGE ( 'NONE', *, *, #99, .T. ) ;
#319 = CARTESIAN_POINT ( 'NONE',  ( 0.000000000000000000, 0.000000000000000000, 7.000000000000000000 ) ) ;
#320 = VERTEX_POINT ( 'NONE', #67 ) ;
#321 = DIRECTION ( 'NONE',  ( 1.000000000000000000, 0.000000000000000000, -0.000000000000000000 ) ) ;
#322 = AXIS2_PLACEMENT_3D ( 'NONE', #377, #56, #317 ) ;
#323 = CARTESIAN_POINT ( 'NONE',  ( 0.000000000000000000, 0.000000000000000000, 7.700000000000012612 ) ) ;
#324 = DIRECTION ( 'NONE',  ( 1.000000000000000000, 0.000000000000000000, 0.000000000000000000 ) ) ;
#325 = DIRECTION ( 'NONE',  ( -0.000000000000000000, -0.000000000000000000, -1.000000000000000000 ) ) ;
#326 = APPROVAL ( #124, 'NEURÈENÝ' ) ;
#327 = CARTESIAN_POINT ( 'NONE',  ( 0.000000000000000000, 0.000000000000000000, 182.0000000000000000 ) ) ;
#328 = CARTESIAN_POINT ( 'NONE',  ( 0.000000000000000000, 0.000000000000000000, 0.000000000000000000 ) ) ;
#329 = CIRCLE ( 'NONE', #294, 10.00000000000000000 ) ;
#330 = DIRECTION ( 'NONE',  ( 1.000000000000000000, 0.000000000000000000, 0.000000000000000000 ) ) ;
#331 = EDGE_CURVE ( 'NONE', #353, #109, #335, .T. ) ;
#332 = CARTESIAN_POINT ( 'NONE',  ( 0.000000000000000000, 0.000000000000000000, 0.000000000000000000 ) ) ;
#333 = APPROVAL_STATUS ( 'not_yet_approved' ) ;
#334 = AXIS2_PLACEMENT_3D ( 'NONE', #323, #66, #94 ) ;
#335 = CIRCLE ( 'NONE', #92, 6.000000000000000888 ) ;
#336 = PERSON_AND_ORGANIZATION ( #18, #256 ) ;
#337 = ADVANCED_FACE ( 'NONE', ( #7 ), #5, .F. ) ;
#338 = DIRECTION ( 'NONE',  ( 1.000000000000000000, 0.000000000000000000, 0.000000000000000000 ) ) ;
#339 = ORIENTED_EDGE ( 'NONE', *, *, #161, .F. ) ;
#340 = CARTESIAN_POINT ( 'NONE',  ( -4.000000000000000000, 0.000000000000000000, 182.0000000000000000 ) ) ;
#341 = AXIS2_PLACEMENT_3D ( 'NONE', #327, #260, #180 ) ;
#342 = ORIENTED_EDGE ( 'NONE', *, *, #131, .F. ) ;
#343 = CARTESIAN_POINT ( 'NONE',  ( 0.000000000000000000, 0.000000000000000000, 182.0000000000000000 ) ) ;
#344 = APPROVAL ( #333, 'NEURÈENÝ' ) ;
#345 = ORIENTED_EDGE ( 'NONE', *, *, #121, .T. ) ;
#346 = FACE_OUTER_BOUND ( 'NONE', #39, .T. ) ;
#347 = AXIS2_PLACEMENT_3D ( 'NONE', #103, #184, #157 ) ;
#348 = CARTESIAN_POINT ( 'NONE',  ( -6.000000000000000888, 0.000000000000000000, 7.700000000000012612 ) ) ;
#349 = CIRCLE ( 'NONE', #122, 0.7000000000000000666 ) ;
#350 = ORIENTED_EDGE ( 'NONE', *, *, #223, .T. ) ;
#351 = CARTESIAN_POINT ( 'NONE',  ( 0.000000000000000000, 0.000000000000000000, 182.0000000000000000 ) ) ;
#352 = CARTESIAN_POINT ( 'NONE',  ( -10.00000000000000000, 0.000000000000000000, 0.000000000000000000 ) ) ;
#353 = VERTEX_POINT ( 'NONE', #9 ) ;
#354 = CARTESIAN_POINT ( 'NONE',  ( 0.000000000000000000, 0.000000000000000000, 182.0000000000000000 ) ) ;
#355 = AXIS2_PLACEMENT_3D ( 'NONE', #10, #44, #182 ) ;
#356 = CIRCLE ( 'NONE', #26, 6.000000000000000888 ) ;
#357 = CYLINDRICAL_SURFACE ( 'NONE', #341, 6.000000000000000888 ) ;
#358 = EDGE_CURVE ( 'NONE', #167, #57, #238, .T. ) ;
#359 = VERTEX_POINT ( 'NONE', #261 ) ;
#360 = AXIS2_PLACEMENT_3D ( 'NONE', #328, #311, #98 ) ;
#361 = CARTESIAN_POINT ( 'NONE',  ( 0.000000000000000000, 0.000000000000000000, 7.700000000000012612 ) ) ;
#362 = DIRECTION ( 'NONE',  ( -0.000000000000000000, -0.000000000000000000, -1.000000000000000000 ) ) ;
#363 = DIRECTION ( 'NONE',  ( 1.000000000000000000, 0.000000000000000000, -0.000000000000000000 ) ) ;
#364 = APPROVAL_DATE_TIME ( #186, #344 ) ;
#365 = VECTOR ( 'NONE', #59, 1000.000000000000000 ) ;
#366 = COORDINATED_UNIVERSAL_TIME_OFFSET ( 1, 0, .AHEAD. ) ;
#367 = CC_DESIGN_APPROVAL ( #344, ( #77 ) ) ;
#368 = ORIENTED_EDGE ( 'NONE', *, *, #38, .T. ) ;
#369 = APPROVAL_DATE_TIME ( #273, #252 ) ;
#370 = UNCERTAINTY_MEASURE_WITH_UNIT (LENGTH_MEASURE( 1.000000000000000082E-05 ), #237, 'distance_accuracy_value', 'NONE');
#371 = COORDINATED_UNIVERSAL_TIME_OFFSET ( 1, 0, .AHEAD. ) ;
#372 = CARTESIAN_POINT ( 'NONE',  ( 0.000000000000000000, 0.000000000000000000, 0.000000000000000000 ) ) ;
#373 = ORIENTED_EDGE ( 'NONE', *, *, #217, .T. ) ;
#374 = EDGE_CURVE ( 'NONE', #255, #159, #356, .T. ) ;
#375 = DIRECTION ( 'NONE',  ( 0.000000000000000000, 0.000000000000000000, 1.000000000000000000 ) ) ;
#376 = ORIENTED_EDGE ( 'NONE', *, *, #30, .F. ) ;
#377 = CARTESIAN_POINT ( 'NONE',  ( 0.000000000000000000, 0.000000000000000000, 0.000000000000000000 ) ) ;
#378 = CARTESIAN_POINT ( 'NONE',  ( 6.000000000000000888, 7.347880794884120722E-16, 7.700000000000012612 ) ) ;
#379 = CIRCLE ( 'NONE', #286, 4.000000000000000000 ) ;
#380 = CC_DESIGN_DATE_AND_TIME_ASSIGNMENT ( #19, #164, ( #316 ) ) ;
#381 = ORIENTED_EDGE ( 'NONE', *, *, #233, .F. ) ;
ENDSEC;
END-ISO-10303-21;
