ISO-10303-21;
HEADER;
FILE_DESCRIPTION (( 'STEP AP203' ),
    '1' );
FILE_NAME ('65b5.STEP',
    '2022-07-08T15:52:04',
    ( '' ),
    ( '' ),
    'SwSTEP 2.0',
    'SolidWorks 2019',
    '' );
FILE_SCHEMA (( 'CONFIG_CONTROL_DESIGN' ));
ENDSEC;

DATA;
#1 = PERSON_AND_ORGANIZATION_ROLE ( 'design_owner' ) ;
#2 = CARTESIAN_POINT ( 'NONE',  ( 2.500000000000000000, 3.061616997868383141E-16, 253.0000000000000000 ) ) ;
#3 = LINE ( 'NONE', #54, #255 ) ;
#4 = CARTESIAN_POINT ( 'NONE',  ( 2.799999999999999822, 0.000000000000000000, 2.999999999999998668 ) ) ;
#5 = AXIS2_PLACEMENT_3D ( 'NONE', #102, #314, #212 ) ;
#6 = COORDINATED_UNIVERSAL_TIME_OFFSET ( 1, 0, .AHEAD. ) ;
#7 = CARTESIAN_POINT ( 'NONE',  ( 0.000000000000000000, 0.000000000000000000, 3.000000000000000000 ) ) ;
#8 = DIRECTION ( 'NONE',  ( -0.000000000000000000, -0.000000000000000000, -1.000000000000000000 ) ) ;
#9 = EDGE_CURVE ( 'NONE', #43, #197, #135, .T. ) ;
#10 = LOCAL_TIME ( 17, 52, 4.000000000000000000, #178 ) ;
#11 = ORIENTED_EDGE ( 'NONE', *, *, #118, .T. ) ;
#12 = PLANE ( 'NONE',  #90 ) ;
#13 = ORIENTED_EDGE ( 'NONE', *, *, #349, .F. ) ;
#14 = CC_DESIGN_DATE_AND_TIME_ASSIGNMENT ( #27, #152, ( #112 ) ) ;
#15 = DIRECTION ( 'NONE',  ( 0.000000000000000000, 0.000000000000000000, 1.000000000000000000 ) ) ;
#16 = EDGE_LOOP ( 'NONE', ( #265, #315, #162, #201 ) ) ;
#17 = CIRCLE ( 'NONE', #68, 1.000000000000000000 ) ;
#18 = CARTESIAN_POINT ( 'NONE',  ( 0.000000000000000000, 0.000000000000000000, 253.0000000000000000 ) ) ;
#19 = ORIENTED_EDGE ( 'NONE', *, *, #198, .T. ) ;
#20 = CARTESIAN_POINT ( 'NONE',  ( -5.000000000000000000, 0.000000000000000000, 0.000000000000000000 ) ) ;
#21 = ORIENTED_EDGE ( 'NONE', *, *, #349, .T. ) ;
#22 = VECTOR ( 'NONE', #232, 1000.000000000000000 ) ;
#23 = CIRCLE ( 'NONE', #187, 1.000000000000000000 ) ;
#24 = EDGE_LOOP ( 'NONE', ( #340, #365 ) ) ;
#25 = CARTESIAN_POINT ( 'NONE',  ( 2.799999999999999822, 0.000000000000000000, 3.299999999999997158 ) ) ;
#26 = DIRECTION ( 'NONE',  ( 1.000000000000000000, 0.000000000000000000, 0.000000000000000000 ) ) ;
#27 = DATE_AND_TIME ( #275, #132 ) ;
#28 = CIRCLE ( 'NONE', #120, 0.2999999999999999334 ) ;
#29 = AXIS2_PLACEMENT_3D ( 'NONE', #267, #86, #366 ) ;
#30 = COORDINATED_UNIVERSAL_TIME_OFFSET ( 1, 0, .AHEAD. ) ;
#31 = CARTESIAN_POINT ( 'NONE',  ( 0.000000000000000000, 0.000000000000000000, 3.000000000000000000 ) ) ;
#32 = COORDINATED_UNIVERSAL_TIME_OFFSET ( 1, 0, .AHEAD. ) ;
#33 = PERSON_AND_ORGANIZATION_ROLE ( 'creator' ) ;
#34 = FACE_OUTER_BOUND ( 'NONE', #164, .T. ) ;
#35 = COORDINATED_UNIVERSAL_TIME_OFFSET ( 1, 0, .AHEAD. ) ;
#36 = DIRECTION ( 'NONE',  ( 0.000000000000000000, 0.000000000000000000, 1.000000000000000000 ) ) ;
#37 = CIRCLE ( 'NONE', #312, 2.799999999999999822 ) ;
#38 = DIRECTION ( 'NONE',  ( -0.000000000000000000, -0.000000000000000000, -1.000000000000000000 ) ) ;
#39 = EDGE_CURVE ( 'NONE', #106, #143, #210, .T. ) ;
#40 = VERTEX_POINT ( 'NONE', #20 ) ;
#41 = AXIS2_PLACEMENT_3D ( 'NONE', #310, #38, #159 ) ;
#42 = CARTESIAN_POINT ( 'NONE',  ( 0.000000000000000000, 0.000000000000000000, 3.299999999999997158 ) ) ;
#43 = VERTEX_POINT ( 'NONE', #77 ) ;
#44 = DIRECTION ( 'NONE',  ( 1.000000000000000000, 0.000000000000000000, 0.000000000000000000 ) ) ;
#45 = EDGE_LOOP ( 'NONE', ( #228, #166, #83, #174 ) ) ;
#46 = CARTESIAN_POINT ( 'NONE',  ( 0.000000000000000000, 0.000000000000000000, 0.000000000000000000 ) ) ;
#47 = VERTEX_POINT ( 'NONE', #50 ) ;
#48 = CC_DESIGN_APPROVAL ( #129, ( #202 ) ) ;
#49 = EDGE_CURVE ( 'NONE', #296, #43, #203, .T. ) ;
#50 = CARTESIAN_POINT ( 'NONE',  ( 1.000000000000000000, 1.224646799147353207E-16, 253.0000000000000000 ) ) ;
#51 = ORIENTED_EDGE ( 'NONE', *, *, #110, .T. ) ;
#52 = EDGE_CURVE ( 'NONE', #106, #377, #319, .T. ) ;
#53 = ORIENTED_EDGE ( 'NONE', *, *, #189, .T. ) ;
#54 = CARTESIAN_POINT ( 'NONE',  ( -5.000000000000000000, 0.000000000000000000, 3.000000000000000000 ) ) ;
#55 = EDGE_CURVE ( 'NONE', #351, #346, #262, .T. ) ;
#56 = APPROVAL_DATE_TIME ( #211, #129 ) ;
#57 = CARTESIAN_POINT ( 'NONE',  ( 0.000000000000000000, 0.000000000000000000, 0.000000000000000000 ) ) ;
#58 = SECURITY_CLASSIFICATION_LEVEL ( 'unclassified' ) ;
#59 = CC_DESIGN_SECURITY_CLASSIFICATION ( #235, ( #202 ) ) ;
#60 = CYLINDRICAL_SURFACE ( 'NONE', #41, 2.500000000000000000 ) ;
#61 = DIRECTION ( 'NONE',  ( 0.000000000000000000, 0.000000000000000000, 1.000000000000000000 ) ) ;
#62 = PERSON_AND_ORGANIZATION ( #133, #226 ) ;
#63 = CARTESIAN_POINT ( 'NONE',  ( 2.500000000000000000, 3.061616997868383141E-16, 3.299999999999997158 ) ) ;
#64 = EDGE_CURVE ( 'NONE', #346, #351, #269, .T. ) ;
#65 = CALENDAR_DATE ( 2022, 8, 7 ) ;
#66 = DIRECTION ( 'NONE',  ( -0.000000000000000000, -0.000000000000000000, -1.000000000000000000 ) ) ;
#67 = DIRECTION ( 'NONE',  ( 0.000000000000000000, 0.000000000000000000, 1.000000000000000000 ) ) ;
#68 = AXIS2_PLACEMENT_3D ( 'NONE', #186, #36, #280 ) ;
#69 = CIRCLE ( 'NONE', #161, 2.500000000000000000 ) ;
#70 = DIRECTION ( 'NONE',  ( 1.000000000000000000, 0.000000000000000000, 0.000000000000000000 ) ) ;
#71 = ADVANCED_FACE ( 'NONE', ( #191 ), #256, .F. ) ;
#72 = ORIENTED_EDGE ( 'NONE', *, *, #206, .F. ) ;
#73 = DIRECTION ( 'NONE',  ( -0.000000000000000000, -0.000000000000000000, -1.000000000000000000 ) ) ;
#74 = EDGE_LOOP ( 'NONE', ( #373, #225, #21, #193 ) ) ;
#75 = AXIS2_PLACEMENT_3D ( 'NONE', #107, #15, #372 ) ;
#76 = CIRCLE ( 'NONE', #214, 2.500000000000000000 ) ;
#77 = CARTESIAN_POINT ( 'NONE',  ( -2.500000000000000000, 0.000000000000000000, 3.299999999999997158 ) ) ;
#78 = ORIENTED_EDGE ( 'NONE', *, *, #64, .T. ) ;
#79 = FACE_OUTER_BOUND ( 'NONE', #45, .T. ) ;
#80 = ORIENTED_EDGE ( 'NONE', *, *, #175, .F. ) ;
#81 = CC_DESIGN_PERSON_AND_ORGANIZATION_ASSIGNMENT ( #184, #33, ( #202 ) ) ;
#82 = DIRECTION ( 'NONE',  ( 0.000000000000000000, 0.000000000000000000, 1.000000000000000000 ) ) ;
#83 = ORIENTED_EDGE ( 'NONE', *, *, #55, .T. ) ;
#84 = APPROVAL_PERSON_ORGANIZATION ( #245, #147, #213 ) ;
#85 = ADVANCED_FACE ( 'NONE', ( #325, #167 ), #163, .F. ) ;
#86 = DIRECTION ( 'NONE',  ( -0.000000000000000000, -0.000000000000000000, -1.000000000000000000 ) ) ;
#87 = CLOSED_SHELL ( 'NONE', ( #126, #71, #298, #230, #291, #96, #85, #145, #219, #330, #169 ) ) ;
#88 = ORIENTED_EDGE ( 'NONE', *, *, #123, .F. ) ;
#89 = AXIS2_PLACEMENT_3D ( 'NONE', #218, #124, #157 ) ;
#90 = AXIS2_PLACEMENT_3D ( 'NONE', #136, #200, #144 ) ;
#91 = DIRECTION ( 'NONE',  ( -0.000000000000000000, -0.000000000000000000, -1.000000000000000000 ) ) ;
#92 = APPROVAL_STATUS ( 'not_yet_approved' ) ;
#93 = CARTESIAN_POINT ( 'NONE',  ( 0.000000000000000000, 0.000000000000000000, 0.000000000000000000 ) ) ;
#94 = DIRECTION ( 'NONE',  ( -1.000000000000000000, 0.000000000000000000, 0.000000000000000000 ) ) ;
#95 = APPROVAL_DATE_TIME ( #283, #147 ) ;
#96 = ADVANCED_FACE ( 'NONE', ( #289, #352 ), #12, .T. ) ;
#97 = CIRCLE ( 'NONE', #5, 2.799999999999999822 ) ;
#98 = CIRCLE ( 'NONE', #313, 5.000000000000000000 ) ;
#99 = CARTESIAN_POINT ( 'NONE',  ( -1.000000000000000000, 0.000000000000000000, 253.0000000000000000 ) ) ;
#100 = DIRECTION ( 'NONE',  ( 1.000000000000000000, 0.000000000000000000, 0.000000000000000000 ) ) ;
#101 = PERSON_AND_ORGANIZATION_ROLE ( 'design_supplier' ) ;
#102 = CARTESIAN_POINT ( 'NONE',  ( 0.000000000000000000, 0.000000000000000000, 3.000000000000000000 ) ) ;
#103 = PLANE ( 'NONE',  #301 ) ;
#104 = DIRECTION ( 'NONE',  ( -1.000000000000000000, 0.000000000000000000, 0.000000000000000000 ) ) ;
#105 = LOCAL_TIME ( 17, 52, 4.000000000000000000, #30 ) ;
#106 = VERTEX_POINT ( 'NONE', #258 ) ;
#107 = CARTESIAN_POINT ( 'NONE',  ( 0.000000000000000000, 0.000000000000000000, 3.000000000000000000 ) ) ;
#108 = EDGE_LOOP ( 'NONE', ( #72, #290, #348, #13 ) ) ;
#109 = DIRECTION ( 'NONE',  ( 1.000000000000000000, 0.000000000000000000, 0.000000000000000000 ) ) ;
#110 = EDGE_CURVE ( 'NONE', #143, #106, #287, .T. ) ;
#111 = EDGE_LOOP ( 'NONE', ( #288, #259 ) ) ;
#112 = PRODUCT_DEFINITION ( 'NEZNÁMÝ', '', #202, #185 ) ;
#113 = CARTESIAN_POINT ( 'NONE',  ( 1.000000000000000000, 1.224646799147353207E-16, 253.0000000000000000 ) ) ;
#114 = CARTESIAN_POINT ( 'NONE',  ( -2.799999999999999822, 3.429011037612588783E-16, 3.299999999999997158 ) ) ;
#115 = DIRECTION ( 'NONE',  ( 0.000000000000000000, 0.000000000000000000, 1.000000000000000000 ) ) ;
#116 = VERTEX_POINT ( 'NONE', #292 ) ;
#117 = ORIENTED_EDGE ( 'NONE', *, *, #52, .T. ) ;
#118 = EDGE_CURVE ( 'NONE', #377, #40, #98, .T. ) ;
#119 = CARTESIAN_POINT ( 'NONE',  ( 0.000000000000000000, 0.000000000000000000, 253.0000000000000000 ) ) ;
#120 = AXIS2_PLACEMENT_3D ( 'NONE', #25, #243, #125 ) ;
#121 = APPROVAL_STATUS ( 'not_yet_approved' ) ;
#122 = APPLICATION_PROTOCOL_DEFINITION ( 'international standard', 'config_control_design', 1994, #199 ) ;
#123 = EDGE_CURVE ( 'NONE', #116, #237, #69, .T. ) ;
#124 = DIRECTION ( 'NONE',  ( 0.000000000000000000, 0.000000000000000000, 1.000000000000000000 ) ) ;
#125 = DIRECTION ( 'NONE',  ( 0.000000000000000000, 0.000000000000000000, -1.000000000000000000 ) ) ;
#126 = ADVANCED_FACE ( 'NONE', ( #79 ), #321, .F. ) ;
#127 =( GEOMETRIC_REPRESENTATION_CONTEXT ( 3 ) GLOBAL_UNCERTAINTY_ASSIGNED_CONTEXT ( ( #251 ) ) GLOBAL_UNIT_ASSIGNED_CONTEXT ( ( #279, #208, #302 ) ) REPRESENTATION_CONTEXT ( 'NONE', 'WORKASPACE' ) );
#128 = DIRECTION ( 'NONE',  ( 0.000000000000000000, 0.000000000000000000, 1.000000000000000000 ) ) ;
#129 = APPROVAL ( #121, 'NEURÈENÝ' ) ;
#130 = FACE_BOUND ( 'NONE', #111, .T. ) ;
#131 = DIRECTION ( 'NONE',  ( -0.000000000000000000, -0.000000000000000000, -1.000000000000000000 ) ) ;
#132 = LOCAL_TIME ( 17, 52, 4.000000000000000000, #6 ) ;
#133 = PERSON ( 'NEURÈENÝ', 'NEURÈENÝ', 'NEURÈENÝ', ('NEURÈENÝ'), ('NEURÈENÝ'), ('NEURÈENÝ') ) ;
#134 = ORIENTED_EDGE ( 'NONE', *, *, #250, .T. ) ;
#135 = CIRCLE ( 'NONE', #311, 0.2999999999999999334 ) ;
#136 = CARTESIAN_POINT ( 'NONE',  ( 0.000000000000000000, 0.000000000000000000, 3.000000000000000000 ) ) ;
#137 = ORIENTED_EDGE ( 'NONE', *, *, #39, .F. ) ;
#138 = EDGE_CURVE ( 'NONE', #47, #351, #264, .T. ) ;
#139 = CARTESIAN_POINT ( 'NONE',  ( 0.000000000000000000, 0.000000000000000000, 0.000000000000000000 ) ) ;
#140 = ORIENTED_EDGE ( 'NONE', *, *, #181, .T. ) ;
#141 = VECTOR ( 'NONE', #131, 1000.000000000000000 ) ;
#142 = DIRECTION ( 'NONE',  ( -1.000000000000000000, 0.000000000000000000, 0.000000000000000000 ) ) ;
#143 = VERTEX_POINT ( 'NONE', #350 ) ;
#144 = DIRECTION ( 'NONE',  ( 1.000000000000000000, 0.000000000000000000, -0.000000000000000000 ) ) ;
#145 = ADVANCED_FACE ( 'NONE', ( #34 ), #60, .T. ) ;
#146 = AXIS2_PLACEMENT_3D ( 'NONE', #93, #67, #188 ) ;
#147 = APPROVAL ( #356, 'NEURÈENÝ' ) ;
#148 = AXIS2_PLACEMENT_3D ( 'NONE', #375, #82, #109 ) ;
#149 = EDGE_LOOP ( 'NONE', ( #371, #322, #257, #78 ) ) ;
#150 = VERTEX_POINT ( 'NONE', #4 ) ;
#151 = APPLICATION_PROTOCOL_DEFINITION ( 'international standard', 'config_control_design', 1994, #374 ) ;
#152 = DATE_TIME_ROLE ( 'creation_date' ) ;
#153 = CALENDAR_DATE ( 2022, 8, 7 ) ;
#154 = PRODUCT ( '65b5', '65b5', '', ( #380 ) ) ;
#155 = LINE ( 'NONE', #285, #141 ) ;
#156 = CARTESIAN_POINT ( 'NONE',  ( -1.000000000000000000, 0.000000000000000000, 0.000000000000000000 ) ) ;
#157 = DIRECTION ( 'NONE',  ( 1.000000000000000000, 0.000000000000000000, 0.000000000000000000 ) ) ;
#158 = DATE_AND_TIME ( #355, #173 ) ;
#159 = DIRECTION ( 'NONE',  ( -1.000000000000000000, 0.000000000000000000, 0.000000000000000000 ) ) ;
#160 = CYLINDRICAL_SURFACE ( 'NONE', #327, 1.000000000000000000 ) ;
#161 = AXIS2_PLACEMENT_3D ( 'NONE', #369, #229, #347 ) ;
#162 = ORIENTED_EDGE ( 'NONE', *, *, #307, .T. ) ;
#163 = PLANE ( 'NONE',  #236 ) ;
#164 = EDGE_LOOP ( 'NONE', ( #263, #88, #19, #326 ) ) ;
#165 = DIRECTION ( 'NONE',  ( 0.000000000000000000, 0.000000000000000000, 1.000000000000000000 ) ) ;
#166 = ORIENTED_EDGE ( 'NONE', *, *, #138, .T. ) ;
#167 = FACE_OUTER_BOUND ( 'NONE', #231, .T. ) ;
#168 = ORIENTED_EDGE ( 'NONE', *, *, #49, .T. ) ;
#169 = ADVANCED_FACE ( 'NONE', ( #223 ), #160, .F. ) ;
#170 = DIRECTION ( 'NONE',  ( 1.000000000000000000, 0.000000000000000000, 0.000000000000000000 ) ) ;
#171 = ORIENTED_EDGE ( 'NONE', *, *, #238, .F. ) ;
#172 = AXIS2_PLACEMENT_3D ( 'NONE', #204, #73, #170 ) ;
#173 = LOCAL_TIME ( 17, 52, 4.000000000000000000, #35 ) ;
#174 = ORIENTED_EDGE ( 'NONE', *, *, #341, .F. ) ;
#175 = EDGE_CURVE ( 'NONE', #237, #116, #260, .T. ) ;
#176 = CC_DESIGN_PERSON_AND_ORGANIZATION_ASSIGNMENT ( #244, #309, ( #235 ) ) ;
#177 = CARTESIAN_POINT ( 'NONE',  ( -1.000000000000000000, 0.000000000000000000, 253.0000000000000000 ) ) ;
#178 = COORDINATED_UNIVERSAL_TIME_OFFSET ( 1, 0, .AHEAD. ) ;
#179 = CYLINDRICAL_SURFACE ( 'NONE', #192, 2.500000000000000000 ) ;
#180 = PERSON_AND_ORGANIZATION ( #133, #226 ) ;
#181 = EDGE_CURVE ( 'NONE', #150, #197, #37, .T. ) ;
#182 = DIRECTION ( 'NONE',  ( 0.000000000000000000, 0.000000000000000000, 1.000000000000000000 ) ) ;
#183 = DIRECTION ( 'NONE',  ( 1.000000000000000000, 0.000000000000000000, 0.000000000000000000 ) ) ;
#184 = PERSON_AND_ORGANIZATION ( #133, #226 ) ;
#185 = DESIGN_CONTEXT ( 'detailed design', #199, 'design' ) ;
#186 = CARTESIAN_POINT ( 'NONE',  ( 0.000000000000000000, 0.000000000000000000, 253.0000000000000000 ) ) ;
#187 = AXIS2_PLACEMENT_3D ( 'NONE', #119, #273, #328 ) ;
#188 = DIRECTION ( 'NONE',  ( 1.000000000000000000, 0.000000000000000000, 0.000000000000000000 ) ) ;
#189 = EDGE_CURVE ( 'NONE', #237, #296, #155, .T. ) ;
#190 = VERTEX_POINT ( 'NONE', #99 ) ;
#191 = FACE_OUTER_BOUND ( 'NONE', #108, .T. ) ;
#192 = AXIS2_PLACEMENT_3D ( 'NONE', #378, #91, #94 ) ;
#193 = ORIENTED_EDGE ( 'NONE', *, *, #250, .F. ) ;
#194 = DIRECTION ( 'NONE',  ( 1.000000000000000000, 0.000000000000000000, 0.000000000000000000 ) ) ;
#195 = ORIENTED_EDGE ( 'NONE', *, *, #118, .F. ) ;
#196 = DIRECTION ( 'NONE',  ( -0.000000000000000000, -0.000000000000000000, -1.000000000000000000 ) ) ;
#197 = VERTEX_POINT ( 'NONE', #254 ) ;
#198 = EDGE_CURVE ( 'NONE', #116, #43, #361, .T. ) ;
#199 = APPLICATION_CONTEXT ( 'configuration controlled 3d designs of mechanical parts and assemblies' ) ;
#200 = DIRECTION ( 'NONE',  ( 0.000000000000000000, 0.000000000000000000, 1.000000000000000000 ) ) ;
#201 = ORIENTED_EDGE ( 'NONE', *, *, #238, .T. ) ;
#202 = PRODUCT_DEFINITION_FORMATION_WITH_SPECIFIED_SOURCE ( 'LIBOVOLNÝ', '', #154, .NOT_KNOWN. ) ;
#203 = CIRCLE ( 'NONE', #376, 2.500000000000000000 ) ;
#204 = CARTESIAN_POINT ( 'NONE',  ( 0.000000000000000000, 0.000000000000000000, 0.000000000000000000 ) ) ;
#205 = PRODUCT_RELATED_PRODUCT_CATEGORY ( 'detail', '', ( #154 ) ) ;
#206 = EDGE_CURVE ( 'NONE', #43, #296, #76, .T. ) ;
#207 = ORIENTED_EDGE ( 'NONE', *, *, #64, .F. ) ;
#208 =( NAMED_UNIT ( * ) PLANE_ANGLE_UNIT ( ) SI_UNIT ( $, .RADIAN. ) );
#209 = CARTESIAN_POINT ( 'NONE',  ( 1.000000000000000000, 1.224646799147353207E-16, 0.000000000000000000 ) ) ;
#210 = CIRCLE ( 'NONE', #148, 5.000000000000000000 ) ;
#211 = DATE_AND_TIME ( #65, #10 ) ;
#212 = DIRECTION ( 'NONE',  ( 1.000000000000000000, 0.000000000000000000, 0.000000000000000000 ) ) ;
#213 = APPROVAL_ROLE ( '' ) ;
#214 = AXIS2_PLACEMENT_3D ( 'NONE', #308, #182, #70 ) ;
#215 = DIRECTION ( 'NONE',  ( 0.000000000000000000, 0.000000000000000000, -1.000000000000000000 ) ) ;
#216 = DIRECTION ( 'NONE',  ( 0.000000000000000000, 0.000000000000000000, -1.000000000000000000 ) ) ;
#217 = DATE_TIME_ROLE ( 'classification_date' ) ;
#218 = CARTESIAN_POINT ( 'NONE',  ( 0.000000000000000000, 0.000000000000000000, 253.0000000000000000 ) ) ;
#219 = ADVANCED_FACE ( 'NONE', ( #130, #338 ), #103, .T. ) ;
#220 = CARTESIAN_POINT ( 'NONE',  ( 0.000000000000000000, 0.000000000000000000, 253.0000000000000000 ) ) ;
#221 = CC_DESIGN_PERSON_AND_ORGANIZATION_ASSIGNMENT ( #332, #101, ( #202 ) ) ;
#222 = LOCAL_TIME ( 17, 52, 4.000000000000000000, #32 ) ;
#223 = FACE_OUTER_BOUND ( 'NONE', #149, .T. ) ;
#224 = ORIENTED_EDGE ( 'NONE', *, *, #307, .F. ) ;
#225 = ORIENTED_EDGE ( 'NONE', *, *, #49, .F. ) ;
#226 = ORGANIZATION ( 'NEURÈENÝ', 'NEURÈENÝ', '' ) ;
#227 = CARTESIAN_POINT ( 'NONE',  ( 5.000000000000000000, 6.123233995736766282E-16, 3.000000000000000000 ) ) ;
#228 = ORIENTED_EDGE ( 'NONE', *, *, #272, .T. ) ;
#229 = DIRECTION ( 'NONE',  ( 0.000000000000000000, 0.000000000000000000, 1.000000000000000000 ) ) ;
#230 = ADVANCED_FACE ( 'NONE', ( #337 ), #278, .T. ) ;
#231 = EDGE_LOOP ( 'NONE', ( #171, #195 ) ) ;
#232 = DIRECTION ( 'NONE',  ( 0.000000000000000000, 0.000000000000000000, -1.000000000000000000 ) ) ;
#233 = DIRECTION ( 'NONE',  ( 1.224646799147353207E-16, 1.000000000000000000, -0.000000000000000000 ) ) ;
#234 = DIRECTION ( 'NONE',  ( 1.000000000000000000, 0.000000000000000000, -0.000000000000000000 ) ) ;
#235 = SECURITY_CLASSIFICATION ( '', '', #58 ) ;
#236 = AXIS2_PLACEMENT_3D ( 'NONE', #46, #317, #234 ) ;
#237 = VERTEX_POINT ( 'NONE', #2 ) ;
#238 = EDGE_CURVE ( 'NONE', #40, #377, #344, .T. ) ;
#239 = EDGE_LOOP ( 'NONE', ( #140, #134 ) ) ;
#240 = CARTESIAN_POINT ( 'NONE',  ( 5.000000000000000000, 6.123233995736766282E-16, 0.000000000000000000 ) ) ;
#241 = APPROVAL ( #92, 'NEURÈENÝ' ) ;
#242 = TOROIDAL_SURFACE ( 'NONE', #363, 2.799999999999999822, 0.2999999999999999889 ) ;
#243 = DIRECTION ( 'NONE',  ( 0.000000000000000000, -1.000000000000000000, 0.000000000000000000 ) ) ;
#244 = PERSON_AND_ORGANIZATION ( #133, #226 ) ;
#245 = PERSON_AND_ORGANIZATION ( #133, #226 ) ;
#246 = FACE_OUTER_BOUND ( 'NONE', #16, .T. ) ;
#247 = CALENDAR_DATE ( 2022, 8, 7 ) ;
#248 = AXIS2_PLACEMENT_3D ( 'NONE', #18, #323, #142 ) ;
#249 = SHAPE_DEFINITION_REPRESENTATION ( #343, #299 ) ;
#250 = EDGE_CURVE ( 'NONE', #197, #150, #97, .T. ) ;
#251 = UNCERTAINTY_MEASURE_WITH_UNIT (LENGTH_MEASURE( 1.000000000000000082E-05 ), #279, 'distance_accuracy_value', 'NONE');
#252 = DIRECTION ( 'NONE',  ( -1.000000000000000000, 0.000000000000000000, 0.000000000000000000 ) ) ;
#253 = CARTESIAN_POINT ( 'NONE',  ( -2.500000000000000000, 0.000000000000000000, 253.0000000000000000 ) ) ;
#254 = CARTESIAN_POINT ( 'NONE',  ( -2.799999999999999822, 3.429011037612589276E-16, 2.999999999999998668 ) ) ;
#255 = VECTOR ( 'NONE', #329, 1000.000000000000000 ) ;
#256 = TOROIDAL_SURFACE ( 'NONE', #354, 2.799999999999999822, 0.2999999999999999889 ) ;
#257 = ORIENTED_EDGE ( 'NONE', *, *, #341, .T. ) ;
#258 = CARTESIAN_POINT ( 'NONE',  ( 5.000000000000000000, 6.123233995736766282E-16, 3.000000000000000000 ) ) ;
#259 = ORIENTED_EDGE ( 'NONE', *, *, #324, .F. ) ;
#260 = CIRCLE ( 'NONE', #89, 2.500000000000000000 ) ;
#261 = DIRECTION ( 'NONE',  ( 1.000000000000000000, 0.000000000000000000, 0.000000000000000000 ) ) ;
#262 = CIRCLE ( 'NONE', #29, 1.000000000000000000 ) ;
#263 = ORIENTED_EDGE ( 'NONE', *, *, #189, .F. ) ;
#264 = LINE ( 'NONE', #113, #22 ) ;
#265 = ORIENTED_EDGE ( 'NONE', *, *, #52, .F. ) ;
#266 = CC_DESIGN_PERSON_AND_ORGANIZATION_ASSIGNMENT ( #359, #381, ( #112 ) ) ;
#267 = CARTESIAN_POINT ( 'NONE',  ( 0.000000000000000000, 0.000000000000000000, 0.000000000000000000 ) ) ;
#268 = VECTOR ( 'NONE', #66, 1000.000000000000000 ) ;
#269 = CIRCLE ( 'NONE', #172, 1.000000000000000000 ) ;
#270 = EDGE_LOOP ( 'NONE', ( #80, #53, #168, #342 ) ) ;
#271 = CARTESIAN_POINT ( 'NONE',  ( 0.000000000000000000, 0.000000000000000000, 3.299999999999997158 ) ) ;
#272 = EDGE_CURVE ( 'NONE', #190, #47, #17, .T. ) ;
#273 = DIRECTION ( 'NONE',  ( 0.000000000000000000, 0.000000000000000000, 1.000000000000000000 ) ) ;
#274 = APPROVAL_PERSON_ORGANIZATION ( #62, #241, #305 ) ;
#275 = CALENDAR_DATE ( 2022, 8, 7 ) ;
#276 = PERSON_AND_ORGANIZATION ( #133, #226 ) ;
#277 = DATE_AND_TIME ( #153, #105 ) ;
#278 = CYLINDRICAL_SURFACE ( 'NONE', #316, 5.000000000000000000 ) ;
#279 =( LENGTH_UNIT ( ) NAMED_UNIT ( * ) SI_UNIT ( .MILLI., .METRE. ) );
#280 = DIRECTION ( 'NONE',  ( 1.000000000000000000, 0.000000000000000000, 0.000000000000000000 ) ) ;
#281 = CC_DESIGN_APPROVAL ( #241, ( #235 ) ) ;
#282 = VECTOR ( 'NONE', #196, 1000.000000000000000 ) ;
#283 = DATE_AND_TIME ( #247, #222 ) ;
#284 = CARTESIAN_POINT ( 'NONE',  ( 0.000000000000000000, 0.000000000000000000, 253.0000000000000000 ) ) ;
#285 = CARTESIAN_POINT ( 'NONE',  ( 2.500000000000000000, 3.061616997868383141E-16, 253.0000000000000000 ) ) ;
#286 = APPROVAL_PERSON_ORGANIZATION ( #180, #129, #303 ) ;
#287 = CIRCLE ( 'NONE', #75, 5.000000000000000000 ) ;
#288 = ORIENTED_EDGE ( 'NONE', *, *, #272, .F. ) ;
#289 = FACE_BOUND ( 'NONE', #239, .T. ) ;
#290 = ORIENTED_EDGE ( 'NONE', *, *, #9, .T. ) ;
#291 = ADVANCED_FACE ( 'NONE', ( #246 ), #333, .T. ) ;
#292 = CARTESIAN_POINT ( 'NONE',  ( -2.500000000000000000, 0.000000000000000000, 253.0000000000000000 ) ) ;
#293 = ORIENTED_EDGE ( 'NONE', *, *, #55, .F. ) ;
#294 = VECTOR ( 'NONE', #216, 1000.000000000000000 ) ;
#295 = DIRECTION ( 'NONE',  ( 0.000000000000000000, 0.000000000000000000, 1.000000000000000000 ) ) ;
#296 = VERTEX_POINT ( 'NONE', #63 ) ;
#297 = CARTESIAN_POINT ( 'NONE',  ( 0.000000000000000000, 0.000000000000000000, 3.299999999999997158 ) ) ;
#298 = ADVANCED_FACE ( 'NONE', ( #360 ), #179, .T. ) ;
#299 = ADVANCED_BREP_SHAPE_REPRESENTATION ( '65b5', ( #353, #379 ), #127 ) ;
#300 = ORIENTED_EDGE ( 'NONE', *, *, #39, .T. ) ;
#301 = AXIS2_PLACEMENT_3D ( 'NONE', #220, #128, #362 ) ;
#302 =( NAMED_UNIT ( * ) SI_UNIT ( $, .STERADIAN. ) SOLID_ANGLE_UNIT ( ) );
#303 = APPROVAL_ROLE ( '' ) ;
#304 = CC_DESIGN_APPROVAL ( #147, ( #112 ) ) ;
#305 = APPROVAL_ROLE ( '' ) ;
#306 = DIRECTION ( 'NONE',  ( -0.000000000000000000, -0.000000000000000000, -1.000000000000000000 ) ) ;
#307 = EDGE_CURVE ( 'NONE', #143, #40, #3, .T. ) ;
#308 = CARTESIAN_POINT ( 'NONE',  ( 0.000000000000000000, 0.000000000000000000, 3.299999999999997158 ) ) ;
#309 = PERSON_AND_ORGANIZATION_ROLE ( 'classification_officer' ) ;
#310 = CARTESIAN_POINT ( 'NONE',  ( 0.000000000000000000, 0.000000000000000000, 253.0000000000000000 ) ) ;
#311 = AXIS2_PLACEMENT_3D ( 'NONE', #114, #233, #345 ) ;
#312 = AXIS2_PLACEMENT_3D ( 'NONE', #7, #8, #183 ) ;
#313 = AXIS2_PLACEMENT_3D ( 'NONE', #139, #295, #261 ) ;
#314 = DIRECTION ( 'NONE',  ( -0.000000000000000000, -0.000000000000000000, -1.000000000000000000 ) ) ;
#315 = ORIENTED_EDGE ( 'NONE', *, *, #110, .F. ) ;
#316 = AXIS2_PLACEMENT_3D ( 'NONE', #31, #306, #339 ) ;
#317 = DIRECTION ( 'NONE',  ( 0.000000000000000000, 0.000000000000000000, 1.000000000000000000 ) ) ;
#318 = EDGE_LOOP ( 'NONE', ( #137, #117, #11, #224 ) ) ;
#319 = LINE ( 'NONE', #227, #282 ) ;
#320 = EDGE_LOOP ( 'NONE', ( #207, #293 ) ) ;
#321 = CYLINDRICAL_SURFACE ( 'NONE', #248, 1.000000000000000000 ) ;
#322 = ORIENTED_EDGE ( 'NONE', *, *, #324, .T. ) ;
#323 = DIRECTION ( 'NONE',  ( 0.000000000000000000, 0.000000000000000000, -1.000000000000000000 ) ) ;
#324 = EDGE_CURVE ( 'NONE', #47, #190, #23, .T. ) ;
#325 = FACE_BOUND ( 'NONE', #320, .T. ) ;
#326 = ORIENTED_EDGE ( 'NONE', *, *, #206, .T. ) ;
#327 = AXIS2_PLACEMENT_3D ( 'NONE', #284, #215, #104 ) ;
#328 = DIRECTION ( 'NONE',  ( 1.000000000000000000, 0.000000000000000000, 0.000000000000000000 ) ) ;
#329 = DIRECTION ( 'NONE',  ( -0.000000000000000000, -0.000000000000000000, -1.000000000000000000 ) ) ;
#330 = ADVANCED_FACE ( 'NONE', ( #334 ), #242, .F. ) ;
#331 = LINE ( 'NONE', #177, #294 ) ;
#332 = PERSON_AND_ORGANIZATION ( #133, #226 ) ;
#333 = CYLINDRICAL_SURFACE ( 'NONE', #368, 5.000000000000000000 ) ;
#334 = FACE_OUTER_BOUND ( 'NONE', #74, .T. ) ;
#335 = DIRECTION ( 'NONE',  ( -0.000000000000000000, -0.000000000000000000, -1.000000000000000000 ) ) ;
#336 = APPROVAL_DATE_TIME ( #277, #241 ) ;
#337 = FACE_OUTER_BOUND ( 'NONE', #318, .T. ) ;
#338 = FACE_OUTER_BOUND ( 'NONE', #24, .T. ) ;
#339 = DIRECTION ( 'NONE',  ( -1.000000000000000000, 0.000000000000000000, 0.000000000000000000 ) ) ;
#340 = ORIENTED_EDGE ( 'NONE', *, *, #123, .T. ) ;
#341 = EDGE_CURVE ( 'NONE', #190, #346, #331, .T. ) ;
#342 = ORIENTED_EDGE ( 'NONE', *, *, #198, .F. ) ;
#343 = PRODUCT_DEFINITION_SHAPE ( 'NONE', 'NONE',  #112 ) ;
#344 = CIRCLE ( 'NONE', #146, 5.000000000000000000 ) ;
#345 = DIRECTION ( 'NONE',  ( -1.000000000000000000, 1.224646799147353207E-16, 0.000000000000000000 ) ) ;
#346 = VERTEX_POINT ( 'NONE', #156 ) ;
#347 = DIRECTION ( 'NONE',  ( 1.000000000000000000, 0.000000000000000000, 0.000000000000000000 ) ) ;
#348 = ORIENTED_EDGE ( 'NONE', *, *, #181, .F. ) ;
#349 = EDGE_CURVE ( 'NONE', #296, #150, #28, .T. ) ;
#350 = CARTESIAN_POINT ( 'NONE',  ( -5.000000000000000000, 0.000000000000000000, 3.000000000000000000 ) ) ;
#351 = VERTEX_POINT ( 'NONE', #209 ) ;
#352 = FACE_OUTER_BOUND ( 'NONE', #367, .T. ) ;
#353 = MANIFOLD_SOLID_BREP ( 'Odebrat vysunutím3', #87 ) ;
#354 = AXIS2_PLACEMENT_3D ( 'NONE', #297, #165, #194 ) ;
#355 = CALENDAR_DATE ( 2022, 8, 7 ) ;
#356 = APPROVAL_STATUS ( 'not_yet_approved' ) ;
#357 = CARTESIAN_POINT ( 'NONE',  ( 0.000000000000000000, 0.000000000000000000, 3.000000000000000000 ) ) ;
#358 = DIRECTION ( 'NONE',  ( 0.000000000000000000, 0.000000000000000000, 1.000000000000000000 ) ) ;
#359 = PERSON_AND_ORGANIZATION ( #133, #226 ) ;
#360 = FACE_OUTER_BOUND ( 'NONE', #270, .T. ) ;
#361 = LINE ( 'NONE', #253, #268 ) ;
#362 = DIRECTION ( 'NONE',  ( 1.000000000000000000, 0.000000000000000000, -0.000000000000000000 ) ) ;
#363 = AXIS2_PLACEMENT_3D ( 'NONE', #271, #61, #100 ) ;
#364 = CC_DESIGN_PERSON_AND_ORGANIZATION_ASSIGNMENT ( #276, #1, ( #154 ) ) ;
#365 = ORIENTED_EDGE ( 'NONE', *, *, #175, .T. ) ;
#366 = DIRECTION ( 'NONE',  ( 1.000000000000000000, 0.000000000000000000, 0.000000000000000000 ) ) ;
#367 = EDGE_LOOP ( 'NONE', ( #51, #300 ) ) ;
#368 = AXIS2_PLACEMENT_3D ( 'NONE', #357, #335, #252 ) ;
#369 = CARTESIAN_POINT ( 'NONE',  ( 0.000000000000000000, 0.000000000000000000, 253.0000000000000000 ) ) ;
#370 = CC_DESIGN_DATE_AND_TIME_ASSIGNMENT ( #158, #217, ( #235 ) ) ;
#371 = ORIENTED_EDGE ( 'NONE', *, *, #138, .F. ) ;
#372 = DIRECTION ( 'NONE',  ( 1.000000000000000000, 0.000000000000000000, 0.000000000000000000 ) ) ;
#373 = ORIENTED_EDGE ( 'NONE', *, *, #9, .F. ) ;
#374 = APPLICATION_CONTEXT ( 'configuration controlled 3d designs of mechanical parts and assemblies' ) ;
#375 = CARTESIAN_POINT ( 'NONE',  ( 0.000000000000000000, 0.000000000000000000, 3.000000000000000000 ) ) ;
#376 = AXIS2_PLACEMENT_3D ( 'NONE', #42, #115, #44 ) ;
#377 = VERTEX_POINT ( 'NONE', #240 ) ;
#378 = CARTESIAN_POINT ( 'NONE',  ( 0.000000000000000000, 0.000000000000000000, 253.0000000000000000 ) ) ;
#379 = AXIS2_PLACEMENT_3D ( 'NONE', #57, #358, #26 ) ;
#380 = MECHANICAL_CONTEXT ( 'NONE', #374, 'mechanical' ) ;
#381 = PERSON_AND_ORGANIZATION_ROLE ( 'creator' ) ;
ENDSEC;
END-ISO-10303-21;
