ISO-10303-21;
HEADER;
FILE_DESCRIPTION (( 'STEP AP203' ),
    '1' );
FILE_NAME ('4730.STEP',
    '2022-07-08T14:26:20',
    ( '' ),
    ( '' ),
    'SwSTEP 2.0',
    'SolidWorks 2019',
    '' );
FILE_SCHEMA (( 'CONFIG_CONTROL_DESIGN' ));
ENDSEC;

DATA;
#1 = AXIS2_PLACEMENT_3D ( 'NONE', #112, #52, #137 ) ;
#2 = DIRECTION ( 'NONE',  ( 0.000000000000000000, 0.000000000000000000, -1.000000000000000000 ) ) ;
#3 = CIRCLE ( 'NONE', #212, 6.000000000000000888 ) ;
#4 = PERSON_AND_ORGANIZATION_ROLE ( 'design_supplier' ) ;
#5 = CIRCLE ( 'NONE', #249, 6.700000000000001066 ) ;
#6 = AXIS2_PLACEMENT_3D ( 'NONE', #113, #178, #203 ) ;
#7 = EDGE_CURVE ( 'NONE', #114, #34, #182, .T. ) ;
#8 = CC_DESIGN_APPROVAL ( #365, ( #216 ) ) ;
#9 = ORIENTED_EDGE ( 'NONE', *, *, #206, .T. ) ;
#10 = FACE_OUTER_BOUND ( 'NONE', #63, .T. ) ;
#11 = DIRECTION ( 'NONE',  ( 1.000000000000000000, 0.000000000000000000, 0.000000000000000000 ) ) ;
#12 = COORDINATED_UNIVERSAL_TIME_OFFSET ( 1, 0, .AHEAD. ) ;
#13 = FACE_OUTER_BOUND ( 'NONE', #355, .T. ) ;
#14 = CIRCLE ( 'NONE', #239, 4.500000000000000000 ) ;
#15 = ORIENTED_EDGE ( 'NONE', *, *, #323, .F. ) ;
#16 = CARTESIAN_POINT ( 'NONE',  ( 0.000000000000000000, 0.000000000000000000, 407.0000000000000000 ) ) ;
#17 = VERTEX_POINT ( 'NONE', #248 ) ;
#18 = DATE_AND_TIME ( #42, #136 ) ;
#19 = CC_DESIGN_PERSON_AND_ORGANIZATION_ASSIGNMENT ( #253, #371, ( #272 ) ) ;
#20 = EDGE_CURVE ( 'NONE', #173, #201, #367, .T. ) ;
#21 = CARTESIAN_POINT ( 'NONE',  ( 0.000000000000000000, 0.000000000000000000, 407.0000000000000000 ) ) ;
#22 = ORIENTED_EDGE ( 'NONE', *, *, #269, .T. ) ;
#23 = CALENDAR_DATE ( 2022, 8, 7 ) ;
#24 = CARTESIAN_POINT ( 'NONE',  ( -6.000000000000000888, 0.000000000000000000, 407.0000000000000000 ) ) ;
#25 = APPROVAL_ROLE ( '' ) ;
#26 = DIRECTION ( 'NONE',  ( 0.000000000000000000, 0.000000000000000000, 1.000000000000000000 ) ) ;
#27 = EDGE_CURVE ( 'NONE', #38, #370, #255, .T. ) ;
#28 = APPROVAL_DATE_TIME ( #86, #57 ) ;
#29 = LINE ( 'NONE', #30, #322 ) ;
#30 = CARTESIAN_POINT ( 'NONE',  ( 4.500000000000000000, 5.510910596163088569E-16, 407.0000000000000000 ) ) ;
#31 = DIRECTION ( 'NONE',  ( 0.000000000000000000, 0.000000000000000000, -1.000000000000000000 ) ) ;
#32 = AXIS2_PLACEMENT_3D ( 'NONE', #344, #219, #153 ) ;
#33 = AXIS2_PLACEMENT_3D ( 'NONE', #341, #217, #366 ) ;
#34 = VERTEX_POINT ( 'NONE', #257 ) ;
#35 = CARTESIAN_POINT ( 'NONE',  ( 0.000000000000000000, 0.000000000000000000, 407.0000000000000000 ) ) ;
#36 = ORIENTED_EDGE ( 'NONE', *, *, #7, .F. ) ;
#37 = CARTESIAN_POINT ( 'NONE',  ( 0.000000000000000000, 0.000000000000000000, 407.0000000000000000 ) ) ;
#38 = VERTEX_POINT ( 'NONE', #84 ) ;
#39 = APPROVAL_DATE_TIME ( #340, #225 ) ;
#40 = CARTESIAN_POINT ( 'NONE',  ( 6.000000000000000888, 7.347880794884120722E-16, 407.0000000000000000 ) ) ;
#41 = ORIENTED_EDGE ( 'NONE', *, *, #235, .F. ) ;
#42 = CALENDAR_DATE ( 2022, 8, 7 ) ;
#43 = CARTESIAN_POINT ( 'NONE',  ( 0.000000000000000000, 0.000000000000000000, 407.0000000000000000 ) ) ;
#44 = ORIENTED_EDGE ( 'NONE', *, *, #380, .T. ) ;
#45 =( NAMED_UNIT ( * ) SI_UNIT ( $, .STERADIAN. ) SOLID_ANGLE_UNIT ( ) );
#46 = CYLINDRICAL_SURFACE ( 'NONE', #327, 4.500000000000000000 ) ;
#47 = ORIENTED_EDGE ( 'NONE', *, *, #20, .F. ) ;
#48 = ADVANCED_FACE ( 'NONE', ( #111 ), #299, .F. ) ;
#49 = DIRECTION ( 'NONE',  ( -1.000000000000000000, 0.000000000000000000, 0.000000000000000000 ) ) ;
#50 = CIRCLE ( 'NONE', #214, 0.7000000000000000666 ) ;
#51 = ORIENTED_EDGE ( 'NONE', *, *, #296, .T. ) ;
#52 = DIRECTION ( 'NONE',  ( 0.000000000000000000, 0.000000000000000000, 1.000000000000000000 ) ) ;
#53 = FACE_OUTER_BOUND ( 'NONE', #65, .T. ) ;
#54 = CIRCLE ( 'NONE', #131, 6.000000000000000888 ) ;
#55 = CYLINDRICAL_SURFACE ( 'NONE', #378, 10.00000000000000000 ) ;
#56 = DIRECTION ( 'NONE',  ( 0.000000000000000000, 0.000000000000000000, 1.000000000000000000 ) ) ;
#57 = APPROVAL ( #118, 'NEURÈENÝ' ) ;
#58 = SECURITY_CLASSIFICATION_LEVEL ( 'unclassified' ) ;
#59 = CIRCLE ( 'NONE', #267, 10.00000000000000000 ) ;
#60 = EDGE_CURVE ( 'NONE', #246, #346, #356, .T. ) ;
#61 = AXIS2_PLACEMENT_3D ( 'NONE', #16, #99, #134 ) ;
#62 = MANIFOLD_SOLID_BREP ( 'Odebrat vysunutím3', #352 ) ;
#63 = EDGE_LOOP ( 'NONE', ( #117, #152, #85, #198 ) ) ;
#64 = CARTESIAN_POINT ( 'NONE',  ( -10.00000000000000000, 0.000000000000000000, 7.000000000000000000 ) ) ;
#65 = EDGE_LOOP ( 'NONE', ( #47, #176, #51, #220 ) ) ;
#66 = PERSON ( 'NEURÈENÝ', 'NEURÈENÝ', 'NEURÈENÝ', ('NEURÈENÝ'), ('NEURÈENÝ'), ('NEURÈENÝ') ) ;
#67 = DIRECTION ( 'NONE',  ( -0.000000000000000000, -0.000000000000000000, -1.000000000000000000 ) ) ;
#68 = ORIENTED_EDGE ( 'NONE', *, *, #146, .T. ) ;
#69 = PLANE ( 'NONE',  #1 ) ;
#70 = FACE_BOUND ( 'NONE', #230, .T. ) ;
#71 = ADVANCED_FACE ( 'NONE', ( #381 ), #55, .T. ) ;
#72 = DIRECTION ( 'NONE',  ( -0.000000000000000000, -0.000000000000000000, -1.000000000000000000 ) ) ;
#73 = DIRECTION ( 'NONE',  ( 1.000000000000000000, 0.000000000000000000, 0.000000000000000000 ) ) ;
#74 = LOCAL_TIME ( 16, 26, 20.00000000000000000, #179 ) ;
#75 = ORIENTED_EDGE ( 'NONE', *, *, #185, .F. ) ;
#76 = CARTESIAN_POINT ( 'NONE',  ( 0.000000000000000000, 0.000000000000000000, 0.000000000000000000 ) ) ;
#77 = DIRECTION ( 'NONE',  ( -1.000000000000000000, 1.224646799147353454E-16, 0.000000000000000000 ) ) ;
#78 = MECHANICAL_CONTEXT ( 'NONE', #250, 'mechanical' ) ;
#79 = ADVANCED_FACE ( 'NONE', ( #290, #379 ), #266, .F. ) ;
#80 = DIRECTION ( 'NONE',  ( -0.000000000000000000, -0.000000000000000000, -1.000000000000000000 ) ) ;
#81 = DIRECTION ( 'NONE',  ( 1.000000000000000000, 0.000000000000000000, 0.000000000000000000 ) ) ;
#82 = DIRECTION ( 'NONE',  ( -0.000000000000000000, -0.000000000000000000, -1.000000000000000000 ) ) ;
#83 = CIRCLE ( 'NONE', #61, 6.000000000000000888 ) ;
#84 = CARTESIAN_POINT ( 'NONE',  ( 4.500000000000000000, 5.510910596163088569E-16, 407.0000000000000000 ) ) ;
#85 = ORIENTED_EDGE ( 'NONE', *, *, #323, .T. ) ;
#86 = DATE_AND_TIME ( #122, #74 ) ;
#87 = UNCERTAINTY_MEASURE_WITH_UNIT (LENGTH_MEASURE( 1.000000000000000082E-05 ), #347, 'distance_accuracy_value', 'NONE');
#88 = AXIS2_PLACEMENT_3D ( 'NONE', #325, #174, #236 ) ;
#89 = DIRECTION ( 'NONE',  ( 1.000000000000000000, 0.000000000000000000, 0.000000000000000000 ) ) ;
#90 = EDGE_CURVE ( 'NONE', #346, #363, #3, .T. ) ;
#91 = AXIS2_PLACEMENT_3D ( 'NONE', #76, #200, #81 ) ;
#92 = EDGE_CURVE ( 'NONE', #38, #114, #29, .T. ) ;
#93 = APPROVAL_PERSON_ORGANIZATION ( #110, #365, #25 ) ;
#94 =( GEOMETRIC_REPRESENTATION_CONTEXT ( 3 ) GLOBAL_UNCERTAINTY_ASSIGNED_CONTEXT ( ( #87 ) ) GLOBAL_UNIT_ASSIGNED_CONTEXT ( ( #347, #343, #45 ) ) REPRESENTATION_CONTEXT ( 'NONE', 'WORKASPACE' ) );
#95 = CIRCLE ( 'NONE', #186, 0.7000000000000000666 ) ;
#96 = ORIENTED_EDGE ( 'NONE', *, *, #362, .F. ) ;
#97 = EDGE_LOOP ( 'NONE', ( #166, #158, #187, #307 ) ) ;
#98 = AXIS2_PLACEMENT_3D ( 'NONE', #102, #67, #335 ) ;
#99 = DIRECTION ( 'NONE',  ( 0.000000000000000000, 0.000000000000000000, 1.000000000000000000 ) ) ;
#100 = ORIENTED_EDGE ( 'NONE', *, *, #92, .F. ) ;
#101 = EDGE_CURVE ( 'NONE', #201, #128, #293, .T. ) ;
#102 = CARTESIAN_POINT ( 'NONE',  ( 0.000000000000000000, 0.000000000000000000, 7.000000000000000000 ) ) ;
#103 = ORIENTED_EDGE ( 'NONE', *, *, #60, .T. ) ;
#104 = PERSON_AND_ORGANIZATION ( #66, #311 ) ;
#105 = FACE_OUTER_BOUND ( 'NONE', #109, .T. ) ;
#106 = ORIENTED_EDGE ( 'NONE', *, *, #27, .F. ) ;
#107 = PERSON_AND_ORGANIZATION_ROLE ( 'design_owner' ) ;
#108 = CARTESIAN_POINT ( 'NONE',  ( -6.000000000000000888, 0.000000000000000000, 407.0000000000000000 ) ) ;
#109 = EDGE_LOOP ( 'NONE', ( #336, #277, #280, #218 ) ) ;
#110 = PERSON_AND_ORGANIZATION ( #66, #311 ) ;
#111 = FACE_OUTER_BOUND ( 'NONE', #324, .T. ) ;
#112 = CARTESIAN_POINT ( 'NONE',  ( 0.000000000000000000, 0.000000000000000000, 407.0000000000000000 ) ) ;
#113 = CARTESIAN_POINT ( 'NONE',  ( 0.000000000000000000, 0.000000000000000000, 7.699999999999985079 ) ) ;
#114 = VERTEX_POINT ( 'NONE', #317 ) ;
#115 = CARTESIAN_POINT ( 'NONE',  ( 6.700000000000001066, 0.000000000000000000, 7.699999999999985079 ) ) ;
#116 = VECTOR ( 'NONE', #133, 1000.000000000000000 ) ;
#117 = ORIENTED_EDGE ( 'NONE', *, *, #60, .F. ) ;
#118 = APPROVAL_STATUS ( 'not_yet_approved' ) ;
#119 = EDGE_CURVE ( 'NONE', #34, #114, #139, .T. ) ;
#120 = DIRECTION ( 'NONE',  ( -0.000000000000000000, -0.000000000000000000, -1.000000000000000000 ) ) ;
#121 = PERSON_AND_ORGANIZATION ( #66, #311 ) ;
#122 = CALENDAR_DATE ( 2022, 8, 7 ) ;
#123 = ORIENTED_EDGE ( 'NONE', *, *, #27, .T. ) ;
#124 = DIRECTION ( 'NONE',  ( 1.000000000000000000, 0.000000000000000000, 0.000000000000000000 ) ) ;
#125 = ORIENTED_EDGE ( 'NONE', *, *, #119, .F. ) ;
#126 = APPROVAL_DATE_TIME ( #231, #365 ) ;
#127 = DIRECTION ( 'NONE',  ( 0.000000000000000000, 0.000000000000000000, 1.000000000000000000 ) ) ;
#128 = VERTEX_POINT ( 'NONE', #358 ) ;
#129 = DIRECTION ( 'NONE',  ( 1.000000000000000000, 0.000000000000000000, 0.000000000000000000 ) ) ;
#130 = DIRECTION ( 'NONE',  ( -0.000000000000000000, -0.000000000000000000, -1.000000000000000000 ) ) ;
#131 = AXIS2_PLACEMENT_3D ( 'NONE', #354, #56, #320 ) ;
#132 = DIRECTION ( 'NONE',  ( 1.000000000000000000, 0.000000000000000000, 0.000000000000000000 ) ) ;
#133 = DIRECTION ( 'NONE',  ( 0.000000000000000000, 0.000000000000000000, -1.000000000000000000 ) ) ;
#134 = DIRECTION ( 'NONE',  ( 1.000000000000000000, 0.000000000000000000, 0.000000000000000000 ) ) ;
#135 = FACE_OUTER_BOUND ( 'NONE', #364, .T. ) ;
#136 = LOCAL_TIME ( 16, 26, 20.00000000000000000, #289 ) ;
#137 = DIRECTION ( 'NONE',  ( 1.000000000000000000, 0.000000000000000000, -0.000000000000000000 ) ) ;
#138 = DIRECTION ( 'NONE',  ( 1.000000000000000000, 0.000000000000000000, 0.000000000000000000 ) ) ;
#139 = CIRCLE ( 'NONE', #222, 4.500000000000000000 ) ;
#140 = CALENDAR_DATE ( 2022, 8, 7 ) ;
#141 = VECTOR ( 'NONE', #72, 1000.000000000000000 ) ;
#142 = DIRECTION ( 'NONE',  ( 1.000000000000000000, 0.000000000000000000, 0.000000000000000000 ) ) ;
#143 = EDGE_CURVE ( 'NONE', #363, #346, #54, .T. ) ;
#144 = CARTESIAN_POINT ( 'NONE',  ( 0.000000000000000000, 0.000000000000000000, 7.699999999999985079 ) ) ;
#145 = SECURITY_CLASSIFICATION ( '', '', #58 ) ;
#146 = EDGE_CURVE ( 'NONE', #346, #357, #95, .T. ) ;
#147 = DATE_AND_TIME ( #140, #196 ) ;
#148 = CC_DESIGN_APPROVAL ( #57, ( #145 ) ) ;
#149 = AXIS2_PLACEMENT_3D ( 'NONE', #207, #351, #142 ) ;
#150 = ADVANCED_FACE ( 'NONE', ( #53 ), #298, .T. ) ;
#151 = AXIS2_PLACEMENT_3D ( 'NONE', #314, #127, #124 ) ;
#152 = ORIENTED_EDGE ( 'NONE', *, *, #206, .F. ) ;
#153 = DIRECTION ( 'NONE',  ( -1.000000000000000000, 0.000000000000000000, 0.000000000000000000 ) ) ;
#154 = EDGE_CURVE ( 'NONE', #275, #173, #59, .T. ) ;
#155 = AXIS2_PLACEMENT_3D ( 'NONE', #224, #156, #11 ) ;
#156 = DIRECTION ( 'NONE',  ( -0.000000000000000000, -0.000000000000000000, -1.000000000000000000 ) ) ;
#157 = DIRECTION ( 'NONE',  ( -0.000000000000000000, -0.000000000000000000, -1.000000000000000000 ) ) ;
#158 = ORIENTED_EDGE ( 'NONE', *, *, #20, .T. ) ;
#159 = CARTESIAN_POINT ( 'NONE',  ( 0.000000000000000000, 0.000000000000000000, 407.0000000000000000 ) ) ;
#160 = CIRCLE ( 'NONE', #151, 10.00000000000000000 ) ;
#161 = CARTESIAN_POINT ( 'NONE',  ( -10.00000000000000000, 0.000000000000000000, 7.000000000000000000 ) ) ;
#162 = DIRECTION ( 'NONE',  ( 0.000000000000000000, 0.000000000000000000, 1.000000000000000000 ) ) ;
#163 = LINE ( 'NONE', #281, #116 ) ;
#164 = CARTESIAN_POINT ( 'NONE',  ( 0.000000000000000000, 0.000000000000000000, 7.000000000000000000 ) ) ;
#165 = AXIS2_PLACEMENT_3D ( 'NONE', #194, #162, #132 ) ;
#166 = ORIENTED_EDGE ( 'NONE', *, *, #273, .F. ) ;
#167 = PERSON_AND_ORGANIZATION ( #66, #311 ) ;
#168 = PLANE ( 'NONE',  #301 ) ;
#169 = ORIENTED_EDGE ( 'NONE', *, *, #273, .T. ) ;
#170 = COORDINATED_UNIVERSAL_TIME_OFFSET ( 1, 0, .AHEAD. ) ;
#171 = CARTESIAN_POINT ( 'NONE',  ( 0.000000000000000000, 0.000000000000000000, 7.000000000000000000 ) ) ;
#172 = AXIS2_PLACEMENT_3D ( 'NONE', #238, #80, #49 ) ;
#173 = VERTEX_POINT ( 'NONE', #264 ) ;
#174 = DIRECTION ( 'NONE',  ( 0.000000000000000000, 0.000000000000000000, 1.000000000000000000 ) ) ;
#175 = ADVANCED_FACE ( 'NONE', ( #189, #13 ), #168, .T. ) ;
#176 = ORIENTED_EDGE ( 'NONE', *, *, #154, .F. ) ;
#177 = SHAPE_DEFINITION_REPRESENTATION ( #360, #334 ) ;
#178 = DIRECTION ( 'NONE',  ( 0.000000000000000000, 0.000000000000000000, 1.000000000000000000 ) ) ;
#179 = COORDINATED_UNIVERSAL_TIME_OFFSET ( 1, 0, .AHEAD. ) ;
#180 = DIRECTION ( 'NONE',  ( 0.000000000000000000, -1.000000000000000000, 0.000000000000000000 ) ) ;
#181 = PERSON_AND_ORGANIZATION ( #66, #311 ) ;
#182 = CIRCLE ( 'NONE', #155, 4.500000000000000000 ) ;
#183 = PRODUCT ( '4730', '4730', '', ( #78 ) ) ;
#184 = CIRCLE ( 'NONE', #211, 10.00000000000000000 ) ;
#185 = EDGE_CURVE ( 'NONE', #363, #17, #50, .T. ) ;
#186 = AXIS2_PLACEMENT_3D ( 'NONE', #115, #180, #31 ) ;
#187 = ORIENTED_EDGE ( 'NONE', *, *, #101, .T. ) ;
#188 = ADVANCED_FACE ( 'NONE', ( #105 ), #46, .F. ) ;
#189 = FACE_BOUND ( 'NONE', #227, .T. ) ;
#190 = ORIENTED_EDGE ( 'NONE', *, *, #146, .F. ) ;
#191 = DIRECTION ( 'NONE',  ( -1.000000000000000000, 0.000000000000000000, 0.000000000000000000 ) ) ;
#192 = ORIENTED_EDGE ( 'NONE', *, *, #332, .F. ) ;
#193 = FACE_OUTER_BOUND ( 'NONE', #252, .T. ) ;
#194 = CARTESIAN_POINT ( 'NONE',  ( 0.000000000000000000, 0.000000000000000000, 407.0000000000000000 ) ) ;
#195 = CARTESIAN_POINT ( 'NONE',  ( -4.500000000000000000, 0.000000000000000000, 407.0000000000000000 ) ) ;
#196 = LOCAL_TIME ( 16, 26, 20.00000000000000000, #291 ) ;
#197 = DIRECTION ( 'NONE',  ( 1.224646799147353207E-16, 1.000000000000000000, -0.000000000000000000 ) ) ;
#198 = ORIENTED_EDGE ( 'NONE', *, *, #143, .T. ) ;
#199 = CC_DESIGN_PERSON_AND_ORGANIZATION_ASSIGNMENT ( #167, #107, ( #183 ) ) ;
#200 = DIRECTION ( 'NONE',  ( 0.000000000000000000, 0.000000000000000000, 1.000000000000000000 ) ) ;
#201 = VERTEX_POINT ( 'NONE', #376 ) ;
#202 = CARTESIAN_POINT ( 'NONE',  ( -6.000000000000000888, 0.000000000000000000, 7.699999999999985079 ) ) ;
#203 = DIRECTION ( 'NONE',  ( 1.000000000000000000, 0.000000000000000000, 0.000000000000000000 ) ) ;
#204 = PERSON_AND_ORGANIZATION ( #66, #311 ) ;
#205 = PRODUCT_RELATED_PRODUCT_CATEGORY ( 'detail', '', ( #183 ) ) ;
#206 = EDGE_CURVE ( 'NONE', #245, #246, #83, .T. ) ;
#207 = CARTESIAN_POINT ( 'NONE',  ( 0.000000000000000000, 0.000000000000000000, 0.000000000000000000 ) ) ;
#208 = CIRCLE ( 'NONE', #297, 6.000000000000000888 ) ;
#209 = DIRECTION ( 'NONE',  ( 0.000000000000000000, 0.000000000000000000, 1.000000000000000000 ) ) ;
#210 = CARTESIAN_POINT ( 'NONE',  ( 6.000000000000000888, 7.347880794884120722E-16, 407.0000000000000000 ) ) ;
#211 = AXIS2_PLACEMENT_3D ( 'NONE', #256, #304, #73 ) ;
#212 = AXIS2_PLACEMENT_3D ( 'NONE', #144, #209, #89 ) ;
#213 = EDGE_CURVE ( 'NONE', #17, #357, #282, .T. ) ;
#214 = AXIS2_PLACEMENT_3D ( 'NONE', #251, #197, #77 ) ;
#215 = ORIENTED_EDGE ( 'NONE', *, *, #185, .T. ) ;
#216 = PRODUCT_DEFINITION ( 'NEZNÁMÝ', '', #272, #271 ) ;
#217 = DIRECTION ( 'NONE',  ( 0.000000000000000000, 0.000000000000000000, 1.000000000000000000 ) ) ;
#218 = ORIENTED_EDGE ( 'NONE', *, *, #380, .F. ) ;
#219 = DIRECTION ( 'NONE',  ( 0.000000000000000000, 0.000000000000000000, -1.000000000000000000 ) ) ;
#220 = ORIENTED_EDGE ( 'NONE', *, *, #332, .T. ) ;
#221 = CALENDAR_DATE ( 2022, 8, 7 ) ;
#222 = AXIS2_PLACEMENT_3D ( 'NONE', #321, #120, #240 ) ;
#223 = FACE_OUTER_BOUND ( 'NONE', #333, .T. ) ;
#224 = CARTESIAN_POINT ( 'NONE',  ( 0.000000000000000000, 0.000000000000000000, 0.000000000000000000 ) ) ;
#225 = APPROVAL ( #318, 'NEURÈENÝ' ) ;
#226 = CYLINDRICAL_SURFACE ( 'NONE', #32, 4.500000000000000000 ) ;
#227 = EDGE_LOOP ( 'NONE', ( #22, #259 ) ) ;
#228 = DATE_TIME_ROLE ( 'creation_date' ) ;
#229 = DIRECTION ( 'NONE',  ( -0.000000000000000000, -0.000000000000000000, -1.000000000000000000 ) ) ;
#230 = EDGE_LOOP ( 'NONE', ( #96, #106 ) ) ;
#231 = DATE_AND_TIME ( #23, #302 ) ;
#232 = DIRECTION ( 'NONE',  ( -0.000000000000000000, -0.000000000000000000, -1.000000000000000000 ) ) ;
#233 = CC_DESIGN_DATE_AND_TIME_ASSIGNMENT ( #147, #241, ( #145 ) ) ;
#234 = APPLICATION_PROTOCOL_DEFINITION ( 'international standard', 'config_control_design', 1994, #250 ) ;
#235 = EDGE_CURVE ( 'NONE', #246, #245, #208, .T. ) ;
#236 = DIRECTION ( 'NONE',  ( 1.000000000000000000, 0.000000000000000000, -0.000000000000000000 ) ) ;
#237 = ORIENTED_EDGE ( 'NONE', *, *, #269, .F. ) ;
#238 = CARTESIAN_POINT ( 'NONE',  ( 0.000000000000000000, 0.000000000000000000, 7.000000000000000000 ) ) ;
#239 = AXIS2_PLACEMENT_3D ( 'NONE', #159, #316, #129 ) ;
#240 = DIRECTION ( 'NONE',  ( 1.000000000000000000, 0.000000000000000000, 0.000000000000000000 ) ) ;
#241 = DATE_TIME_ROLE ( 'classification_date' ) ;
#242 = CC_DESIGN_DATE_AND_TIME_ASSIGNMENT ( #18, #228, ( #216 ) ) ;
#243 = VECTOR ( 'NONE', #229, 1000.000000000000000 ) ;
#244 = APPROVAL_PERSON_ORGANIZATION ( #121, #57, #329 ) ;
#245 = VERTEX_POINT ( 'NONE', #24 ) ;
#246 = VERTEX_POINT ( 'NONE', #40 ) ;
#247 = DIRECTION ( 'NONE',  ( 0.000000000000000000, 0.000000000000000000, -1.000000000000000000 ) ) ;
#248 = CARTESIAN_POINT ( 'NONE',  ( -6.700000000000001066, 8.205133554287267548E-16, 6.999999999999992006 ) ) ;
#249 = AXIS2_PLACEMENT_3D ( 'NONE', #285, #130, #338 ) ;
#250 = APPLICATION_CONTEXT ( 'configuration controlled 3d designs of mechanical parts and assemblies' ) ;
#251 = CARTESIAN_POINT ( 'NONE',  ( -6.700000000000001066, 8.205133554287267548E-16, 7.699999999999985079 ) ) ;
#252 = EDGE_LOOP ( 'NONE', ( #9, #373 ) ) ;
#253 = PERSON_AND_ORGANIZATION ( #66, #311 ) ;
#254 = ADVANCED_FACE ( 'NONE', ( #135 ), #283, .T. ) ;
#255 = CIRCLE ( 'NONE', #165, 4.500000000000000000 ) ;
#256 = CARTESIAN_POINT ( 'NONE',  ( 0.000000000000000000, 0.000000000000000000, 7.000000000000000000 ) ) ;
#257 = CARTESIAN_POINT ( 'NONE',  ( -4.500000000000000000, 0.000000000000000000, 0.000000000000000000 ) ) ;
#258 = DIRECTION ( 'NONE',  ( -0.000000000000000000, -0.000000000000000000, -1.000000000000000000 ) ) ;
#259 = ORIENTED_EDGE ( 'NONE', *, *, #213, .T. ) ;
#260 = CARTESIAN_POINT ( 'NONE',  ( 6.000000000000000888, 7.347880794884120722E-16, 7.699999999999985079 ) ) ;
#261 = AXIS2_PLACEMENT_3D ( 'NONE', #21, #157, #191 ) ;
#262 = CYLINDRICAL_SURFACE ( 'NONE', #319, 6.000000000000000888 ) ;
#263 = ADVANCED_FACE ( 'NONE', ( #223 ), #226, .F. ) ;
#264 = CARTESIAN_POINT ( 'NONE',  ( 10.00000000000000000, 1.224646799147353256E-15, 7.000000000000000000 ) ) ;
#265 = DIRECTION ( 'NONE',  ( -1.000000000000000000, 0.000000000000000000, 0.000000000000000000 ) ) ;
#266 = PLANE ( 'NONE',  #88 ) ;
#267 = AXIS2_PLACEMENT_3D ( 'NONE', #171, #26, #138 ) ;
#268 = CC_DESIGN_PERSON_AND_ORGANIZATION_ASSIGNMENT ( #104, #4, ( #272 ) ) ;
#269 = EDGE_CURVE ( 'NONE', #357, #17, #5, .T. ) ;
#270 = VECTOR ( 'NONE', #82, 1000.000000000000000 ) ;
#271 = DESIGN_CONTEXT ( 'detailed design', #294, 'design' ) ;
#272 = PRODUCT_DEFINITION_FORMATION_WITH_SPECIFIED_SOURCE ( 'LIBOVOLNÝ', '', #183, .NOT_KNOWN. ) ;
#273 = EDGE_CURVE ( 'NONE', #173, #275, #184, .T. ) ;
#274 = TOROIDAL_SURFACE ( 'NONE', #33, 6.700000000000001066, 0.6999999999999999556 ) ;
#275 = VERTEX_POINT ( 'NONE', #64 ) ;
#276 = DIRECTION ( 'NONE',  ( -0.000000000000000000, -0.000000000000000000, -1.000000000000000000 ) ) ;
#277 = ORIENTED_EDGE ( 'NONE', *, *, #92, .T. ) ;
#278 = APPROVAL_ROLE ( '' ) ;
#279 = DIRECTION ( 'NONE',  ( -1.000000000000000000, 0.000000000000000000, 0.000000000000000000 ) ) ;
#280 = ORIENTED_EDGE ( 'NONE', *, *, #7, .T. ) ;
#281 = CARTESIAN_POINT ( 'NONE',  ( -4.500000000000000000, 0.000000000000000000, 407.0000000000000000 ) ) ;
#282 = CIRCLE ( 'NONE', #98, 6.700000000000001066 ) ;
#283 = CYLINDRICAL_SURFACE ( 'NONE', #261, 6.000000000000000888 ) ;
#284 = EDGE_LOOP ( 'NONE', ( #353, #215, #237, #190 ) ) ;
#285 = CARTESIAN_POINT ( 'NONE',  ( 0.000000000000000000, 0.000000000000000000, 7.000000000000000000 ) ) ;
#286 = ORIENTED_EDGE ( 'NONE', *, *, #90, .F. ) ;
#287 = APPLICATION_PROTOCOL_DEFINITION ( 'international standard', 'config_control_design', 1994, #294 ) ;
#288 = DIRECTION ( 'NONE',  ( 1.000000000000000000, 0.000000000000000000, 0.000000000000000000 ) ) ;
#289 = COORDINATED_UNIVERSAL_TIME_OFFSET ( 1, 0, .AHEAD. ) ;
#290 = FACE_BOUND ( 'NONE', #349, .T. ) ;
#291 = COORDINATED_UNIVERSAL_TIME_OFFSET ( 1, 0, .AHEAD. ) ;
#292 = CARTESIAN_POINT ( 'NONE',  ( 0.000000000000000000, 0.000000000000000000, 7.000000000000000000 ) ) ;
#293 = CIRCLE ( 'NONE', #149, 10.00000000000000000 ) ;
#294 = APPLICATION_CONTEXT ( 'configuration controlled 3d designs of mechanical parts and assemblies' ) ;
#295 = CC_DESIGN_PERSON_AND_ORGANIZATION_ASSIGNMENT ( #204, #350, ( #216 ) ) ;
#296 = EDGE_CURVE ( 'NONE', #275, #128, #306, .T. ) ;
#297 = AXIS2_PLACEMENT_3D ( 'NONE', #37, #308, #288 ) ;
#298 = CYLINDRICAL_SURFACE ( 'NONE', #172, 10.00000000000000000 ) ;
#299 = TOROIDAL_SURFACE ( 'NONE', #6, 6.700000000000001066, 0.6999999999999999556 ) ;
#300 = ADVANCED_FACE ( 'NONE', ( #10 ), #262, .T. ) ;
#301 = AXIS2_PLACEMENT_3D ( 'NONE', #164, #312, #348 ) ;
#302 = LOCAL_TIME ( 16, 26, 20.00000000000000000, #170 ) ;
#303 = EDGE_LOOP ( 'NONE', ( #192, #315 ) ) ;
#304 = DIRECTION ( 'NONE',  ( 0.000000000000000000, 0.000000000000000000, 1.000000000000000000 ) ) ;
#305 = ORIENTED_EDGE ( 'NONE', *, *, #213, .F. ) ;
#306 = LINE ( 'NONE', #161, #330 ) ;
#307 = ORIENTED_EDGE ( 'NONE', *, *, #296, .F. ) ;
#308 = DIRECTION ( 'NONE',  ( 0.000000000000000000, 0.000000000000000000, 1.000000000000000000 ) ) ;
#309 = LOCAL_TIME ( 16, 26, 20.00000000000000000, #12 ) ;
#310 = ORIENTED_EDGE ( 'NONE', *, *, #119, .T. ) ;
#311 = ORGANIZATION ( 'NEURÈENÝ', 'NEURÈENÝ', '' ) ;
#312 = DIRECTION ( 'NONE',  ( 0.000000000000000000, 0.000000000000000000, 1.000000000000000000 ) ) ;
#313 = ORIENTED_EDGE ( 'NONE', *, *, #154, .T. ) ;
#314 = CARTESIAN_POINT ( 'NONE',  ( 0.000000000000000000, 0.000000000000000000, 0.000000000000000000 ) ) ;
#315 = ORIENTED_EDGE ( 'NONE', *, *, #101, .F. ) ;
#316 = DIRECTION ( 'NONE',  ( 0.000000000000000000, 0.000000000000000000, 1.000000000000000000 ) ) ;
#317 = CARTESIAN_POINT ( 'NONE',  ( 4.500000000000000000, 5.510910596163088569E-16, 0.000000000000000000 ) ) ;
#318 = APPROVAL_STATUS ( 'not_yet_approved' ) ;
#319 = AXIS2_PLACEMENT_3D ( 'NONE', #35, #258, #279 ) ;
#320 = DIRECTION ( 'NONE',  ( 1.000000000000000000, 0.000000000000000000, 0.000000000000000000 ) ) ;
#321 = CARTESIAN_POINT ( 'NONE',  ( 0.000000000000000000, 0.000000000000000000, 0.000000000000000000 ) ) ;
#322 = VECTOR ( 'NONE', #2, 1000.000000000000000 ) ;
#323 = EDGE_CURVE ( 'NONE', #245, #363, #374, .T. ) ;
#324 = EDGE_LOOP ( 'NONE', ( #75, #286, #68, #305 ) ) ;
#325 = CARTESIAN_POINT ( 'NONE',  ( 0.000000000000000000, 0.000000000000000000, 0.000000000000000000 ) ) ;
#326 = PERSON_AND_ORGANIZATION_ROLE ( 'classification_officer' ) ;
#327 = AXIS2_PLACEMENT_3D ( 'NONE', #43, #247, #372 ) ;
#328 = ADVANCED_FACE ( 'NONE', ( #369 ), #274, .F. ) ;
#329 = APPROVAL_ROLE ( '' ) ;
#330 = VECTOR ( 'NONE', #276, 1000.000000000000000 ) ;
#331 = CC_DESIGN_PERSON_AND_ORGANIZATION_ASSIGNMENT ( #181, #326, ( #145 ) ) ;
#332 = EDGE_CURVE ( 'NONE', #128, #201, #160, .T. ) ;
#333 = EDGE_LOOP ( 'NONE', ( #100, #123, #44, #310 ) ) ;
#334 = ADVANCED_BREP_SHAPE_REPRESENTATION ( '4730', ( #62, #91 ), #94 ) ;
#335 = DIRECTION ( 'NONE',  ( 1.000000000000000000, 0.000000000000000000, 0.000000000000000000 ) ) ;
#336 = ORIENTED_EDGE ( 'NONE', *, *, #362, .T. ) ;
#337 = ADVANCED_FACE ( 'NONE', ( #70, #193 ), #69, .T. ) ;
#338 = DIRECTION ( 'NONE',  ( 1.000000000000000000, 0.000000000000000000, 0.000000000000000000 ) ) ;
#339 = ORIENTED_EDGE ( 'NONE', *, *, #90, .T. ) ;
#340 = DATE_AND_TIME ( #221, #309 ) ;
#341 = CARTESIAN_POINT ( 'NONE',  ( 0.000000000000000000, 0.000000000000000000, 7.699999999999985079 ) ) ;
#342 = CARTESIAN_POINT ( 'NONE',  ( 10.00000000000000000, 1.224646799147353256E-15, 7.000000000000000000 ) ) ;
#343 =( NAMED_UNIT ( * ) PLANE_ANGLE_UNIT ( ) SI_UNIT ( $, .RADIAN. ) );
#344 = CARTESIAN_POINT ( 'NONE',  ( 0.000000000000000000, 0.000000000000000000, 407.0000000000000000 ) ) ;
#345 = CC_DESIGN_SECURITY_CLASSIFICATION ( #145, ( #272 ) ) ;
#346 = VERTEX_POINT ( 'NONE', #260 ) ;
#347 =( LENGTH_UNIT ( ) NAMED_UNIT ( * ) SI_UNIT ( .MILLI., .METRE. ) );
#348 = DIRECTION ( 'NONE',  ( 1.000000000000000000, 0.000000000000000000, -0.000000000000000000 ) ) ;
#349 = EDGE_LOOP ( 'NONE', ( #125, #36 ) ) ;
#350 = PERSON_AND_ORGANIZATION_ROLE ( 'creator' ) ;
#351 = DIRECTION ( 'NONE',  ( 0.000000000000000000, 0.000000000000000000, 1.000000000000000000 ) ) ;
#352 = CLOSED_SHELL ( 'NONE', ( #188, #328, #254, #71, #150, #175, #79, #300, #337, #48, #263 ) ) ;
#353 = ORIENTED_EDGE ( 'NONE', *, *, #143, .F. ) ;
#354 = CARTESIAN_POINT ( 'NONE',  ( 0.000000000000000000, 0.000000000000000000, 7.699999999999985079 ) ) ;
#355 = EDGE_LOOP ( 'NONE', ( #313, #169 ) ) ;
#356 = LINE ( 'NONE', #210, #270 ) ;
#357 = VERTEX_POINT ( 'NONE', #368 ) ;
#358 = CARTESIAN_POINT ( 'NONE',  ( -10.00000000000000000, 0.000000000000000000, 0.000000000000000000 ) ) ;
#359 = CC_DESIGN_APPROVAL ( #225, ( #272 ) ) ;
#360 = PRODUCT_DEFINITION_SHAPE ( 'NONE', 'NONE',  #216 ) ;
#361 = APPROVAL_PERSON_ORGANIZATION ( #377, #225, #278 ) ;
#362 = EDGE_CURVE ( 'NONE', #370, #38, #14, .T. ) ;
#363 = VERTEX_POINT ( 'NONE', #202 ) ;
#364 = EDGE_LOOP ( 'NONE', ( #41, #103, #339, #15 ) ) ;
#365 = APPROVAL ( #375, 'NEURÈENÝ' ) ;
#366 = DIRECTION ( 'NONE',  ( 1.000000000000000000, 0.000000000000000000, 0.000000000000000000 ) ) ;
#367 = LINE ( 'NONE', #342, #141 ) ;
#368 = CARTESIAN_POINT ( 'NONE',  ( 6.700000000000001066, 0.000000000000000000, 6.999999999999992006 ) ) ;
#369 = FACE_OUTER_BOUND ( 'NONE', #284, .T. ) ;
#370 = VERTEX_POINT ( 'NONE', #195 ) ;
#371 = PERSON_AND_ORGANIZATION_ROLE ( 'creator' ) ;
#372 = DIRECTION ( 'NONE',  ( -1.000000000000000000, 0.000000000000000000, 0.000000000000000000 ) ) ;
#373 = ORIENTED_EDGE ( 'NONE', *, *, #235, .T. ) ;
#374 = LINE ( 'NONE', #108, #243 ) ;
#375 = APPROVAL_STATUS ( 'not_yet_approved' ) ;
#376 = CARTESIAN_POINT ( 'NONE',  ( 10.00000000000000000, 1.224646799147353256E-15, 0.000000000000000000 ) ) ;
#377 = PERSON_AND_ORGANIZATION ( #66, #311 ) ;
#378 = AXIS2_PLACEMENT_3D ( 'NONE', #292, #232, #265 ) ;
#379 = FACE_OUTER_BOUND ( 'NONE', #303, .T. ) ;
#380 = EDGE_CURVE ( 'NONE', #370, #34, #163, .T. ) ;
#381 = FACE_OUTER_BOUND ( 'NONE', #97, .T. ) ;
ENDSEC;
END-ISO-10303-21;
