ISO-10303-21;
HEADER;
FILE_DESCRIPTION (( 'STEP AP203' ),
    '1' );
FILE_NAME ('f022.STEP',
    '2022-07-08T15:51:05',
    ( '' ),
    ( '' ),
    'SwSTEP 2.0',
    'SolidWorks 2019',
    '' );
FILE_SCHEMA (( 'CONFIG_CONTROL_DESIGN' ));
ENDSEC;

DATA;
#1 = CARTESIAN_POINT ( 'NONE',  ( 0.000000000000000000, 0.000000000000000000, 0.000000000000000000 ) ) ;
#2 = ORIENTED_EDGE ( 'NONE', *, *, #302, .F. ) ;
#3 = COORDINATED_UNIVERSAL_TIME_OFFSET ( 1, 0, .AHEAD. ) ;
#4 = CIRCLE ( 'NONE', #222, 4.000000000000000000 ) ;
#5 = PERSON_AND_ORGANIZATION ( #181, #75 ) ;
#6 = FACE_OUTER_BOUND ( 'NONE', #369, .T. ) ;
#7 = CIRCLE ( 'NONE', #19, 4.000000000000000000 ) ;
#8 = APPLICATION_PROTOCOL_DEFINITION ( 'international standard', 'config_control_design', 1994, #113 ) ;
#9 = AXIS2_PLACEMENT_3D ( 'NONE', #54, #120, #273 ) ;
#10 = CARTESIAN_POINT ( 'NONE',  ( 2.299999999999999822, 0.000000000000000000, 3.299999999999997158 ) ) ;
#11 = EDGE_CURVE ( 'NONE', #213, #148, #81, .T. ) ;
#12 = DIRECTION ( 'NONE',  ( 0.000000000000000000, -1.000000000000000000, 0.000000000000000000 ) ) ;
#13 = DATE_TIME_ROLE ( 'classification_date' ) ;
#14 = DIRECTION ( 'NONE',  ( 0.000000000000000000, 0.000000000000000000, 1.000000000000000000 ) ) ;
#15 = PLANE ( 'NONE',  #306 ) ;
#16 = CARTESIAN_POINT ( 'NONE',  ( -2.299999999999999822, 2.816687638038912056E-16, 2.999999999999998668 ) ) ;
#17 = ORIENTED_EDGE ( 'NONE', *, *, #295, .T. ) ;
#18 = ORIENTED_EDGE ( 'NONE', *, *, #100, .F. ) ;
#19 = AXIS2_PLACEMENT_3D ( 'NONE', #68, #221, #154 ) ;
#20 = CARTESIAN_POINT ( 'NONE',  ( 0.000000000000000000, 0.000000000000000000, 103.0000000000000142 ) ) ;
#21 = EDGE_LOOP ( 'NONE', ( #286, #176 ) ) ;
#22 = AXIS2_PLACEMENT_3D ( 'NONE', #55, #110, #322 ) ;
#23 = CARTESIAN_POINT ( 'NONE',  ( 0.000000000000000000, 0.000000000000000000, 103.0000000000000142 ) ) ;
#24 = VERTEX_POINT ( 'NONE', #116 ) ;
#25 = ORIENTED_EDGE ( 'NONE', *, *, #309, .F. ) ;
#26 = ORIENTED_EDGE ( 'NONE', *, *, #341, .T. ) ;
#27 = APPROVAL_PERSON_ORGANIZATION ( #303, #186, #278 ) ;
#28 = DIRECTION ( 'NONE',  ( -1.000000000000000000, 1.224646799147353207E-16, 0.000000000000000000 ) ) ;
#29 = PLANE ( 'NONE',  #147 ) ;
#30 = FACE_OUTER_BOUND ( 'NONE', #143, .T. ) ;
#31 = ORIENTED_EDGE ( 'NONE', *, *, #302, .T. ) ;
#32 = CARTESIAN_POINT ( 'NONE',  ( 0.000000000000000000, 0.000000000000000000, 0.000000000000000000 ) ) ;
#33 = CARTESIAN_POINT ( 'NONE',  ( 2.000000000000000000, 2.449293598294706414E-16, 103.0000000000000142 ) ) ;
#34 = CC_DESIGN_APPROVAL ( #186, ( #260 ) ) ;
#35 = LOCAL_TIME ( 17, 51, 5.000000000000000000, #3 ) ;
#36 = DIRECTION ( 'NONE',  ( 0.000000000000000000, 0.000000000000000000, 1.000000000000000000 ) ) ;
#37 = PERSON_AND_ORGANIZATION_ROLE ( 'design_supplier' ) ;
#38 = EDGE_CURVE ( 'NONE', #89, #301, #324, .T. ) ;
#39 = DIRECTION ( 'NONE',  ( 0.000000000000000000, 0.000000000000000000, -1.000000000000000000 ) ) ;
#40 = APPROVAL_ROLE ( '' ) ;
#41 = CARTESIAN_POINT ( 'NONE',  ( -2.000000000000000000, 0.000000000000000000, 103.0000000000000142 ) ) ;
#42 = DIRECTION ( 'NONE',  ( -0.000000000000000000, -0.000000000000000000, -1.000000000000000000 ) ) ;
#43 = DIRECTION ( 'NONE',  ( 1.000000000000000000, 0.000000000000000000, 0.000000000000000000 ) ) ;
#44 = DIRECTION ( 'NONE',  ( 1.000000000000000000, 0.000000000000000000, 0.000000000000000000 ) ) ;
#45 = CIRCLE ( 'NONE', #180, 2.299999999999999822 ) ;
#46 = ORIENTED_EDGE ( 'NONE', *, *, #71, .T. ) ;
#47 = PRODUCT_RELATED_PRODUCT_CATEGORY ( 'detail', '', ( #118 ) ) ;
#48 = FACE_OUTER_BOUND ( 'NONE', #179, .T. ) ;
#49 = FACE_BOUND ( 'NONE', #348, .T. ) ;
#50 = EDGE_LOOP ( 'NONE', ( #274, #292, #355, #2 ) ) ;
#51 = ORIENTED_EDGE ( 'NONE', *, *, #122, .F. ) ;
#52 = VECTOR ( 'NONE', #345, 1000.000000000000000 ) ;
#53 = ORIENTED_EDGE ( 'NONE', *, *, #78, .T. ) ;
#54 = CARTESIAN_POINT ( 'NONE',  ( 0.000000000000000000, 0.000000000000000000, 3.000000000000000000 ) ) ;
#55 = CARTESIAN_POINT ( 'NONE',  ( 0.000000000000000000, 0.000000000000000000, 103.0000000000000142 ) ) ;
#56 = VERTEX_POINT ( 'NONE', #121 ) ;
#57 =( GEOMETRIC_REPRESENTATION_CONTEXT ( 3 ) GLOBAL_UNCERTAINTY_ASSIGNED_CONTEXT ( ( #291 ) ) GLOBAL_UNIT_ASSIGNED_CONTEXT ( ( #112, #84, #173 ) ) REPRESENTATION_CONTEXT ( 'NONE', 'WORKASPACE' ) );
#58 = CARTESIAN_POINT ( 'NONE',  ( 4.000000000000000000, 4.898587196589412829E-16, 3.000000000000000000 ) ) ;
#59 = VERTEX_POINT ( 'NONE', #241 ) ;
#60 = PERSON_AND_ORGANIZATION_ROLE ( 'creator' ) ;
#61 = CC_DESIGN_PERSON_AND_ORGANIZATION_ASSIGNMENT ( #218, #60, ( #91 ) ) ;
#62 = APPROVAL ( #138, 'NEURÈENÝ' ) ;
#63 = AXIS2_PLACEMENT_3D ( 'NONE', #135, #371, #43 ) ;
#64 = DATE_AND_TIME ( #223, #159 ) ;
#65 = ADVANCED_FACE ( 'NONE', ( #243, #299 ), #29, .T. ) ;
#66 = CARTESIAN_POINT ( 'NONE',  ( 0.000000000000000000, 0.000000000000000000, 3.000000000000000000 ) ) ;
#67 = PERSON_AND_ORGANIZATION ( #181, #75 ) ;
#68 = CARTESIAN_POINT ( 'NONE',  ( 0.000000000000000000, 0.000000000000000000, 3.000000000000000000 ) ) ;
#69 = CIRCLE ( 'NONE', #315, 2.000000000000000000 ) ;
#70 = DIRECTION ( 'NONE',  ( 0.000000000000000000, 0.000000000000000000, 1.000000000000000000 ) ) ;
#71 = EDGE_CURVE ( 'NONE', #89, #317, #203, .T. ) ;
#72 = VECTOR ( 'NONE', #226, 1000.000000000000000 ) ;
#73 = SHAPE_DEFINITION_REPRESENTATION ( #325, #336 ) ;
#74 = CYLINDRICAL_SURFACE ( 'NONE', #239, 2.000000000000000000 ) ;
#75 = ORGANIZATION ( 'NEURÈENÝ', 'NEURÈENÝ', '' ) ;
#76 = VERTEX_POINT ( 'NONE', #182 ) ;
#77 = DATE_AND_TIME ( #370, #298 ) ;
#78 = EDGE_CURVE ( 'NONE', #59, #148, #183, .T. ) ;
#79 = ORIENTED_EDGE ( 'NONE', *, *, #107, .F. ) ;
#80 = CARTESIAN_POINT ( 'NONE',  ( -2.299999999999999822, 2.816687638038912056E-16, 3.299999999999997158 ) ) ;
#81 = CIRCLE ( 'NONE', #312, 2.299999999999999822 ) ;
#82 = APPLICATION_CONTEXT ( 'configuration controlled 3d designs of mechanical parts and assemblies' ) ;
#83 = ORIENTED_EDGE ( 'NONE', *, *, #341, .F. ) ;
#84 =( NAMED_UNIT ( * ) PLANE_ANGLE_UNIT ( ) SI_UNIT ( $, .RADIAN. ) );
#85 = VERTEX_POINT ( 'NONE', #33 ) ;
#86 = CIRCLE ( 'NONE', #117, 1.100000000000000089 ) ;
#87 = CARTESIAN_POINT ( 'NONE',  ( 2.000000000000000000, 2.449293598294706414E-16, 103.0000000000000142 ) ) ;
#88 = ORIENTED_EDGE ( 'NONE', *, *, #38, .T. ) ;
#89 = VERTEX_POINT ( 'NONE', #358 ) ;
#90 = AXIS2_PLACEMENT_3D ( 'NONE', #365, #196, #101 ) ;
#91 = PRODUCT_DEFINITION ( 'NEZNÁMÝ', '', #260, #256 ) ;
#92 = ORIENTED_EDGE ( 'NONE', *, *, #164, .T. ) ;
#93 = DIRECTION ( 'NONE',  ( -1.000000000000000000, 0.000000000000000000, 0.000000000000000000 ) ) ;
#94 = EDGE_CURVE ( 'NONE', #317, #89, #7, .T. ) ;
#95 = CIRCLE ( 'NONE', #289, 0.2999999999999999334 ) ;
#96 = LINE ( 'NONE', #360, #72 ) ;
#97 = CARTESIAN_POINT ( 'NONE',  ( 0.000000000000000000, 0.000000000000000000, 3.000000000000000000 ) ) ;
#98 = DATE_AND_TIME ( #102, #185 ) ;
#99 = AXIS2_PLACEMENT_3D ( 'NONE', #340, #337, #287 ) ;
#100 = EDGE_CURVE ( 'NONE', #76, #59, #326, .T. ) ;
#101 = DIRECTION ( 'NONE',  ( 1.000000000000000000, 0.000000000000000000, 0.000000000000000000 ) ) ;
#102 = CALENDAR_DATE ( 2022, 8, 7 ) ;
#103 = CARTESIAN_POINT ( 'NONE',  ( 0.000000000000000000, 0.000000000000000000, 103.0000000000000142 ) ) ;
#104 = APPROVAL_ROLE ( '' ) ;
#105 = FACE_OUTER_BOUND ( 'NONE', #311, .T. ) ;
#106 = EDGE_LOOP ( 'NONE', ( #353, #206, #372, #166 ) ) ;
#107 = EDGE_CURVE ( 'NONE', #231, #56, #359, .T. ) ;
#108 = DIRECTION ( 'NONE',  ( 1.000000000000000000, 0.000000000000000000, 0.000000000000000000 ) ) ;
#109 = VERTEX_POINT ( 'NONE', #132 ) ;
#110 = DIRECTION ( 'NONE',  ( 0.000000000000000000, 0.000000000000000000, -1.000000000000000000 ) ) ;
#111 = ORIENTED_EDGE ( 'NONE', *, *, #230, .F. ) ;
#112 =( LENGTH_UNIT ( ) NAMED_UNIT ( * ) SI_UNIT ( .MILLI., .METRE. ) );
#113 = APPLICATION_CONTEXT ( 'configuration controlled 3d designs of mechanical parts and assemblies' ) ;
#114 = LINE ( 'NONE', #328, #279 ) ;
#115 = CC_DESIGN_PERSON_AND_ORGANIZATION_ASSIGNMENT ( #187, #130, ( #260 ) ) ;
#116 = CARTESIAN_POINT ( 'NONE',  ( -1.100000000000000089, 0.000000000000000000, 0.000000000000000000 ) ) ;
#117 = AXIS2_PLACEMENT_3D ( 'NONE', #171, #296, #244 ) ;
#118 = PRODUCT ( 'f022', 'f022', '', ( #249 ) ) ;
#119 = VERTEX_POINT ( 'NONE', #41 ) ;
#120 = DIRECTION ( 'NONE',  ( -0.000000000000000000, -0.000000000000000000, -1.000000000000000000 ) ) ;
#121 = CARTESIAN_POINT ( 'NONE',  ( 1.100000000000000089, 1.347111479062088503E-16, 103.0000000000000142 ) ) ;
#122 = EDGE_CURVE ( 'NONE', #317, #236, #96, .T. ) ;
#123 = CALENDAR_DATE ( 2022, 8, 7 ) ;
#124 = ORIENTED_EDGE ( 'NONE', *, *, #100, .T. ) ;
#125 = CYLINDRICAL_SURFACE ( 'NONE', #245, 1.100000000000000089 ) ;
#126 = PERSON_AND_ORGANIZATION_ROLE ( 'design_owner' ) ;
#127 = ADVANCED_FACE ( 'NONE', ( #258 ), #125, .F. ) ;
#128 = DIRECTION ( 'NONE',  ( 1.000000000000000000, 0.000000000000000000, 0.000000000000000000 ) ) ;
#129 = VECTOR ( 'NONE', #272, 1000.000000000000000 ) ;
#130 = PERSON_AND_ORGANIZATION_ROLE ( 'creator' ) ;
#131 = CC_DESIGN_APPROVAL ( #62, ( #199 ) ) ;
#132 = CARTESIAN_POINT ( 'NONE',  ( 1.100000000000000089, 1.347111479062088503E-16, 0.000000000000000000 ) ) ;
#133 = PERSON_AND_ORGANIZATION ( #181, #75 ) ;
#134 = APPROVAL ( #155, 'NEURÈENÝ' ) ;
#135 = CARTESIAN_POINT ( 'NONE',  ( 0.000000000000000000, 0.000000000000000000, 3.299999999999997158 ) ) ;
#136 = CIRCLE ( 'NONE', #255, 1.100000000000000089 ) ;
#137 = DIRECTION ( 'NONE',  ( 1.000000000000000000, 0.000000000000000000, -0.000000000000000000 ) ) ;
#138 = APPROVAL_STATUS ( 'not_yet_approved' ) ;
#139 = ADVANCED_FACE ( 'NONE', ( #6 ), #250, .T. ) ;
#140 = CARTESIAN_POINT ( 'NONE',  ( 2.299999999999999822, 0.000000000000000000, 2.999999999999998668 ) ) ;
#141 = CC_DESIGN_PERSON_AND_ORGANIZATION_ASSIGNMENT ( #233, #259, ( #199 ) ) ;
#142 = CARTESIAN_POINT ( 'NONE',  ( 0.000000000000000000, 0.000000000000000000, 0.000000000000000000 ) ) ;
#143 = EDGE_LOOP ( 'NONE', ( #351, #197, #31, #144 ) ) ;
#144 = ORIENTED_EDGE ( 'NONE', *, *, #354, .T. ) ;
#145 = ADVANCED_FACE ( 'NONE', ( #251, #169 ), #15, .T. ) ;
#146 = CARTESIAN_POINT ( 'NONE',  ( -4.000000000000000000, 0.000000000000000000, 0.000000000000000000 ) ) ;
#147 = AXIS2_PLACEMENT_3D ( 'NONE', #331, #304, #254 ) ;
#148 = VERTEX_POINT ( 'NONE', #140 ) ;
#149 = CARTESIAN_POINT ( 'NONE',  ( -4.000000000000000000, 0.000000000000000000, 3.000000000000000000 ) ) ;
#150 = CARTESIAN_POINT ( 'NONE',  ( 1.100000000000000089, 1.347111479062088503E-16, 103.0000000000000142 ) ) ;
#151 = ADVANCED_FACE ( 'NONE', ( #368 ), #193, .T. ) ;
#152 = DIRECTION ( 'NONE',  ( 1.000000000000000000, 0.000000000000000000, 0.000000000000000000 ) ) ;
#153 = CARTESIAN_POINT ( 'NONE',  ( 0.000000000000000000, 0.000000000000000000, 3.299999999999997158 ) ) ;
#154 = DIRECTION ( 'NONE',  ( 1.000000000000000000, 0.000000000000000000, 0.000000000000000000 ) ) ;
#155 = APPROVAL_STATUS ( 'not_yet_approved' ) ;
#156 = DIRECTION ( 'NONE',  ( 0.000000000000000000, 0.000000000000000000, 1.000000000000000000 ) ) ;
#157 = AXIS2_PLACEMENT_3D ( 'NONE', #153, #156, #362 ) ;
#158 = SECURITY_CLASSIFICATION_LEVEL ( 'unclassified' ) ;
#159 = LOCAL_TIME ( 17, 51, 5.000000000000000000, #220 ) ;
#160 = CC_DESIGN_PERSON_AND_ORGANIZATION_ASSIGNMENT ( #5, #126, ( #118 ) ) ;
#161 = COORDINATED_UNIVERSAL_TIME_OFFSET ( 1, 0, .AHEAD. ) ;
#162 = CARTESIAN_POINT ( 'NONE',  ( 0.000000000000000000, 0.000000000000000000, 3.000000000000000000 ) ) ;
#163 = CARTESIAN_POINT ( 'NONE',  ( 4.000000000000000000, 4.898587196589412829E-16, 0.000000000000000000 ) ) ;
#164 = EDGE_CURVE ( 'NONE', #59, #76, #277, .T. ) ;
#165 = CARTESIAN_POINT ( 'NONE',  ( 0.000000000000000000, 0.000000000000000000, 103.0000000000000142 ) ) ;
#166 = ORIENTED_EDGE ( 'NONE', *, *, #38, .F. ) ;
#167 = CARTESIAN_POINT ( 'NONE',  ( 0.000000000000000000, 0.000000000000000000, 0.000000000000000000 ) ) ;
#168 = ORIENTED_EDGE ( 'NONE', *, *, #295, .F. ) ;
#169 = FACE_OUTER_BOUND ( 'NONE', #229, .T. ) ;
#170 = ORIENTED_EDGE ( 'NONE', *, *, #177, .F. ) ;
#171 = CARTESIAN_POINT ( 'NONE',  ( 0.000000000000000000, 0.000000000000000000, 0.000000000000000000 ) ) ;
#172 = VECTOR ( 'NONE', #209, 1000.000000000000000 ) ;
#173 =( NAMED_UNIT ( * ) SI_UNIT ( $, .STERADIAN. ) SOLID_ANGLE_UNIT ( ) );
#174 = EDGE_LOOP ( 'NONE', ( #46, #217 ) ) ;
#175 = CARTESIAN_POINT ( 'NONE',  ( -2.000000000000000000, 0.000000000000000000, 103.0000000000000142 ) ) ;
#176 = ORIENTED_EDGE ( 'NONE', *, *, #11, .T. ) ;
#177 = EDGE_CURVE ( 'NONE', #301, #236, #4, .T. ) ;
#178 = AXIS2_PLACEMENT_3D ( 'NONE', #97, #219, #332 ) ;
#179 = EDGE_LOOP ( 'NONE', ( #170, #111 ) ) ;
#180 = AXIS2_PLACEMENT_3D ( 'NONE', #162, #282, #108 ) ;
#181 = PERSON ( 'NEURÈENÝ', 'NEURÈENÝ', 'NEURÈENÝ', ('NEURÈENÝ'), ('NEURÈENÝ'), ('NEURÈENÝ') ) ;
#182 = CARTESIAN_POINT ( 'NONE',  ( -2.000000000000000000, 0.000000000000000000, 3.299999999999997158 ) ) ;
#183 = CIRCLE ( 'NONE', #252, 0.2999999999999999334 ) ;
#184 = CALENDAR_DATE ( 2022, 8, 7 ) ;
#185 = LOCAL_TIME ( 17, 51, 5.000000000000000000, #339 ) ;
#186 = APPROVAL ( #188, 'NEURÈENÝ' ) ;
#187 = PERSON_AND_ORGANIZATION ( #181, #75 ) ;
#188 = APPROVAL_STATUS ( 'not_yet_approved' ) ;
#189 = CARTESIAN_POINT ( 'NONE',  ( 0.000000000000000000, 0.000000000000000000, 103.0000000000000142 ) ) ;
#190 = EDGE_CURVE ( 'NONE', #85, #119, #192, .T. ) ;
#191 = DIRECTION ( 'NONE',  ( 1.000000000000000000, 0.000000000000000000, 0.000000000000000000 ) ) ;
#192 = CIRCLE ( 'NONE', #334, 2.000000000000000000 ) ;
#193 = CYLINDRICAL_SURFACE ( 'NONE', #343, 2.000000000000000000 ) ;
#194 = DIRECTION ( 'NONE',  ( 0.000000000000000000, 0.000000000000000000, 1.000000000000000000 ) ) ;
#195 = AXIS2_PLACEMENT_3D ( 'NONE', #189, #335, #191 ) ;
#196 = DIRECTION ( 'NONE',  ( 0.000000000000000000, 0.000000000000000000, 1.000000000000000000 ) ) ;
#197 = ORIENTED_EDGE ( 'NONE', *, *, #225, .T. ) ;
#198 = CC_DESIGN_PERSON_AND_ORGANIZATION_ASSIGNMENT ( #253, #37, ( #260 ) ) ;
#199 = SECURITY_CLASSIFICATION ( '', '', #158 ) ;
#200 = DIRECTION ( 'NONE',  ( 1.000000000000000000, 0.000000000000000000, -0.000000000000000000 ) ) ;
#201 = CARTESIAN_POINT ( 'NONE',  ( 0.000000000000000000, 0.000000000000000000, 103.0000000000000142 ) ) ;
#202 = ORIENTED_EDGE ( 'NONE', *, *, #266, .F. ) ;
#203 = CIRCLE ( 'NONE', #347, 4.000000000000000000 ) ;
#204 = DIRECTION ( 'NONE',  ( 1.000000000000000000, 0.000000000000000000, 0.000000000000000000 ) ) ;
#205 = ADVANCED_FACE ( 'NONE', ( #49, #48 ), #281, .F. ) ;
#206 = ORIENTED_EDGE ( 'NONE', *, *, #122, .T. ) ;
#207 = CIRCLE ( 'NONE', #90, 4.000000000000000000 ) ;
#208 = CC_DESIGN_DATE_AND_TIME_ASSIGNMENT ( #98, #13, ( #199 ) ) ;
#209 = DIRECTION ( 'NONE',  ( -0.000000000000000000, -0.000000000000000000, -1.000000000000000000 ) ) ;
#210 = MANIFOLD_SOLID_BREP ( 'Odebrat vysunutím3', #264 ) ;
#211 = ADVANCED_FACE ( 'NONE', ( #265 ), #74, .T. ) ;
#212 = LINE ( 'NONE', #87, #172 ) ;
#213 = VERTEX_POINT ( 'NONE', #16 ) ;
#214 = LINE ( 'NONE', #150, #227 ) ;
#215 = ORIENTED_EDGE ( 'NONE', *, *, #177, .T. ) ;
#216 = DATE_AND_TIME ( #184, #338 ) ;
#217 = ORIENTED_EDGE ( 'NONE', *, *, #94, .T. ) ;
#218 = PERSON_AND_ORGANIZATION ( #181, #75 ) ;
#219 = DIRECTION ( 'NONE',  ( -0.000000000000000000, -0.000000000000000000, -1.000000000000000000 ) ) ;
#220 = COORDINATED_UNIVERSAL_TIME_OFFSET ( 1, 0, .AHEAD. ) ;
#221 = DIRECTION ( 'NONE',  ( 0.000000000000000000, 0.000000000000000000, 1.000000000000000000 ) ) ;
#222 = AXIS2_PLACEMENT_3D ( 'NONE', #142, #70, #267 ) ;
#223 = CALENDAR_DATE ( 2022, 8, 7 ) ;
#224 = CARTESIAN_POINT ( 'NONE',  ( 0.000000000000000000, 0.000000000000000000, 103.0000000000000142 ) ) ;
#225 = EDGE_CURVE ( 'NONE', #56, #231, #136, .T. ) ;
#226 = DIRECTION ( 'NONE',  ( -0.000000000000000000, -0.000000000000000000, -1.000000000000000000 ) ) ;
#227 = VECTOR ( 'NONE', #350, 1000.000000000000000 ) ;
#228 = DIRECTION ( 'NONE',  ( 0.000000000000000000, 0.000000000000000000, 1.000000000000000000 ) ) ;
#229 = EDGE_LOOP ( 'NONE', ( #314, #375 ) ) ;
#230 = EDGE_CURVE ( 'NONE', #236, #301, #207, .T. ) ;
#231 = VERTEX_POINT ( 'NONE', #313 ) ;
#232 = CC_DESIGN_APPROVAL ( #134, ( #91 ) ) ;
#233 = PERSON_AND_ORGANIZATION ( #181, #75 ) ;
#234 = FACE_OUTER_BOUND ( 'NONE', #376, .T. ) ;
#235 = EDGE_LOOP ( 'NONE', ( #288, #26, #92, #346 ) ) ;
#236 = VERTEX_POINT ( 'NONE', #163 ) ;
#237 = CYLINDRICAL_SURFACE ( 'NONE', #22, 1.100000000000000089 ) ;
#238 = ORIENTED_EDGE ( 'NONE', *, *, #354, .F. ) ;
#239 = AXIS2_PLACEMENT_3D ( 'NONE', #308, #367, #284 ) ;
#240 = CARTESIAN_POINT ( 'NONE',  ( 0.000000000000000000, 0.000000000000000000, 3.299999999999997158 ) ) ;
#241 = CARTESIAN_POINT ( 'NONE',  ( 2.000000000000000000, 2.449293598294706414E-16, 3.299999999999997158 ) ) ;
#242 = ADVANCED_FACE ( 'NONE', ( #105 ), #248, .F. ) ;
#243 = FACE_BOUND ( 'NONE', #21, .T. ) ;
#244 = DIRECTION ( 'NONE',  ( 1.000000000000000000, 0.000000000000000000, 0.000000000000000000 ) ) ;
#245 = AXIS2_PLACEMENT_3D ( 'NONE', #224, #364, #93 ) ;
#246 = DATE_AND_TIME ( #123, #35 ) ;
#247 = EDGE_LOOP ( 'NONE', ( #83, #269, #344, #124 ) ) ;
#248 = TOROIDAL_SURFACE ( 'NONE', #63, 2.299999999999999822, 0.2999999999999999889 ) ;
#249 = MECHANICAL_CONTEXT ( 'NONE', #113, 'mechanical' ) ;
#250 = CYLINDRICAL_SURFACE ( 'NONE', #178, 4.000000000000000000 ) ;
#251 = FACE_BOUND ( 'NONE', #294, .T. ) ;
#252 = AXIS2_PLACEMENT_3D ( 'NONE', #10, #12, #39 ) ;
#253 = PERSON_AND_ORGANIZATION ( #181, #75 ) ;
#254 = DIRECTION ( 'NONE',  ( 1.000000000000000000, 0.000000000000000000, -0.000000000000000000 ) ) ;
#255 = AXIS2_PLACEMENT_3D ( 'NONE', #201, #228, #310 ) ;
#256 = DESIGN_CONTEXT ( 'detailed design', #82, 'design' ) ;
#257 = APPLICATION_PROTOCOL_DEFINITION ( 'international standard', 'config_control_design', 1994, #82 ) ;
#258 = FACE_OUTER_BOUND ( 'NONE', #50, .T. ) ;
#259 = PERSON_AND_ORGANIZATION_ROLE ( 'classification_officer' ) ;
#260 = PRODUCT_DEFINITION_FORMATION_WITH_SPECIFIED_SOURCE ( 'LIBOVOLNÝ', '', #118, .NOT_KNOWN. ) ;
#261 = CC_DESIGN_DATE_AND_TIME_ASSIGNMENT ( #216, #330, ( #91 ) ) ;
#262 = APPROVAL_DATE_TIME ( #77, #62 ) ;
#263 = ORIENTED_EDGE ( 'NONE', *, *, #11, .F. ) ;
#264 = CLOSED_SHELL ( 'NONE', ( #127, #285, #211, #323, #139, #65, #205, #151, #145, #242, #333 ) ) ;
#265 = FACE_OUTER_BOUND ( 'NONE', #235, .T. ) ;
#266 = EDGE_CURVE ( 'NONE', #148, #213, #45, .T. ) ;
#267 = DIRECTION ( 'NONE',  ( 1.000000000000000000, 0.000000000000000000, 0.000000000000000000 ) ) ;
#268 = DIRECTION ( 'NONE',  ( 1.000000000000000000, 0.000000000000000000, 0.000000000000000000 ) ) ;
#269 = ORIENTED_EDGE ( 'NONE', *, *, #363, .F. ) ;
#270 = DIRECTION ( 'NONE',  ( -0.000000000000000000, -0.000000000000000000, -1.000000000000000000 ) ) ;
#271 = DIRECTION ( 'NONE',  ( 1.000000000000000000, 0.000000000000000000, 0.000000000000000000 ) ) ;
#272 = DIRECTION ( 'NONE',  ( -0.000000000000000000, -0.000000000000000000, -1.000000000000000000 ) ) ;
#273 = DIRECTION ( 'NONE',  ( -1.000000000000000000, 0.000000000000000000, 0.000000000000000000 ) ) ;
#274 = ORIENTED_EDGE ( 'NONE', *, *, #107, .T. ) ;
#275 = LINE ( 'NONE', #175, #52 ) ;
#276 = ORIENTED_EDGE ( 'NONE', *, *, #78, .F. ) ;
#277 = CIRCLE ( 'NONE', #99, 2.000000000000000000 ) ;
#278 = APPROVAL_ROLE ( '' ) ;
#279 = VECTOR ( 'NONE', #377, 1000.000000000000000 ) ;
#280 = DIRECTION ( 'NONE',  ( 0.000000000000000000, 0.000000000000000000, 1.000000000000000000 ) ) ;
#281 = PLANE ( 'NONE',  #379 ) ;
#282 = DIRECTION ( 'NONE',  ( -0.000000000000000000, -0.000000000000000000, -1.000000000000000000 ) ) ;
#283 = TOROIDAL_SURFACE ( 'NONE', #366, 2.299999999999999822, 0.2999999999999999889 ) ;
#284 = DIRECTION ( 'NONE',  ( -1.000000000000000000, 0.000000000000000000, 0.000000000000000000 ) ) ;
#285 = ADVANCED_FACE ( 'NONE', ( #234 ), #283, .F. ) ;
#286 = ORIENTED_EDGE ( 'NONE', *, *, #266, .T. ) ;
#287 = DIRECTION ( 'NONE',  ( 1.000000000000000000, 0.000000000000000000, 0.000000000000000000 ) ) ;
#288 = ORIENTED_EDGE ( 'NONE', *, *, #190, .F. ) ;
#289 = AXIS2_PLACEMENT_3D ( 'NONE', #80, #352, #28 ) ;
#290 = DIRECTION ( 'NONE',  ( -0.000000000000000000, -0.000000000000000000, -1.000000000000000000 ) ) ;
#291 = UNCERTAINTY_MEASURE_WITH_UNIT (LENGTH_MEASURE( 1.000000000000000082E-05 ), #112, 'distance_accuracy_value', 'NONE');
#292 = ORIENTED_EDGE ( 'NONE', *, *, #316, .T. ) ;
#293 = CYLINDRICAL_SURFACE ( 'NONE', #9, 4.000000000000000000 ) ;
#294 = EDGE_LOOP ( 'NONE', ( #79, #297 ) ) ;
#295 = EDGE_CURVE ( 'NONE', #76, #213, #95, .T. ) ;
#296 = DIRECTION ( 'NONE',  ( -0.000000000000000000, -0.000000000000000000, -1.000000000000000000 ) ) ;
#297 = ORIENTED_EDGE ( 'NONE', *, *, #225, .F. ) ;
#298 = LOCAL_TIME ( 17, 51, 5.000000000000000000, #161 ) ;
#299 = FACE_OUTER_BOUND ( 'NONE', #174, .T. ) ;
#300 = FACE_OUTER_BOUND ( 'NONE', #106, .T. ) ;
#301 = VERTEX_POINT ( 'NONE', #146 ) ;
#302 = EDGE_CURVE ( 'NONE', #231, #24, #114, .T. ) ;
#303 = PERSON_AND_ORGANIZATION ( #181, #75 ) ;
#304 = DIRECTION ( 'NONE',  ( 0.000000000000000000, 0.000000000000000000, 1.000000000000000000 ) ) ;
#305 = APPROVAL_DATE_TIME ( #64, #186 ) ;
#306 = AXIS2_PLACEMENT_3D ( 'NONE', #20, #14, #200 ) ;
#307 = AXIS2_PLACEMENT_3D ( 'NONE', #32, #36, #152 ) ;
#308 = CARTESIAN_POINT ( 'NONE',  ( 0.000000000000000000, 0.000000000000000000, 103.0000000000000142 ) ) ;
#309 = EDGE_CURVE ( 'NONE', #109, #24, #86, .T. ) ;
#310 = DIRECTION ( 'NONE',  ( 1.000000000000000000, 0.000000000000000000, 0.000000000000000000 ) ) ;
#311 = EDGE_LOOP ( 'NONE', ( #168, #320, #53, #263 ) ) ;
#312 = AXIS2_PLACEMENT_3D ( 'NONE', #381, #270, #378 ) ;
#313 = CARTESIAN_POINT ( 'NONE',  ( -1.100000000000000089, 0.000000000000000000, 103.0000000000000142 ) ) ;
#314 = ORIENTED_EDGE ( 'NONE', *, *, #363, .T. ) ;
#315 = AXIS2_PLACEMENT_3D ( 'NONE', #23, #380, #268 ) ;
#316 = EDGE_CURVE ( 'NONE', #56, #109, #214, .T. ) ;
#317 = VERTEX_POINT ( 'NONE', #58 ) ;
#318 = ORIENTED_EDGE ( 'NONE', *, *, #71, .F. ) ;
#319 = DIRECTION ( 'NONE',  ( 0.000000000000000000, 0.000000000000000000, 1.000000000000000000 ) ) ;
#320 = ORIENTED_EDGE ( 'NONE', *, *, #164, .F. ) ;
#321 = CIRCLE ( 'NONE', #349, 1.100000000000000089 ) ;
#322 = DIRECTION ( 'NONE',  ( -1.000000000000000000, 0.000000000000000000, 0.000000000000000000 ) ) ;
#323 = ADVANCED_FACE ( 'NONE', ( #300 ), #293, .T. ) ;
#324 = LINE ( 'NONE', #149, #129 ) ;
#325 = PRODUCT_DEFINITION_SHAPE ( 'NONE', 'NONE',  #91 ) ;
#326 = CIRCLE ( 'NONE', #157, 2.000000000000000000 ) ;
#327 = APPROVAL_PERSON_ORGANIZATION ( #133, #62, #104 ) ;
#328 = CARTESIAN_POINT ( 'NONE',  ( -1.100000000000000089, 0.000000000000000000, 103.0000000000000142 ) ) ;
#329 = EDGE_CURVE ( 'NONE', #119, #76, #275, .T. ) ;
#330 = DATE_TIME_ROLE ( 'creation_date' ) ;
#331 = CARTESIAN_POINT ( 'NONE',  ( 0.000000000000000000, 0.000000000000000000, 3.000000000000000000 ) ) ;
#332 = DIRECTION ( 'NONE',  ( -1.000000000000000000, 0.000000000000000000, 0.000000000000000000 ) ) ;
#333 = ADVANCED_FACE ( 'NONE', ( #30 ), #237, .F. ) ;
#334 = AXIS2_PLACEMENT_3D ( 'NONE', #165, #374, #44 ) ;
#335 = DIRECTION ( 'NONE',  ( 0.000000000000000000, 0.000000000000000000, 1.000000000000000000 ) ) ;
#336 = ADVANCED_BREP_SHAPE_REPRESENTATION ( 'f022', ( #210, #307 ), #57 ) ;
#337 = DIRECTION ( 'NONE',  ( 0.000000000000000000, 0.000000000000000000, 1.000000000000000000 ) ) ;
#338 = LOCAL_TIME ( 17, 51, 5.000000000000000000, #356 ) ;
#339 = COORDINATED_UNIVERSAL_TIME_OFFSET ( 1, 0, .AHEAD. ) ;
#340 = CARTESIAN_POINT ( 'NONE',  ( 0.000000000000000000, 0.000000000000000000, 3.299999999999997158 ) ) ;
#341 = EDGE_CURVE ( 'NONE', #85, #59, #212, .T. ) ;
#342 = DIRECTION ( 'NONE',  ( -1.000000000000000000, 0.000000000000000000, 0.000000000000000000 ) ) ;
#343 = AXIS2_PLACEMENT_3D ( 'NONE', #103, #42, #342 ) ;
#344 = ORIENTED_EDGE ( 'NONE', *, *, #329, .T. ) ;
#345 = DIRECTION ( 'NONE',  ( -0.000000000000000000, -0.000000000000000000, -1.000000000000000000 ) ) ;
#346 = ORIENTED_EDGE ( 'NONE', *, *, #329, .F. ) ;
#347 = AXIS2_PLACEMENT_3D ( 'NONE', #66, #280, #128 ) ;
#348 = EDGE_LOOP ( 'NONE', ( #238, #25 ) ) ;
#349 = AXIS2_PLACEMENT_3D ( 'NONE', #1, #290, #271 ) ;
#350 = DIRECTION ( 'NONE',  ( 0.000000000000000000, 0.000000000000000000, -1.000000000000000000 ) ) ;
#351 = ORIENTED_EDGE ( 'NONE', *, *, #316, .F. ) ;
#352 = DIRECTION ( 'NONE',  ( 1.224646799147353207E-16, 1.000000000000000000, -0.000000000000000000 ) ) ;
#353 = ORIENTED_EDGE ( 'NONE', *, *, #94, .F. ) ;
#354 = EDGE_CURVE ( 'NONE', #24, #109, #321, .T. ) ;
#355 = ORIENTED_EDGE ( 'NONE', *, *, #309, .T. ) ;
#356 = COORDINATED_UNIVERSAL_TIME_OFFSET ( 1, 0, .AHEAD. ) ;
#357 = APPROVAL_DATE_TIME ( #246, #134 ) ;
#358 = CARTESIAN_POINT ( 'NONE',  ( -4.000000000000000000, 0.000000000000000000, 3.000000000000000000 ) ) ;
#359 = CIRCLE ( 'NONE', #195, 1.100000000000000089 ) ;
#360 = CARTESIAN_POINT ( 'NONE',  ( 4.000000000000000000, 4.898587196589412829E-16, 3.000000000000000000 ) ) ;
#361 = APPROVAL_PERSON_ORGANIZATION ( #67, #134, #40 ) ;
#362 = DIRECTION ( 'NONE',  ( 1.000000000000000000, 0.000000000000000000, 0.000000000000000000 ) ) ;
#363 = EDGE_CURVE ( 'NONE', #119, #85, #69, .T. ) ;
#364 = DIRECTION ( 'NONE',  ( 0.000000000000000000, 0.000000000000000000, -1.000000000000000000 ) ) ;
#365 = CARTESIAN_POINT ( 'NONE',  ( 0.000000000000000000, 0.000000000000000000, 0.000000000000000000 ) ) ;
#366 = AXIS2_PLACEMENT_3D ( 'NONE', #240, #319, #204 ) ;
#367 = DIRECTION ( 'NONE',  ( -0.000000000000000000, -0.000000000000000000, -1.000000000000000000 ) ) ;
#368 = FACE_OUTER_BOUND ( 'NONE', #247, .T. ) ;
#369 = EDGE_LOOP ( 'NONE', ( #51, #318, #88, #215 ) ) ;
#370 = CALENDAR_DATE ( 2022, 8, 7 ) ;
#371 = DIRECTION ( 'NONE',  ( 0.000000000000000000, 0.000000000000000000, 1.000000000000000000 ) ) ;
#372 = ORIENTED_EDGE ( 'NONE', *, *, #230, .T. ) ;
#373 = CC_DESIGN_SECURITY_CLASSIFICATION ( #199, ( #260 ) ) ;
#374 = DIRECTION ( 'NONE',  ( 0.000000000000000000, 0.000000000000000000, 1.000000000000000000 ) ) ;
#375 = ORIENTED_EDGE ( 'NONE', *, *, #190, .T. ) ;
#376 = EDGE_LOOP ( 'NONE', ( #18, #17, #202, #276 ) ) ;
#377 = DIRECTION ( 'NONE',  ( 0.000000000000000000, 0.000000000000000000, -1.000000000000000000 ) ) ;
#378 = DIRECTION ( 'NONE',  ( 1.000000000000000000, 0.000000000000000000, 0.000000000000000000 ) ) ;
#379 = AXIS2_PLACEMENT_3D ( 'NONE', #167, #194, #137 ) ;
#380 = DIRECTION ( 'NONE',  ( 0.000000000000000000, 0.000000000000000000, 1.000000000000000000 ) ) ;
#381 = CARTESIAN_POINT ( 'NONE',  ( 0.000000000000000000, 0.000000000000000000, 3.000000000000000000 ) ) ;
ENDSEC;
END-ISO-10303-21;
