ISO-10303-21;
HEADER;
FILE_DESCRIPTION (( 'STEP AP203' ),
    '1' );
FILE_NAME ('8199.STEP',
    '2022-07-08T15:05:34',
    ( '' ),
    ( '' ),
    'SwSTEP 2.0',
    'SolidWorks 2019',
    '' );
FILE_SCHEMA (( 'CONFIG_CONTROL_DESIGN' ));
ENDSEC;

DATA;
#1 = ORIENTED_EDGE ( 'NONE', *, *, #82, .T. ) ;
#2 = AXIS2_PLACEMENT_3D ( 'NONE', #313, #168, #375 ) ;
#3 = ORIENTED_EDGE ( 'NONE', *, *, #345, .T. ) ;
#4 = APPROVAL_DATE_TIME ( #43, #13 ) ;
#5 = AXIS2_PLACEMENT_3D ( 'NONE', #316, #21, #51 ) ;
#6 = ORIENTED_EDGE ( 'NONE', *, *, #100, .F. ) ;
#7 = SHAPE_DEFINITION_REPRESENTATION ( #146, #236 ) ;
#8 = CARTESIAN_POINT ( 'NONE',  ( 0.000000000000000000, 0.000000000000000000, 165.0000000000000000 ) ) ;
#9 = ORIENTED_EDGE ( 'NONE', *, *, #297, .F. ) ;
#10 = APPROVAL_STATUS ( 'not_yet_approved' ) ;
#11 = EDGE_LOOP ( 'NONE', ( #182, #215, #174, #213 ) ) ;
#12 = PERSON_AND_ORGANIZATION_ROLE ( 'classification_officer' ) ;
#13 = APPROVAL ( #337, 'NEURÈENÝ' ) ;
#14 = CC_DESIGN_PERSON_AND_ORGANIZATION_ASSIGNMENT ( #30, #133, ( #70 ) ) ;
#15 = ORIENTED_EDGE ( 'NONE', *, *, #245, .T. ) ;
#16 = CARTESIAN_POINT ( 'NONE',  ( 0.000000000000000000, 0.000000000000000000, 0.000000000000000000 ) ) ;
#17 = DIRECTION ( 'NONE',  ( -0.000000000000000000, -0.000000000000000000, -1.000000000000000000 ) ) ;
#18 = DIRECTION ( 'NONE',  ( -1.000000000000000000, 1.224646799147351482E-16, 0.000000000000000000 ) ) ;
#19 = AXIS2_PLACEMENT_3D ( 'NONE', #294, #175, #59 ) ;
#20 = DIRECTION ( 'NONE',  ( -0.000000000000000000, -0.000000000000000000, -1.000000000000000000 ) ) ;
#21 = DIRECTION ( 'NONE',  ( 0.000000000000000000, 0.000000000000000000, 1.000000000000000000 ) ) ;
#22 = EDGE_CURVE ( 'NONE', #302, #31, #348, .T. ) ;
#23 = LOCAL_TIME ( 17, 5, 34.00000000000000000, #163 ) ;
#24 = DIRECTION ( 'NONE',  ( 1.000000000000000000, 0.000000000000000000, 0.000000000000000000 ) ) ;
#25 = CARTESIAN_POINT ( 'NONE',  ( -5.000000000000000000, 0.000000000000000000, 5.500000000000005329 ) ) ;
#26 = AXIS2_PLACEMENT_3D ( 'NONE', #89, #90, #290 ) ;
#27 = VERTEX_POINT ( 'NONE', #106 ) ;
#28 = CYLINDRICAL_SURFACE ( 'NONE', #291, 2.750000000000000000 ) ;
#29 = VERTEX_POINT ( 'NONE', #47 ) ;
#30 = PERSON_AND_ORGANIZATION ( #113, #45 ) ;
#31 = VERTEX_POINT ( 'NONE', #76 ) ;
#32 = PERSON_AND_ORGANIZATION ( #113, #45 ) ;
#33 = AXIS2_PLACEMENT_3D ( 'NONE', #310, #280, #136 ) ;
#34 = CIRCLE ( 'NONE', #204, 5.000000000000000000 ) ;
#35 = EDGE_LOOP ( 'NONE', ( #128, #217, #3, #102 ) ) ;
#36 = SECURITY_CLASSIFICATION_LEVEL ( 'unclassified' ) ;
#37 = EDGE_LOOP ( 'NONE', ( #65, #306 ) ) ;
#38 = EDGE_CURVE ( 'NONE', #327, #42, #137, .T. ) ;
#39 = CALENDAR_DATE ( 2022, 8, 7 ) ;
#40 = EDGE_CURVE ( 'NONE', #241, #273, #171, .T. ) ;
#41 = FACE_BOUND ( 'NONE', #165, .T. ) ;
#42 = VERTEX_POINT ( 'NONE', #142 ) ;
#43 = DATE_AND_TIME ( #268, #23 ) ;
#44 = LINE ( 'NONE', #373, #193 ) ;
#45 = ORGANIZATION ( 'NEURÈENÝ', 'NEURÈENÝ', '' ) ;
#46 = CARTESIAN_POINT ( 'NONE',  ( -2.750000000000000000, 0.000000000000000000, 165.0000000000000000 ) ) ;
#47 = CARTESIAN_POINT ( 'NONE',  ( -2.750000000000000000, 0.000000000000000000, 0.000000000000000000 ) ) ;
#48 = CARTESIAN_POINT ( 'NONE',  ( 0.000000000000000000, 0.000000000000000000, 165.0000000000000000 ) ) ;
#49 = DIRECTION ( 'NONE',  ( -0.000000000000000000, -0.000000000000000000, -1.000000000000000000 ) ) ;
#50 = CC_DESIGN_APPROVAL ( #140, ( #367 ) ) ;
#51 = DIRECTION ( 'NONE',  ( 1.000000000000000000, 0.000000000000000000, 0.000000000000000000 ) ) ;
#52 = ADVANCED_FACE ( 'NONE', ( #340, #254 ), #227, .F. ) ;
#53 = EDGE_CURVE ( 'NONE', #308, #241, #267, .T. ) ;
#54 = DIRECTION ( 'NONE',  ( 0.000000000000000000, 0.000000000000000000, -1.000000000000000000 ) ) ;
#55 = AXIS2_PLACEMENT_3D ( 'NONE', #226, #344, #287 ) ;
#56 = CIRCLE ( 'NONE', #284, 2.750000000000000000 ) ;
#57 = DIRECTION ( 'NONE',  ( 0.000000000000000000, 0.000000000000000000, 1.000000000000000000 ) ) ;
#58 = FACE_OUTER_BOUND ( 'NONE', #298, .T. ) ;
#59 = DIRECTION ( 'NONE',  ( -1.000000000000000000, 0.000000000000000000, 0.000000000000000000 ) ) ;
#60 = DIRECTION ( 'NONE',  ( -0.000000000000000000, -0.000000000000000000, -1.000000000000000000 ) ) ;
#61 = AXIS2_PLACEMENT_3D ( 'NONE', #223, #342, #78 ) ;
#62 = DIRECTION ( 'NONE',  ( 1.224646799147353207E-16, 1.000000000000000000, -0.000000000000000000 ) ) ;
#63 = EDGE_LOOP ( 'NONE', ( #15, #1, #135, #162 ) ) ;
#64 = PERSON_AND_ORGANIZATION_ROLE ( 'design_supplier' ) ;
#65 = ORIENTED_EDGE ( 'NONE', *, *, #356, .F. ) ;
#66 = DATE_AND_TIME ( #309, #262 ) ;
#67 = AXIS2_PLACEMENT_3D ( 'NONE', #156, #269, #108 ) ;
#68 = VERTEX_POINT ( 'NONE', #105 ) ;
#69 = EDGE_CURVE ( 'NONE', #277, #266, #143, .T. ) ;
#70 = PRODUCT_DEFINITION ( 'NEZNÁMÝ', '', #367, #122 ) ;
#71 = ORIENTED_EDGE ( 'NONE', *, *, #125, .F. ) ;
#72 = APPROVAL_STATUS ( 'not_yet_approved' ) ;
#73 = DIRECTION ( 'NONE',  ( 0.000000000000000000, 0.000000000000000000, -1.000000000000000000 ) ) ;
#74 = CIRCLE ( 'NONE', #107, 2.750000000000000000 ) ;
#75 = DIRECTION ( 'NONE',  ( 1.000000000000000000, 0.000000000000000000, 0.000000000000000000 ) ) ;
#76 = CARTESIAN_POINT ( 'NONE',  ( -5.500000000000000000, 6.735557395310442023E-16, 5.000000000000002665 ) ) ;
#77 = LOCAL_TIME ( 17, 5, 34.00000000000000000, #305 ) ;
#78 = DIRECTION ( 'NONE',  ( -1.000000000000000000, 0.000000000000000000, 0.000000000000000000 ) ) ;
#79 = DIRECTION ( 'NONE',  ( 0.000000000000000000, 0.000000000000000000, 1.000000000000000000 ) ) ;
#80 = DIRECTION ( 'NONE',  ( 1.000000000000000000, 0.000000000000000000, 0.000000000000000000 ) ) ;
#81 = DIRECTION ( 'NONE',  ( 0.000000000000000000, 0.000000000000000000, 1.000000000000000000 ) ) ;
#82 = EDGE_CURVE ( 'NONE', #277, #275, #44, .T. ) ;
#83 = EDGE_CURVE ( 'NONE', #275, #29, #74, .T. ) ;
#84 = FACE_OUTER_BOUND ( 'NONE', #188, .T. ) ;
#85 =( NAMED_UNIT ( * ) SI_UNIT ( $, .STERADIAN. ) SOLID_ANGLE_UNIT ( ) );
#86 = AXIS2_PLACEMENT_3D ( 'NONE', #369, #282, #138 ) ;
#87 = DIRECTION ( 'NONE',  ( 1.000000000000000000, 0.000000000000000000, -0.000000000000000000 ) ) ;
#88 = SECURITY_CLASSIFICATION ( '', '', #36 ) ;
#89 = CARTESIAN_POINT ( 'NONE',  ( 0.000000000000000000, 0.000000000000000000, 5.000000000000000000 ) ) ;
#90 = DIRECTION ( 'NONE',  ( -0.000000000000000000, -0.000000000000000000, -1.000000000000000000 ) ) ;
#91 = AXIS2_PLACEMENT_3D ( 'NONE', #250, #109, #200 ) ;
#92 = ORIENTED_EDGE ( 'NONE', *, *, #202, .T. ) ;
#93 = CARTESIAN_POINT ( 'NONE',  ( 0.000000000000000000, 0.000000000000000000, 0.000000000000000000 ) ) ;
#94 = APPROVAL ( #10, 'NEURÈENÝ' ) ;
#95 = CIRCLE ( 'NONE', #118, 8.000000000000000000 ) ;
#96 = ORIENTED_EDGE ( 'NONE', *, *, #40, .F. ) ;
#97 = PERSON_AND_ORGANIZATION_ROLE ( 'creator' ) ;
#98 = EDGE_LOOP ( 'NONE', ( #157, #246, #336, #71 ) ) ;
#99 = MECHANICAL_CONTEXT ( 'NONE', #248, 'mechanical' ) ;
#100 = EDGE_CURVE ( 'NONE', #327, #68, #126, .T. ) ;
#101 = ADVANCED_FACE ( 'NONE', ( #338 ), #112, .T. ) ;
#102 = ORIENTED_EDGE ( 'NONE', *, *, #141, .F. ) ;
#103 = CC_DESIGN_APPROVAL ( #94, ( #88 ) ) ;
#104 = EDGE_LOOP ( 'NONE', ( #189, #201, #244, #358 ) ) ;
#105 = CARTESIAN_POINT ( 'NONE',  ( 8.000000000000000000, 9.797174393178825657E-16, 5.000000000000000000 ) ) ;
#106 = CARTESIAN_POINT ( 'NONE',  ( 5.500000000000000000, 0.000000000000000000, 5.000000000000002665 ) ) ;
#107 = AXIS2_PLACEMENT_3D ( 'NONE', #16, #221, #253 ) ;
#108 = DIRECTION ( 'NONE',  ( 1.000000000000000000, 0.000000000000000000, -0.000000000000000000 ) ) ;
#109 = DIRECTION ( 'NONE',  ( 0.000000000000000000, 0.000000000000000000, 1.000000000000000000 ) ) ;
#110 = CIRCLE ( 'NONE', #55, 0.5000000000000004441 ) ;
#111 = DIRECTION ( 'NONE',  ( 0.000000000000000000, 0.000000000000000000, -1.000000000000000000 ) ) ;
#112 = CYLINDRICAL_SURFACE ( 'NONE', #233, 5.000000000000000000 ) ;
#113 = PERSON ( 'NEURÈENÝ', 'NEURÈENÝ', 'NEURÈENÝ', ('NEURÈENÝ'), ('NEURÈENÝ'), ('NEURÈENÝ') ) ;
#114 = ADVANCED_FACE ( 'NONE', ( #224 ), #346, .T. ) ;
#115 = VECTOR ( 'NONE', #285, 1000.000000000000000 ) ;
#116 = CYLINDRICAL_SURFACE ( 'NONE', #61, 8.000000000000000000 ) ;
#117 = VECTOR ( 'NONE', #17, 1000.000000000000000 ) ;
#118 = AXIS2_PLACEMENT_3D ( 'NONE', #148, #57, #230 ) ;
#119 = CARTESIAN_POINT ( 'NONE',  ( 0.000000000000000000, 0.000000000000000000, 5.500000000000005329 ) ) ;
#120 = DIRECTION ( 'NONE',  ( 0.000000000000000000, 0.000000000000000000, 1.000000000000000000 ) ) ;
#121 = AXIS2_PLACEMENT_3D ( 'NONE', #173, #377, #80 ) ;
#122 = DESIGN_CONTEXT ( 'detailed design', #362, 'design' ) ;
#123 =( LENGTH_UNIT ( ) NAMED_UNIT ( * ) SI_UNIT ( .MILLI., .METRE. ) );
#124 = APPLICATION_PROTOCOL_DEFINITION ( 'international standard', 'config_control_design', 1994, #248 ) ;
#125 = EDGE_CURVE ( 'NONE', #31, #27, #300, .T. ) ;
#126 = CIRCLE ( 'NONE', #2, 8.000000000000000000 ) ;
#127 = ORIENTED_EDGE ( 'NONE', *, *, #100, .T. ) ;
#128 = ORIENTED_EDGE ( 'NONE', *, *, #151, .F. ) ;
#129 = PERSON_AND_ORGANIZATION ( #113, #45 ) ;
#130 = ORIENTED_EDGE ( 'NONE', *, *, #141, .T. ) ;
#131 = APPROVAL_ROLE ( '' ) ;
#132 = EDGE_LOOP ( 'NONE', ( #231, #334 ) ) ;
#133 = PERSON_AND_ORGANIZATION_ROLE ( 'creator' ) ;
#134 = CIRCLE ( 'NONE', #320, 2.750000000000000000 ) ;
#135 = ORIENTED_EDGE ( 'NONE', *, *, #83, .T. ) ;
#136 = DIRECTION ( 'NONE',  ( 1.000000000000000000, 0.000000000000000000, 0.000000000000000000 ) ) ;
#137 = LINE ( 'NONE', #222, #115 ) ;
#138 = DIRECTION ( 'NONE',  ( 1.000000000000000000, 0.000000000000000000, 0.000000000000000000 ) ) ;
#139 = AXIS2_PLACEMENT_3D ( 'NONE', #261, #353, #351 ) ;
#140 = APPROVAL ( #72, 'NEURÈENÝ' ) ;
#141 = EDGE_CURVE ( 'NONE', #308, #302, #343, .T. ) ;
#142 = CARTESIAN_POINT ( 'NONE',  ( -8.000000000000000000, 0.000000000000000000, 0.000000000000000000 ) ) ;
#143 = CIRCLE ( 'NONE', #86, 2.750000000000000000 ) ;
#144 = CIRCLE ( 'NONE', #180, 8.000000000000000000 ) ;
#145 = CARTESIAN_POINT ( 'NONE',  ( 5.000000000000000000, 6.123233995736766282E-16, 5.500000000000005329 ) ) ;
#146 = PRODUCT_DEFINITION_SHAPE ( 'NONE', 'NONE',  #70 ) ;
#147 = AXIS2_PLACEMENT_3D ( 'NONE', #315, #169, #372 ) ;
#148 = CARTESIAN_POINT ( 'NONE',  ( 0.000000000000000000, 0.000000000000000000, 5.000000000000000000 ) ) ;
#149 = APPROVAL_PERSON_ORGANIZATION ( #187, #94, #131 ) ;
#150 = UNCERTAINTY_MEASURE_WITH_UNIT (LENGTH_MEASURE( 1.000000000000000082E-05 ), #123, 'distance_accuracy_value', 'NONE');
#151 = EDGE_CURVE ( 'NONE', #241, #308, #303, .T. ) ;
#152 = CC_DESIGN_DATE_AND_TIME_ASSIGNMENT ( #66, #272, ( #88 ) ) ;
#153 = ORIENTED_EDGE ( 'NONE', *, *, #69, .F. ) ;
#154 = FACE_OUTER_BOUND ( 'NONE', #98, .T. ) ;
#155 = ORIENTED_EDGE ( 'NONE', *, *, #53, .F. ) ;
#156 = CARTESIAN_POINT ( 'NONE',  ( 0.000000000000000000, 0.000000000000000000, 165.0000000000000000 ) ) ;
#157 = ORIENTED_EDGE ( 'NONE', *, *, #22, .F. ) ;
#158 = DIRECTION ( 'NONE',  ( 0.000000000000000000, 0.000000000000000000, 1.000000000000000000 ) ) ;
#159 = TOROIDAL_SURFACE ( 'NONE', #139, 5.500000000000000000, 0.5000000000000000000 ) ;
#160 = ORIENTED_EDGE ( 'NONE', *, *, #245, .F. ) ;
#161 = APPROVAL_DATE_TIME ( #368, #94 ) ;
#162 = ORIENTED_EDGE ( 'NONE', *, *, #206, .F. ) ;
#163 = COORDINATED_UNIVERSAL_TIME_OFFSET ( 1, 0, .AHEAD. ) ;
#164 = FACE_OUTER_BOUND ( 'NONE', #132, .T. ) ;
#165 = EDGE_LOOP ( 'NONE', ( #160, #153 ) ) ;
#166 =( GEOMETRIC_REPRESENTATION_CONTEXT ( 3 ) GLOBAL_UNCERTAINTY_ASSIGNED_CONTEXT ( ( #150 ) ) GLOBAL_UNIT_ASSIGNED_CONTEXT ( ( #123, #235, #85 ) ) REPRESENTATION_CONTEXT ( 'NONE', 'WORKASPACE' ) );
#167 = CC_DESIGN_PERSON_AND_ORGANIZATION_ASSIGNMENT ( #329, #64, ( #367 ) ) ;
#168 = DIRECTION ( 'NONE',  ( 0.000000000000000000, 0.000000000000000000, 1.000000000000000000 ) ) ;
#169 = DIRECTION ( 'NONE',  ( -0.000000000000000000, -0.000000000000000000, -1.000000000000000000 ) ) ;
#170 = DIRECTION ( 'NONE',  ( -1.000000000000000000, 0.000000000000000000, 0.000000000000000000 ) ) ;
#171 = LINE ( 'NONE', #194, #177 ) ;
#172 = LINE ( 'NONE', #46, #304 ) ;
#173 = CARTESIAN_POINT ( 'NONE',  ( 0.000000000000000000, 0.000000000000000000, 5.500000000000005329 ) ) ;
#174 = ORIENTED_EDGE ( 'NONE', *, *, #323, .F. ) ;
#175 = DIRECTION ( 'NONE',  ( -0.000000000000000000, -0.000000000000000000, -1.000000000000000000 ) ) ;
#176 = CARTESIAN_POINT ( 'NONE',  ( -8.000000000000000000, 0.000000000000000000, 5.000000000000000000 ) ) ;
#177 = VECTOR ( 'NONE', #20, 1000.000000000000000 ) ;
#178 = ADVANCED_FACE ( 'NONE', ( #314 ), #192, .F. ) ;
#179 = DIRECTION ( 'NONE',  ( 0.000000000000000000, 0.000000000000000000, 1.000000000000000000 ) ) ;
#180 = AXIS2_PLACEMENT_3D ( 'NONE', #232, #179, #321 ) ;
#181 = LINE ( 'NONE', #324, #271 ) ;
#182 = ORIENTED_EDGE ( 'NONE', *, *, #286, .F. ) ;
#183 = DATE_AND_TIME ( #39, #216 ) ;
#184 = ORIENTED_EDGE ( 'NONE', *, *, #370, .F. ) ;
#185 = APPROVAL_DATE_TIME ( #249, #140 ) ;
#186 = ORIENTED_EDGE ( 'NONE', *, *, #323, .T. ) ;
#187 = PERSON_AND_ORGANIZATION ( #113, #45 ) ;
#188 = EDGE_LOOP ( 'NONE', ( #184, #366, #92, #317 ) ) ;
#189 = ORIENTED_EDGE ( 'NONE', *, *, #82, .F. ) ;
#190 = ADVANCED_FACE ( 'NONE', ( #41, #164 ), #279, .T. ) ;
#191 = COORDINATED_UNIVERSAL_TIME_OFFSET ( 1, 0, .AHEAD. ) ;
#192 = CYLINDRICAL_SURFACE ( 'NONE', #228, 2.750000000000000000 ) ;
#193 = VECTOR ( 'NONE', #73, 1000.000000000000000 ) ;
#194 = CARTESIAN_POINT ( 'NONE',  ( 5.000000000000000000, 6.123233995736766282E-16, 165.0000000000000000 ) ) ;
#195 = MANIFOLD_SOLID_BREP ( 'Odebrat vysunutím3', #238 ) ;
#196 = CARTESIAN_POINT ( 'NONE',  ( -2.750000000000000000, 0.000000000000000000, 165.0000000000000000 ) ) ;
#197 = CARTESIAN_POINT ( 'NONE',  ( 0.000000000000000000, 0.000000000000000000, 0.000000000000000000 ) ) ;
#198 = DIRECTION ( 'NONE',  ( 1.000000000000000000, 0.000000000000000000, 0.000000000000000000 ) ) ;
#199 = AXIS2_PLACEMENT_3D ( 'NONE', #210, #62, #18 ) ;
#200 = DIRECTION ( 'NONE',  ( 1.000000000000000000, 0.000000000000000000, 0.000000000000000000 ) ) ;
#201 = ORIENTED_EDGE ( 'NONE', *, *, #69, .T. ) ;
#202 = EDGE_CURVE ( 'NONE', #270, #42, #247, .T. ) ;
#203 = CARTESIAN_POINT ( 'NONE',  ( 0.000000000000000000, 0.000000000000000000, 165.0000000000000000 ) ) ;
#204 = AXIS2_PLACEMENT_3D ( 'NONE', #205, #209, #292 ) ;
#205 = CARTESIAN_POINT ( 'NONE',  ( 0.000000000000000000, 0.000000000000000000, 5.500000000000005329 ) ) ;
#206 = EDGE_CURVE ( 'NONE', #266, #29, #172, .T. ) ;
#207 = EDGE_CURVE ( 'NONE', #273, #27, #110, .T. ) ;
#208 = CARTESIAN_POINT ( 'NONE',  ( 0.000000000000000000, 0.000000000000000000, 5.000000000000000000 ) ) ;
#209 = DIRECTION ( 'NONE',  ( 0.000000000000000000, 0.000000000000000000, 1.000000000000000000 ) ) ;
#210 = CARTESIAN_POINT ( 'NONE',  ( -5.500000000000000000, 6.735557395310442023E-16, 5.500000000000005329 ) ) ;
#211 = ORIENTED_EDGE ( 'NONE', *, *, #370, .T. ) ;
#212 = CALENDAR_DATE ( 2022, 8, 7 ) ;
#213 = ORIENTED_EDGE ( 'NONE', *, *, #207, .F. ) ;
#214 = APPROVAL_ROLE ( '' ) ;
#215 = ORIENTED_EDGE ( 'NONE', *, *, #22, .T. ) ;
#216 = LOCAL_TIME ( 17, 5, 34.00000000000000000, #335 ) ;
#217 = ORIENTED_EDGE ( 'NONE', *, *, #40, .T. ) ;
#218 = ADVANCED_FACE ( 'NONE', ( #255 ), #378, .F. ) ;
#219 = CC_DESIGN_PERSON_AND_ORGANIZATION_ASSIGNMENT ( #129, #97, ( #367 ) ) ;
#220 = PERSON_AND_ORGANIZATION ( #113, #45 ) ;
#221 = DIRECTION ( 'NONE',  ( -0.000000000000000000, -0.000000000000000000, -1.000000000000000000 ) ) ;
#222 = CARTESIAN_POINT ( 'NONE',  ( -8.000000000000000000, 0.000000000000000000, 5.000000000000000000 ) ) ;
#223 = CARTESIAN_POINT ( 'NONE',  ( 0.000000000000000000, 0.000000000000000000, 5.000000000000000000 ) ) ;
#224 = FACE_OUTER_BOUND ( 'NONE', #35, .T. ) ;
#225 = PRODUCT ( '8199', '8199', '', ( #99 ) ) ;
#226 = CARTESIAN_POINT ( 'NONE',  ( 5.500000000000000000, 0.000000000000000000, 5.500000000000005329 ) ) ;
#227 = PLANE ( 'NONE',  #331 ) ;
#228 = AXIS2_PLACEMENT_3D ( 'NONE', #8, #243, #333 ) ;
#229 = ADVANCED_FACE ( 'NONE', ( #84 ), #116, .T. ) ;
#230 = DIRECTION ( 'NONE',  ( 1.000000000000000000, 0.000000000000000000, 0.000000000000000000 ) ) ;
#231 = ORIENTED_EDGE ( 'NONE', *, *, #53, .T. ) ;
#232 = CARTESIAN_POINT ( 'NONE',  ( 0.000000000000000000, 0.000000000000000000, 0.000000000000000000 ) ) ;
#233 = AXIS2_PLACEMENT_3D ( 'NONE', #48, #49, #170 ) ;
#234 = CIRCLE ( 'NONE', #26, 5.500000000000000000 ) ;
#235 =( NAMED_UNIT ( * ) PLANE_ANGLE_UNIT ( ) SI_UNIT ( $, .RADIAN. ) );
#236 = ADVANCED_BREP_SHAPE_REPRESENTATION ( '8199', ( #195, #341 ), #166 ) ;
#237 = DIRECTION ( 'NONE',  ( -1.000000000000000000, 0.000000000000000000, 0.000000000000000000 ) ) ;
#238 = CLOSED_SHELL ( 'NONE', ( #355, #218, #114, #229, #288, #274, #52, #101, #190, #371, #178 ) ) ;
#239 = EDGE_LOOP ( 'NONE', ( #186, #328 ) ) ;
#240 = LOCAL_TIME ( 17, 5, 34.00000000000000000, #191 ) ;
#241 = VERTEX_POINT ( 'NONE', #350 ) ;
#242 = DIRECTION ( 'NONE',  ( 1.000000000000000000, 0.000000000000000000, 0.000000000000000000 ) ) ;
#243 = DIRECTION ( 'NONE',  ( 0.000000000000000000, 0.000000000000000000, -1.000000000000000000 ) ) ;
#244 = ORIENTED_EDGE ( 'NONE', *, *, #206, .T. ) ;
#245 = EDGE_CURVE ( 'NONE', #266, #277, #56, .T. ) ;
#246 = ORIENTED_EDGE ( 'NONE', *, *, #345, .F. ) ;
#247 = CIRCLE ( 'NONE', #5, 8.000000000000000000 ) ;
#248 = APPLICATION_CONTEXT ( 'configuration controlled 3d designs of mechanical parts and assemblies' ) ;
#249 = DATE_AND_TIME ( #212, #240 ) ;
#250 = CARTESIAN_POINT ( 'NONE',  ( 0.000000000000000000, 0.000000000000000000, 165.0000000000000000 ) ) ;
#251 = CARTESIAN_POINT ( 'NONE',  ( 0.000000000000000000, 0.000000000000000000, 165.0000000000000000 ) ) ;
#252 = CIRCLE ( 'NONE', #278, 5.000000000000000000 ) ;
#253 = DIRECTION ( 'NONE',  ( 1.000000000000000000, 0.000000000000000000, 0.000000000000000000 ) ) ;
#254 = FACE_OUTER_BOUND ( 'NONE', #359, .T. ) ;
#255 = FACE_OUTER_BOUND ( 'NONE', #11, .T. ) ;
#256 = CC_DESIGN_DATE_AND_TIME_ASSIGNMENT ( #183, #301, ( #70 ) ) ;
#257 = CC_DESIGN_PERSON_AND_ORGANIZATION_ASSIGNMENT ( #220, #365, ( #225 ) ) ;
#258 = APPROVAL_PERSON_ORGANIZATION ( #32, #140, #214 ) ;
#259 = CYLINDRICAL_SURFACE ( 'NONE', #19, 8.000000000000000000 ) ;
#260 = FACE_OUTER_BOUND ( 'NONE', #63, .T. ) ;
#261 = CARTESIAN_POINT ( 'NONE',  ( 0.000000000000000000, 0.000000000000000000, 5.500000000000005329 ) ) ;
#262 = LOCAL_TIME ( 17, 5, 34.00000000000000000, #265 ) ;
#263 = FACE_OUTER_BOUND ( 'NONE', #289, .T. ) ;
#264 = ORIENTED_EDGE ( 'NONE', *, *, #297, .T. ) ;
#265 = COORDINATED_UNIVERSAL_TIME_OFFSET ( 1, 0, .AHEAD. ) ;
#266 = VERTEX_POINT ( 'NONE', #196 ) ;
#267 = CIRCLE ( 'NONE', #91, 5.000000000000000000 ) ;
#268 = CALENDAR_DATE ( 2022, 8, 7 ) ;
#269 = DIRECTION ( 'NONE',  ( 0.000000000000000000, 0.000000000000000000, 1.000000000000000000 ) ) ;
#270 = VERTEX_POINT ( 'NONE', #312 ) ;
#271 = VECTOR ( 'NONE', #60, 1000.000000000000000 ) ;
#272 = DATE_TIME_ROLE ( 'classification_date' ) ;
#273 = VERTEX_POINT ( 'NONE', #145 ) ;
#274 = ADVANCED_FACE ( 'NONE', ( #295, #58 ), #354, .T. ) ;
#275 = VERTEX_POINT ( 'NONE', #380 ) ;
#276 = CALENDAR_DATE ( 2022, 8, 7 ) ;
#277 = VERTEX_POINT ( 'NONE', #318 ) ;
#278 = AXIS2_PLACEMENT_3D ( 'NONE', #119, #379, #24 ) ;
#279 = PLANE ( 'NONE',  #67 ) ;
#280 = DIRECTION ( 'NONE',  ( -0.000000000000000000, -0.000000000000000000, -1.000000000000000000 ) ) ;
#281 = CARTESIAN_POINT ( 'NONE',  ( -5.000000000000000000, 0.000000000000000000, 165.0000000000000000 ) ) ;
#282 = DIRECTION ( 'NONE',  ( 0.000000000000000000, 0.000000000000000000, 1.000000000000000000 ) ) ;
#283 = DIRECTION ( 'NONE',  ( 0.000000000000000000, 0.000000000000000000, 1.000000000000000000 ) ) ;
#284 = AXIS2_PLACEMENT_3D ( 'NONE', #339, #283, #75 ) ;
#285 = DIRECTION ( 'NONE',  ( -0.000000000000000000, -0.000000000000000000, -1.000000000000000000 ) ) ;
#286 = EDGE_CURVE ( 'NONE', #302, #273, #34, .T. ) ;
#287 = DIRECTION ( 'NONE',  ( 0.000000000000000000, 0.000000000000000000, -1.000000000000000000 ) ) ;
#288 = ADVANCED_FACE ( 'NONE', ( #263 ), #259, .T. ) ;
#289 = EDGE_LOOP ( 'NONE', ( #352, #6, #364, #264 ) ) ;
#290 = DIRECTION ( 'NONE',  ( 1.000000000000000000, 0.000000000000000000, 0.000000000000000000 ) ) ;
#291 = AXIS2_PLACEMENT_3D ( 'NONE', #203, #54, #237 ) ;
#292 = DIRECTION ( 'NONE',  ( 1.000000000000000000, 0.000000000000000000, 0.000000000000000000 ) ) ;
#293 = DIRECTION ( 'NONE',  ( -0.000000000000000000, -0.000000000000000000, -1.000000000000000000 ) ) ;
#294 = CARTESIAN_POINT ( 'NONE',  ( 0.000000000000000000, 0.000000000000000000, 5.000000000000000000 ) ) ;
#295 = FACE_BOUND ( 'NONE', #239, .T. ) ;
#296 = CC_DESIGN_PERSON_AND_ORGANIZATION_ASSIGNMENT ( #307, #12, ( #88 ) ) ;
#297 = EDGE_CURVE ( 'NONE', #42, #270, #144, .T. ) ;
#298 = EDGE_LOOP ( 'NONE', ( #127, #211 ) ) ;
#299 = ORIENTED_EDGE ( 'NONE', *, *, #286, .T. ) ;
#300 = CIRCLE ( 'NONE', #33, 5.500000000000000000 ) ;
#301 = DATE_TIME_ROLE ( 'creation_date' ) ;
#302 = VERTEX_POINT ( 'NONE', #25 ) ;
#303 = CIRCLE ( 'NONE', #325, 5.000000000000000000 ) ;
#304 = VECTOR ( 'NONE', #111, 1000.000000000000000 ) ;
#305 = COORDINATED_UNIVERSAL_TIME_OFFSET ( 1, 0, .AHEAD. ) ;
#306 = ORIENTED_EDGE ( 'NONE', *, *, #83, .F. ) ;
#307 = PERSON_AND_ORGANIZATION ( #113, #45 ) ;
#308 = VERTEX_POINT ( 'NONE', #319 ) ;
#309 = CALENDAR_DATE ( 2022, 8, 7 ) ;
#310 = CARTESIAN_POINT ( 'NONE',  ( 0.000000000000000000, 0.000000000000000000, 5.000000000000000000 ) ) ;
#311 = APPROVAL_PERSON_ORGANIZATION ( #332, #13, #360 ) ;
#312 = CARTESIAN_POINT ( 'NONE',  ( 8.000000000000000000, 9.797174393178825657E-16, 0.000000000000000000 ) ) ;
#313 = CARTESIAN_POINT ( 'NONE',  ( 0.000000000000000000, 0.000000000000000000, 5.000000000000000000 ) ) ;
#314 = FACE_OUTER_BOUND ( 'NONE', #104, .T. ) ;
#315 = CARTESIAN_POINT ( 'NONE',  ( 0.000000000000000000, 0.000000000000000000, 165.0000000000000000 ) ) ;
#316 = CARTESIAN_POINT ( 'NONE',  ( 0.000000000000000000, 0.000000000000000000, 0.000000000000000000 ) ) ;
#317 = ORIENTED_EDGE ( 'NONE', *, *, #38, .F. ) ;
#318 = CARTESIAN_POINT ( 'NONE',  ( 2.750000000000000000, 3.367778697655221012E-16, 165.0000000000000000 ) ) ;
#319 = CARTESIAN_POINT ( 'NONE',  ( -5.000000000000000000, 0.000000000000000000, 165.0000000000000000 ) ) ;
#320 = AXIS2_PLACEMENT_3D ( 'NONE', #357, #293, #322 ) ;
#321 = DIRECTION ( 'NONE',  ( 1.000000000000000000, 0.000000000000000000, 0.000000000000000000 ) ) ;
#322 = DIRECTION ( 'NONE',  ( 1.000000000000000000, 0.000000000000000000, 0.000000000000000000 ) ) ;
#323 = EDGE_CURVE ( 'NONE', #27, #31, #234, .T. ) ;
#324 = CARTESIAN_POINT ( 'NONE',  ( 8.000000000000000000, 9.797174393178825657E-16, 5.000000000000000000 ) ) ;
#325 = AXIS2_PLACEMENT_3D ( 'NONE', #251, #79, #198 ) ;
#326 = CC_DESIGN_APPROVAL ( #13, ( #70 ) ) ;
#327 = VERTEX_POINT ( 'NONE', #176 ) ;
#328 = ORIENTED_EDGE ( 'NONE', *, *, #125, .T. ) ;
#329 = PERSON_AND_ORGANIZATION ( #113, #45 ) ;
#330 = EDGE_LOOP ( 'NONE', ( #96, #155, #130, #299 ) ) ;
#331 = AXIS2_PLACEMENT_3D ( 'NONE', #197, #81, #376 ) ;
#332 = PERSON_AND_ORGANIZATION ( #113, #45 ) ;
#333 = DIRECTION ( 'NONE',  ( -1.000000000000000000, 0.000000000000000000, 0.000000000000000000 ) ) ;
#334 = ORIENTED_EDGE ( 'NONE', *, *, #151, .T. ) ;
#335 = COORDINATED_UNIVERSAL_TIME_OFFSET ( 1, 0, .AHEAD. ) ;
#336 = ORIENTED_EDGE ( 'NONE', *, *, #207, .T. ) ;
#337 = APPROVAL_STATUS ( 'not_yet_approved' ) ;
#338 = FACE_OUTER_BOUND ( 'NONE', #330, .T. ) ;
#339 = CARTESIAN_POINT ( 'NONE',  ( 0.000000000000000000, 0.000000000000000000, 165.0000000000000000 ) ) ;
#340 = FACE_BOUND ( 'NONE', #37, .T. ) ;
#341 = AXIS2_PLACEMENT_3D ( 'NONE', #93, #158, #242 ) ;
#342 = DIRECTION ( 'NONE',  ( -0.000000000000000000, -0.000000000000000000, -1.000000000000000000 ) ) ;
#343 = LINE ( 'NONE', #281, #117 ) ;
#344 = DIRECTION ( 'NONE',  ( 0.000000000000000000, -1.000000000000000000, 0.000000000000000000 ) ) ;
#345 = EDGE_CURVE ( 'NONE', #273, #302, #252, .T. ) ;
#346 = CYLINDRICAL_SURFACE ( 'NONE', #147, 5.000000000000000000 ) ;
#347 = EDGE_CURVE ( 'NONE', #68, #270, #181, .T. ) ;
#348 = CIRCLE ( 'NONE', #199, 0.5000000000000004441 ) ;
#349 = AXIS2_PLACEMENT_3D ( 'NONE', #208, #120, #87 ) ;
#350 = CARTESIAN_POINT ( 'NONE',  ( 5.000000000000000000, 6.123233995736766282E-16, 165.0000000000000000 ) ) ;
#351 = DIRECTION ( 'NONE',  ( 1.000000000000000000, 0.000000000000000000, 0.000000000000000000 ) ) ;
#352 = ORIENTED_EDGE ( 'NONE', *, *, #347, .F. ) ;
#353 = DIRECTION ( 'NONE',  ( 0.000000000000000000, 0.000000000000000000, 1.000000000000000000 ) ) ;
#354 = PLANE ( 'NONE',  #349 ) ;
#355 = ADVANCED_FACE ( 'NONE', ( #260 ), #28, .F. ) ;
#356 = EDGE_CURVE ( 'NONE', #29, #275, #134, .T. ) ;
#357 = CARTESIAN_POINT ( 'NONE',  ( 0.000000000000000000, 0.000000000000000000, 0.000000000000000000 ) ) ;
#358 = ORIENTED_EDGE ( 'NONE', *, *, #356, .T. ) ;
#359 = EDGE_LOOP ( 'NONE', ( #9, #361 ) ) ;
#360 = APPROVAL_ROLE ( '' ) ;
#361 = ORIENTED_EDGE ( 'NONE', *, *, #202, .F. ) ;
#362 = APPLICATION_CONTEXT ( 'configuration controlled 3d designs of mechanical parts and assemblies' ) ;
#363 = APPLICATION_PROTOCOL_DEFINITION ( 'international standard', 'config_control_design', 1994, #362 ) ;
#364 = ORIENTED_EDGE ( 'NONE', *, *, #38, .T. ) ;
#365 = PERSON_AND_ORGANIZATION_ROLE ( 'design_owner' ) ;
#366 = ORIENTED_EDGE ( 'NONE', *, *, #347, .T. ) ;
#367 = PRODUCT_DEFINITION_FORMATION_WITH_SPECIFIED_SOURCE ( 'LIBOVOLNÝ', '', #225, .NOT_KNOWN. ) ;
#368 = DATE_AND_TIME ( #276, #77 ) ;
#369 = CARTESIAN_POINT ( 'NONE',  ( 0.000000000000000000, 0.000000000000000000, 165.0000000000000000 ) ) ;
#370 = EDGE_CURVE ( 'NONE', #68, #327, #95, .T. ) ;
#371 = ADVANCED_FACE ( 'NONE', ( #154 ), #159, .F. ) ;
#372 = DIRECTION ( 'NONE',  ( -1.000000000000000000, 0.000000000000000000, 0.000000000000000000 ) ) ;
#373 = CARTESIAN_POINT ( 'NONE',  ( 2.750000000000000000, 3.367778697655221012E-16, 165.0000000000000000 ) ) ;
#374 = CC_DESIGN_SECURITY_CLASSIFICATION ( #88, ( #367 ) ) ;
#375 = DIRECTION ( 'NONE',  ( 1.000000000000000000, 0.000000000000000000, 0.000000000000000000 ) ) ;
#376 = DIRECTION ( 'NONE',  ( 1.000000000000000000, 0.000000000000000000, -0.000000000000000000 ) ) ;
#377 = DIRECTION ( 'NONE',  ( 0.000000000000000000, 0.000000000000000000, 1.000000000000000000 ) ) ;
#378 = TOROIDAL_SURFACE ( 'NONE', #121, 5.500000000000000000, 0.5000000000000000000 ) ;
#379 = DIRECTION ( 'NONE',  ( 0.000000000000000000, 0.000000000000000000, 1.000000000000000000 ) ) ;
#380 = CARTESIAN_POINT ( 'NONE',  ( 2.750000000000000000, 3.367778697655221012E-16, 0.000000000000000000 ) ) ;
#381 = PRODUCT_RELATED_PRODUCT_CATEGORY ( 'detail', '', ( #225 ) ) ;
ENDSEC;
END-ISO-10303-21;
