ISO-10303-21;
HEADER;
FILE_DESCRIPTION (( 'STEP AP203' ),
    '1' );
FILE_NAME ('b3ef.STEP',
    '2022-07-08T15:30:42',
    ( '' ),
    ( '' ),
    'SwSTEP 2.0',
    'SolidWorks 2019',
    '' );
FILE_SCHEMA (( 'CONFIG_CONTROL_DESIGN' ));
ENDSEC;

DATA;
#1 = DIRECTION ( 'NONE',  ( 0.000000000000000000, 0.000000000000000000, 1.000000000000000000 ) ) ;
#2 = CIRCLE ( 'NONE', #280, 7.000000000000000000 ) ;
#3 = EDGE_CURVE ( 'NONE', #339, #278, #231, .T. ) ;
#4 = LOCAL_TIME ( 17, 30, 42.00000000000000000, #146 ) ;
#5 = CYLINDRICAL_SURFACE ( 'NONE', #97, 2.000000000000000000 ) ;
#6 = DIRECTION ( 'NONE',  ( 0.000000000000000000, 0.000000000000000000, 1.000000000000000000 ) ) ;
#7 = DIRECTION ( 'NONE',  ( -0.000000000000000000, -0.000000000000000000, -1.000000000000000000 ) ) ;
#8 = LOCAL_TIME ( 17, 30, 42.00000000000000000, #257 ) ;
#9 = ADVANCED_FACE ( 'NONE', ( #57 ), #209, .F. ) ;
#10 = CYLINDRICAL_SURFACE ( 'NONE', #253, 7.000000000000000000 ) ;
#11 = VERTEX_POINT ( 'NONE', #236 ) ;
#12 = PLANE ( 'NONE',  #174 ) ;
#13 = ORIENTED_EDGE ( 'NONE', *, *, #155, .T. ) ;
#14 = FACE_BOUND ( 'NONE', #163, .T. ) ;
#15 = ORIENTED_EDGE ( 'NONE', *, *, #321, .F. ) ;
#16 = EDGE_CURVE ( 'NONE', #173, #110, #265, .T. ) ;
#17 = AXIS2_PLACEMENT_3D ( 'NONE', #94, #183, #320 ) ;
#18 = ORIENTED_EDGE ( 'NONE', *, *, #179, .F. ) ;
#19 = APPROVAL_ROLE ( '' ) ;
#20 = AXIS2_PLACEMENT_3D ( 'NONE', #91, #317, #126 ) ;
#21 = DIRECTION ( 'NONE',  ( 0.000000000000000000, 0.000000000000000000, 1.000000000000000000 ) ) ;
#22 = SECURITY_CLASSIFICATION_LEVEL ( 'unclassified' ) ;
#23 = DIRECTION ( 'NONE',  ( 0.000000000000000000, -1.000000000000000000, 0.000000000000000000 ) ) ;
#24 = APPLICATION_PROTOCOL_DEFINITION ( 'international standard', 'config_control_design', 1994, #137 ) ;
#25 = CYLINDRICAL_SURFACE ( 'NONE', #34, 7.000000000000000000 ) ;
#26 = ORIENTED_EDGE ( 'NONE', *, *, #311, .F. ) ;
#27 = ADVANCED_FACE ( 'NONE', ( #170 ), #262, .F. ) ;
#28 = ORIENTED_EDGE ( 'NONE', *, *, #66, .T. ) ;
#29 = AXIS2_PLACEMENT_3D ( 'NONE', #71, #243, #238 ) ;
#30 = LOCAL_TIME ( 17, 30, 42.00000000000000000, #287 ) ;
#31 = DIRECTION ( 'NONE',  ( 1.000000000000000000, 0.000000000000000000, -0.000000000000000000 ) ) ;
#32 = EDGE_CURVE ( 'NONE', #11, #234, #332, .T. ) ;
#33 = CARTESIAN_POINT ( 'NONE',  ( -4.000000000000000000, 0.000000000000000000, 455.0000000000000000 ) ) ;
#34 = AXIS2_PLACEMENT_3D ( 'NONE', #261, #316, #347 ) ;
#35 = CARTESIAN_POINT ( 'NONE',  ( 0.000000000000000000, 0.000000000000000000, 5.000000000000000000 ) ) ;
#36 = CARTESIAN_POINT ( 'NONE',  ( -7.000000000000000000, 0.000000000000000000, 5.000000000000000000 ) ) ;
#37 = DIRECTION ( 'NONE',  ( 0.000000000000000000, 0.000000000000000000, 1.000000000000000000 ) ) ;
#38 = EDGE_CURVE ( 'NONE', #188, #113, #285, .T. ) ;
#39 = DIRECTION ( 'NONE',  ( -1.000000000000000000, 0.000000000000000000, 0.000000000000000000 ) ) ;
#40 = CIRCLE ( 'NONE', #96, 2.000000000000000000 ) ;
#41 = VECTOR ( 'NONE', #361, 1000.000000000000000 ) ;
#42 = ORIENTED_EDGE ( 'NONE', *, *, #352, .T. ) ;
#43 = DIRECTION ( 'NONE',  ( 0.000000000000000000, 0.000000000000000000, 1.000000000000000000 ) ) ;
#44 = ADVANCED_FACE ( 'NONE', ( #84 ), #25, .T. ) ;
#45 = ORIENTED_EDGE ( 'NONE', *, *, #32, .T. ) ;
#46 = VECTOR ( 'NONE', #313, 1000.000000000000000 ) ;
#47 = DIRECTION ( 'NONE',  ( -1.000000000000000000, 1.224646799147351482E-16, 0.000000000000000000 ) ) ;
#48 = EDGE_LOOP ( 'NONE', ( #358, #191, #123, #50 ) ) ;
#49 = CARTESIAN_POINT ( 'NONE',  ( 0.000000000000000000, 0.000000000000000000, 5.000000000000000000 ) ) ;
#50 = ORIENTED_EDGE ( 'NONE', *, *, #38, .F. ) ;
#51 = ORIENTED_EDGE ( 'NONE', *, *, #245, .T. ) ;
#52 = PRODUCT_RELATED_PRODUCT_CATEGORY ( 'detail', '', ( #244 ) ) ;
#53 = VECTOR ( 'NONE', #205, 1000.000000000000000 ) ;
#54 = LINE ( 'NONE', #59, #46 ) ;
#55 = APPROVAL_STATUS ( 'not_yet_approved' ) ;
#56 = AXIS2_PLACEMENT_3D ( 'NONE', #35, #103, #381 ) ;
#57 = FACE_OUTER_BOUND ( 'NONE', #224, .T. ) ;
#58 = PERSON_AND_ORGANIZATION_ROLE ( 'creator' ) ;
#59 = CARTESIAN_POINT ( 'NONE',  ( 2.000000000000000000, 2.449293598294705921E-16, 455.0000000000000000 ) ) ;
#60 = EDGE_CURVE ( 'NONE', #278, #366, #158, .T. ) ;
#61 = DATE_AND_TIME ( #204, #8 ) ;
#62 = CARTESIAN_POINT ( 'NONE',  ( -4.000000000000000000, 0.000000000000000000, 5.500000000000005329 ) ) ;
#63 = FACE_OUTER_BOUND ( 'NONE', #281, .T. ) ;
#64 = AXIS2_PLACEMENT_3D ( 'NONE', #128, #6, #323 ) ;
#65 = CIRCLE ( 'NONE', #125, 4.000000000000000000 ) ;
#66 = EDGE_CURVE ( 'NONE', #11, #219, #54, .T. ) ;
#67 = PLANE ( 'NONE',  #56 ) ;
#68 = FACE_BOUND ( 'NONE', #199, .T. ) ;
#69 = CARTESIAN_POINT ( 'NONE',  ( 0.000000000000000000, 0.000000000000000000, 455.0000000000000000 ) ) ;
#70 = APPROVAL_PERSON_ORGANIZATION ( #115, #108, #169 ) ;
#71 = CARTESIAN_POINT ( 'NONE',  ( 0.000000000000000000, 0.000000000000000000, 455.0000000000000000 ) ) ;
#72 = DIRECTION ( 'NONE',  ( 1.000000000000000000, 0.000000000000000000, -0.000000000000000000 ) ) ;
#73 =( NAMED_UNIT ( * ) SI_UNIT ( $, .STERADIAN. ) SOLID_ANGLE_UNIT ( ) );
#74 = ORIENTED_EDGE ( 'NONE', *, *, #303, .T. ) ;
#75 = LOCAL_TIME ( 17, 30, 42.00000000000000000, #371 ) ;
#76 = CC_DESIGN_APPROVAL ( #108, ( #240 ) ) ;
#77 = CARTESIAN_POINT ( 'NONE',  ( 0.000000000000000000, 0.000000000000000000, 0.000000000000000000 ) ) ;
#78 = ORIENTED_EDGE ( 'NONE', *, *, #66, .F. ) ;
#79 = DIRECTION ( 'NONE',  ( 1.000000000000000000, 0.000000000000000000, 0.000000000000000000 ) ) ;
#80 = ORIENTED_EDGE ( 'NONE', *, *, #179, .T. ) ;
#81 = DIRECTION ( 'NONE',  ( 0.000000000000000000, 0.000000000000000000, -1.000000000000000000 ) ) ;
#82 = ORIENTED_EDGE ( 'NONE', *, *, #16, .T. ) ;
#83 = PERSON_AND_ORGANIZATION ( #187, #355 ) ;
#84 = FACE_OUTER_BOUND ( 'NONE', #314, .T. ) ;
#85 = CC_DESIGN_PERSON_AND_ORGANIZATION_ASSIGNMENT ( #118, #88, ( #244 ) ) ;
#86 = DATE_AND_TIME ( #318, #289 ) ;
#87 = DIRECTION ( 'NONE',  ( 0.000000000000000000, 0.000000000000000000, 1.000000000000000000 ) ) ;
#88 = PERSON_AND_ORGANIZATION_ROLE ( 'design_owner' ) ;
#89 = CARTESIAN_POINT ( 'NONE',  ( -4.000000000000000000, 0.000000000000000000, 455.0000000000000000 ) ) ;
#90 = DATE_TIME_ROLE ( 'classification_date' ) ;
#91 = CARTESIAN_POINT ( 'NONE',  ( 0.000000000000000000, 0.000000000000000000, 5.500000000000005329 ) ) ;
#92 = DIRECTION ( 'NONE',  ( 0.000000000000000000, 0.000000000000000000, -1.000000000000000000 ) ) ;
#93 = APPROVAL ( #122, 'NEURÈENÝ' ) ;
#94 = CARTESIAN_POINT ( 'NONE',  ( 0.000000000000000000, 0.000000000000000000, 455.0000000000000000 ) ) ;
#95 = CARTESIAN_POINT ( 'NONE',  ( 0.000000000000000000, 0.000000000000000000, 0.000000000000000000 ) ) ;
#96 = AXIS2_PLACEMENT_3D ( 'NONE', #95, #7, #324 ) ;
#97 = AXIS2_PLACEMENT_3D ( 'NONE', #326, #129, #241 ) ;
#98 = DIRECTION ( 'NONE',  ( 1.000000000000000000, 0.000000000000000000, 0.000000000000000000 ) ) ;
#99 = DESIGN_CONTEXT ( 'detailed design', #137, 'design' ) ;
#100 = DIRECTION ( 'NONE',  ( 1.000000000000000000, 0.000000000000000000, 0.000000000000000000 ) ) ;
#101 = AXIS2_PLACEMENT_3D ( 'NONE', #150, #153, #380 ) ;
#102 = EDGE_CURVE ( 'NONE', #359, #168, #260, .T. ) ;
#103 = DIRECTION ( 'NONE',  ( 0.000000000000000000, 0.000000000000000000, 1.000000000000000000 ) ) ;
#104 = AXIS2_PLACEMENT_3D ( 'NONE', #133, #353, #213 ) ;
#105 = APPROVAL_PERSON_ORGANIZATION ( #365, #263, #19 ) ;
#106 = DIRECTION ( 'NONE',  ( -1.000000000000000000, 0.000000000000000000, 0.000000000000000000 ) ) ;
#107 = ORIENTED_EDGE ( 'NONE', *, *, #60, .T. ) ;
#108 = APPROVAL ( #55, 'NEURÈENÝ' ) ;
#109 =( LENGTH_UNIT ( ) NAMED_UNIT ( * ) SI_UNIT ( .MILLI., .METRE. ) );
#110 = VERTEX_POINT ( 'NONE', #369 ) ;
#111 = AXIS2_PLACEMENT_3D ( 'NONE', #69, #185, #31 ) ;
#112 = ORIENTED_EDGE ( 'NONE', *, *, #102, .F. ) ;
#113 = VERTEX_POINT ( 'NONE', #62 ) ;
#114 = ADVANCED_BREP_SHAPE_REPRESENTATION ( 'b3ef', ( #292, #235 ), #304 ) ;
#115 = PERSON_AND_ORGANIZATION ( #187, #355 ) ;
#116 = EDGE_CURVE ( 'NONE', #366, #254, #152, .T. ) ;
#117 = ORIENTED_EDGE ( 'NONE', *, *, #116, .F. ) ;
#118 = PERSON_AND_ORGANIZATION ( #187, #355 ) ;
#119 = ORIENTED_EDGE ( 'NONE', *, *, #237, .F. ) ;
#120 = EDGE_LOOP ( 'NONE', ( #18, #112 ) ) ;
#121 = ADVANCED_FACE ( 'NONE', ( #161, #268 ), #67, .T. ) ;
#122 = APPROVAL_STATUS ( 'not_yet_approved' ) ;
#123 = ORIENTED_EDGE ( 'NONE', *, *, #270, .T. ) ;
#124 = CIRCLE ( 'NONE', #64, 4.000000000000000000 ) ;
#125 = AXIS2_PLACEMENT_3D ( 'NONE', #186, #296, #214 ) ;
#126 = DIRECTION ( 'NONE',  ( 1.000000000000000000, 0.000000000000000000, 0.000000000000000000 ) ) ;
#127 = DIRECTION ( 'NONE',  ( 1.000000000000000000, 0.000000000000000000, 0.000000000000000000 ) ) ;
#128 = CARTESIAN_POINT ( 'NONE',  ( 0.000000000000000000, 0.000000000000000000, 5.500000000000005329 ) ) ;
#129 = DIRECTION ( 'NONE',  ( 0.000000000000000000, 0.000000000000000000, -1.000000000000000000 ) ) ;
#130 = VECTOR ( 'NONE', #81, 1000.000000000000000 ) ;
#131 = FACE_OUTER_BOUND ( 'NONE', #288, .T. ) ;
#132 = CARTESIAN_POINT ( 'NONE',  ( 2.000000000000000000, 2.449293598294705921E-16, 0.000000000000000000 ) ) ;
#133 = CARTESIAN_POINT ( 'NONE',  ( 0.000000000000000000, 0.000000000000000000, 5.000000000000000000 ) ) ;
#134 = FACE_OUTER_BOUND ( 'NONE', #48, .T. ) ;
#135 = CC_DESIGN_DATE_AND_TIME_ASSIGNMENT ( #61, #177, ( #256 ) ) ;
#136 = DIRECTION ( 'NONE',  ( -0.000000000000000000, -0.000000000000000000, -1.000000000000000000 ) ) ;
#137 = APPLICATION_CONTEXT ( 'configuration controlled 3d designs of mechanical parts and assemblies' ) ;
#138 = CIRCLE ( 'NONE', #104, 7.000000000000000000 ) ;
#139 = CIRCLE ( 'NONE', #345, 2.000000000000000000 ) ;
#140 = CARTESIAN_POINT ( 'NONE',  ( 0.000000000000000000, 0.000000000000000000, 0.000000000000000000 ) ) ;
#141 = ORIENTED_EDGE ( 'NONE', *, *, #60, .F. ) ;
#142 = ORIENTED_EDGE ( 'NONE', *, *, #270, .F. ) ;
#143 = EDGE_LOOP ( 'NONE', ( #252, #206 ) ) ;
#144 = APPLICATION_CONTEXT ( 'configuration controlled 3d designs of mechanical parts and assemblies' ) ;
#145 = AXIS2_PLACEMENT_3D ( 'NONE', #356, #136, #272 ) ;
#146 = COORDINATED_UNIVERSAL_TIME_OFFSET ( 1, 0, .AHEAD. ) ;
#147 = EDGE_LOOP ( 'NONE', ( #82, #13 ) ) ;
#148 = CC_DESIGN_PERSON_AND_ORGANIZATION_ASSIGNMENT ( #284, #373, ( #322 ) ) ;
#149 = APPROVAL_DATE_TIME ( #228, #108 ) ;
#150 = CARTESIAN_POINT ( 'NONE',  ( 0.000000000000000000, 0.000000000000000000, 455.0000000000000000 ) ) ;
#151 = APPROVAL_DATE_TIME ( #312, #93 ) ;
#152 = CIRCLE ( 'NONE', #197, 4.500000000000000888 ) ;
#153 = DIRECTION ( 'NONE',  ( 0.000000000000000000, 0.000000000000000000, -1.000000000000000000 ) ) ;
#154 = ORIENTED_EDGE ( 'NONE', *, *, #303, .F. ) ;
#155 = EDGE_CURVE ( 'NONE', #110, #173, #138, .T. ) ;
#156 = LINE ( 'NONE', #264, #130 ) ;
#157 = CARTESIAN_POINT ( 'NONE',  ( 7.000000000000000000, 8.572527594031473190E-16, 5.000000000000000000 ) ) ;
#158 = CIRCLE ( 'NONE', #375, 0.5000000000000004441 ) ;
#159 = CARTESIAN_POINT ( 'NONE',  ( -7.000000000000000000, 0.000000000000000000, 0.000000000000000000 ) ) ;
#160 = ADVANCED_FACE ( 'NONE', ( #211 ), #348, .T. ) ;
#161 = FACE_BOUND ( 'NONE', #143, .T. ) ;
#162 = CARTESIAN_POINT ( 'NONE',  ( -4.500000000000000888, 5.510910596163088569E-16, 5.000000000000002665 ) ) ;
#163 = EDGE_LOOP ( 'NONE', ( #119, #194 ) ) ;
#164 = AXIS2_PLACEMENT_3D ( 'NONE', #212, #354, #351 ) ;
#165 = ORIENTED_EDGE ( 'NONE', *, *, #283, .F. ) ;
#166 = ORIENTED_EDGE ( 'NONE', *, *, #189, .T. ) ;
#167 = AXIS2_PLACEMENT_3D ( 'NONE', #275, #301, #47 ) ;
#168 = VERTEX_POINT ( 'NONE', #159 ) ;
#169 = APPROVAL_ROLE ( '' ) ;
#170 = FACE_OUTER_BOUND ( 'NONE', #274, .T. ) ;
#171 = AXIS2_PLACEMENT_3D ( 'NONE', #203, #176, #127 ) ;
#172 = COORDINATED_UNIVERSAL_TIME_OFFSET ( 1, 0, .AHEAD. ) ;
#173 = VERTEX_POINT ( 'NONE', #36 ) ;
#174 = AXIS2_PLACEMENT_3D ( 'NONE', #140, #223, #72 ) ;
#175 = DIRECTION ( 'NONE',  ( -0.000000000000000000, -0.000000000000000000, -1.000000000000000000 ) ) ;
#176 = DIRECTION ( 'NONE',  ( 0.000000000000000000, 0.000000000000000000, 1.000000000000000000 ) ) ;
#177 = DATE_TIME_ROLE ( 'creation_date' ) ;
#178 = CARTESIAN_POINT ( 'NONE',  ( 0.000000000000000000, 0.000000000000000000, 5.000000000000000000 ) ) ;
#179 = EDGE_CURVE ( 'NONE', #168, #359, #2, .T. ) ;
#180 = CARTESIAN_POINT ( 'NONE',  ( 4.000000000000000000, 4.898587196589412829E-16, 5.500000000000005329 ) ) ;
#181 = CARTESIAN_POINT ( 'NONE',  ( -2.000000000000000000, 0.000000000000000000, 0.000000000000000000 ) ) ;
#182 = EDGE_CURVE ( 'NONE', #113, #278, #124, .T. ) ;
#183 = DIRECTION ( 'NONE',  ( 0.000000000000000000, 0.000000000000000000, 1.000000000000000000 ) ) ;
#184 = PRODUCT_DEFINITION_SHAPE ( 'NONE', 'NONE',  #256 ) ;
#185 = DIRECTION ( 'NONE',  ( 0.000000000000000000, 0.000000000000000000, 1.000000000000000000 ) ) ;
#186 = CARTESIAN_POINT ( 'NONE',  ( 0.000000000000000000, 0.000000000000000000, 455.0000000000000000 ) ) ;
#187 = PERSON ( 'NEURÈENÝ', 'NEURÈENÝ', 'NEURÈENÝ', ('NEURÈENÝ'), ('NEURÈENÝ'), ('NEURÈENÝ') ) ;
#188 = VERTEX_POINT ( 'NONE', #33 ) ;
#189 = EDGE_CURVE ( 'NONE', #219, #226, #327, .T. ) ;
#190 = CARTESIAN_POINT ( 'NONE',  ( 4.500000000000000888, 0.000000000000000000, 5.000000000000002665 ) ) ;
#191 = ORIENTED_EDGE ( 'NONE', *, *, #3, .T. ) ;
#192 = AXIS2_PLACEMENT_3D ( 'NONE', #357, #218, #39 ) ;
#193 =( NAMED_UNIT ( * ) PLANE_ANGLE_UNIT ( ) SI_UNIT ( $, .RADIAN. ) );
#194 = ORIENTED_EDGE ( 'NONE', *, *, #189, .F. ) ;
#195 = DIRECTION ( 'NONE',  ( 1.000000000000000000, 0.000000000000000000, 0.000000000000000000 ) ) ;
#196 = ORIENTED_EDGE ( 'NONE', *, *, #283, .T. ) ;
#197 = AXIS2_PLACEMENT_3D ( 'NONE', #178, #298, #100 ) ;
#198 = CARTESIAN_POINT ( 'NONE',  ( 0.000000000000000000, 0.000000000000000000, 5.500000000000005329 ) ) ;
#199 = EDGE_LOOP ( 'NONE', ( #250, #307 ) ) ;
#200 = PERSON_AND_ORGANIZATION ( #187, #355 ) ;
#201 = ORIENTED_EDGE ( 'NONE', *, *, #3, .F. ) ;
#202 = CC_DESIGN_PERSON_AND_ORGANIZATION_ASSIGNMENT ( #83, #255, ( #256 ) ) ;
#203 = CARTESIAN_POINT ( 'NONE',  ( 0.000000000000000000, 0.000000000000000000, 455.0000000000000000 ) ) ;
#204 = CALENDAR_DATE ( 2022, 8, 7 ) ;
#205 = DIRECTION ( 'NONE',  ( -0.000000000000000000, -0.000000000000000000, -1.000000000000000000 ) ) ;
#206 = ORIENTED_EDGE ( 'NONE', *, *, #311, .T. ) ;
#207 = APPROVAL_STATUS ( 'not_yet_approved' ) ;
#208 = DIRECTION ( 'NONE',  ( 1.000000000000000000, 0.000000000000000000, 0.000000000000000000 ) ) ;
#209 = TOROIDAL_SURFACE ( 'NONE', #20, 4.500000000000000888, 0.5000000000000000000 ) ;
#210 = CARTESIAN_POINT ( 'NONE',  ( 0.000000000000000000, 0.000000000000000000, 0.000000000000000000 ) ) ;
#211 = FACE_OUTER_BOUND ( 'NONE', #294, .T. ) ;
#212 = CARTESIAN_POINT ( 'NONE',  ( 0.000000000000000000, 0.000000000000000000, 0.000000000000000000 ) ) ;
#213 = DIRECTION ( 'NONE',  ( 1.000000000000000000, 0.000000000000000000, 0.000000000000000000 ) ) ;
#214 = DIRECTION ( 'NONE',  ( 1.000000000000000000, 0.000000000000000000, 0.000000000000000000 ) ) ;
#215 = CC_DESIGN_APPROVAL ( #93, ( #322 ) ) ;
#216 = FACE_OUTER_BOUND ( 'NONE', #310, .T. ) ;
#217 = EDGE_CURVE ( 'NONE', #110, #359, #329, .T. ) ;
#218 = DIRECTION ( 'NONE',  ( -0.000000000000000000, -0.000000000000000000, -1.000000000000000000 ) ) ;
#219 = VERTEX_POINT ( 'NONE', #132 ) ;
#220 = CC_DESIGN_SECURITY_CLASSIFICATION ( #322, ( #240 ) ) ;
#221 = LINE ( 'NONE', #248, #41 ) ;
#222 = ORIENTED_EDGE ( 'NONE', *, *, #38, .T. ) ;
#223 = DIRECTION ( 'NONE',  ( 0.000000000000000000, 0.000000000000000000, 1.000000000000000000 ) ) ;
#224 = EDGE_LOOP ( 'NONE', ( #15, #142, #107, #26 ) ) ;
#225 = CLOSED_SHELL ( 'NONE', ( #290, #363, #379, #44, #331, #121, #325, #160, #299, #9, #27 ) ) ;
#226 = VERTEX_POINT ( 'NONE', #181 ) ;
#227 = CIRCLE ( 'NONE', #167, 0.5000000000000004441 ) ;
#228 = DATE_AND_TIME ( #315, #30 ) ;
#229 = CARTESIAN_POINT ( 'NONE',  ( 4.000000000000000000, 4.898587196589412829E-16, 455.0000000000000000 ) ) ;
#230 = CALENDAR_DATE ( 2022, 8, 7 ) ;
#231 = LINE ( 'NONE', #229, #232 ) ;
#232 = VECTOR ( 'NONE', #175, 1000.000000000000000 ) ;
#233 = PERSON_AND_ORGANIZATION_ROLE ( 'design_supplier' ) ;
#234 = VERTEX_POINT ( 'NONE', #349 ) ;
#235 = AXIS2_PLACEMENT_3D ( 'NONE', #77, #335, #195 ) ;
#236 = CARTESIAN_POINT ( 'NONE',  ( 2.000000000000000000, 2.449293598294705921E-16, 455.0000000000000000 ) ) ;
#237 = EDGE_CURVE ( 'NONE', #226, #219, #40, .T. ) ;
#238 = DIRECTION ( 'NONE',  ( -1.000000000000000000, 0.000000000000000000, 0.000000000000000000 ) ) ;
#239 = EDGE_CURVE ( 'NONE', #339, #188, #65, .T. ) ;
#240 = PRODUCT_DEFINITION_FORMATION_WITH_SPECIFIED_SOURCE ( 'LIBOVOLNÝ', '', #244, .NOT_KNOWN. ) ;
#241 = DIRECTION ( 'NONE',  ( -1.000000000000000000, 0.000000000000000000, 0.000000000000000000 ) ) ;
#242 = PLANE ( 'NONE',  #111 ) ;
#243 = DIRECTION ( 'NONE',  ( -0.000000000000000000, -0.000000000000000000, -1.000000000000000000 ) ) ;
#244 = PRODUCT ( 'b3ef', 'b3ef', '', ( #279 ) ) ;
#245 = EDGE_CURVE ( 'NONE', #234, #11, #139, .T. ) ;
#246 = FACE_OUTER_BOUND ( 'NONE', #377, .T. ) ;
#247 = CC_DESIGN_DATE_AND_TIME_ASSIGNMENT ( #367, #90, ( #322 ) ) ;
#248 = CARTESIAN_POINT ( 'NONE',  ( -7.000000000000000000, 0.000000000000000000, 5.000000000000000000 ) ) ;
#249 = APPLICATION_PROTOCOL_DEFINITION ( 'international standard', 'config_control_design', 1994, #144 ) ;
#250 = ORIENTED_EDGE ( 'NONE', *, *, #245, .F. ) ;
#251 = DIRECTION ( 'NONE',  ( -0.000000000000000000, -0.000000000000000000, -1.000000000000000000 ) ) ;
#252 = ORIENTED_EDGE ( 'NONE', *, *, #116, .T. ) ;
#253 = AXIS2_PLACEMENT_3D ( 'NONE', #49, #251, #106 ) ;
#254 = VERTEX_POINT ( 'NONE', #162 ) ;
#255 = PERSON_AND_ORGANIZATION_ROLE ( 'creator' ) ;
#256 = PRODUCT_DEFINITION ( 'NEZNÁMÝ', '', #240, #99 ) ;
#257 = COORDINATED_UNIVERSAL_TIME_OFFSET ( 1, 0, .AHEAD. ) ;
#258 = DIRECTION ( 'NONE',  ( 1.000000000000000000, 0.000000000000000000, 0.000000000000000000 ) ) ;
#259 = CARTESIAN_POINT ( 'NONE',  ( 4.500000000000000888, 0.000000000000000000, 5.500000000000005329 ) ) ;
#260 = CIRCLE ( 'NONE', #309, 7.000000000000000000 ) ;
#261 = CARTESIAN_POINT ( 'NONE',  ( 0.000000000000000000, 0.000000000000000000, 5.000000000000000000 ) ) ;
#262 = CYLINDRICAL_SURFACE ( 'NONE', #101, 2.000000000000000000 ) ;
#263 = APPROVAL ( #207, 'NEURÈENÝ' ) ;
#264 = CARTESIAN_POINT ( 'NONE',  ( -2.000000000000000000, 0.000000000000000000, 455.0000000000000000 ) ) ;
#265 = CIRCLE ( 'NONE', #286, 7.000000000000000000 ) ;
#266 = DIRECTION ( 'NONE',  ( 1.000000000000000000, 0.000000000000000000, 0.000000000000000000 ) ) ;
#267 = UNCERTAINTY_MEASURE_WITH_UNIT (LENGTH_MEASURE( 1.000000000000000082E-05 ), #109, 'distance_accuracy_value', 'NONE');
#268 = FACE_OUTER_BOUND ( 'NONE', #147, .T. ) ;
#269 = DIRECTION ( 'NONE',  ( 0.000000000000000000, 0.000000000000000000, 1.000000000000000000 ) ) ;
#270 = EDGE_CURVE ( 'NONE', #278, #113, #282, .T. ) ;
#271 = CARTESIAN_POINT ( 'NONE',  ( 0.000000000000000000, 0.000000000000000000, 5.500000000000005329 ) ) ;
#272 = DIRECTION ( 'NONE',  ( 1.000000000000000000, 0.000000000000000000, 0.000000000000000000 ) ) ;
#273 = CIRCLE ( 'NONE', #145, 4.500000000000000888 ) ;
#274 = EDGE_LOOP ( 'NONE', ( #78, #45, #74, #291 ) ) ;
#275 = CARTESIAN_POINT ( 'NONE',  ( -4.500000000000000888, 5.510910596163089556E-16, 5.500000000000005329 ) ) ;
#276 = CC_DESIGN_PERSON_AND_ORGANIZATION_ASSIGNMENT ( #346, #233, ( #240 ) ) ;
#277 = ORIENTED_EDGE ( 'NONE', *, *, #239, .T. ) ;
#278 = VERTEX_POINT ( 'NONE', #180 ) ;
#279 = MECHANICAL_CONTEXT ( 'NONE', #144, 'mechanical' ) ;
#280 = AXIS2_PLACEMENT_3D ( 'NONE', #210, #269, #98 ) ;
#281 = EDGE_LOOP ( 'NONE', ( #51, #28, #166, #154 ) ) ;
#282 = CIRCLE ( 'NONE', #328, 4.000000000000000000 ) ;
#283 = EDGE_CURVE ( 'NONE', #188, #339, #350, .T. ) ;
#284 = PERSON_AND_ORGANIZATION ( #187, #355 ) ;
#285 = LINE ( 'NONE', #89, #53 ) ;
#286 = AXIS2_PLACEMENT_3D ( 'NONE', #344, #87, #208 ) ;
#287 = COORDINATED_UNIVERSAL_TIME_OFFSET ( 1, 0, .AHEAD. ) ;
#288 = EDGE_LOOP ( 'NONE', ( #196, #277 ) ) ;
#289 = LOCAL_TIME ( 17, 30, 42.00000000000000000, #172 ) ;
#290 = ADVANCED_FACE ( 'NONE', ( #63 ), #5, .F. ) ;
#291 = ORIENTED_EDGE ( 'NONE', *, *, #237, .T. ) ;
#292 = MANIFOLD_SOLID_BREP ( 'Odebrat vysunutím3', #225 ) ;
#293 = CALENDAR_DATE ( 2022, 8, 7 ) ;
#294 = EDGE_LOOP ( 'NONE', ( #201, #165, #222, #337 ) ) ;
#295 = DIRECTION ( 'NONE',  ( -0.000000000000000000, -0.000000000000000000, -1.000000000000000000 ) ) ;
#296 = DIRECTION ( 'NONE',  ( 0.000000000000000000, 0.000000000000000000, 1.000000000000000000 ) ) ;
#297 = DIRECTION ( 'NONE',  ( 1.000000000000000000, 0.000000000000000000, 0.000000000000000000 ) ) ;
#298 = DIRECTION ( 'NONE',  ( -0.000000000000000000, -0.000000000000000000, -1.000000000000000000 ) ) ;
#299 = ADVANCED_FACE ( 'NONE', ( #68, #131 ), #242, .T. ) ;
#300 = CARTESIAN_POINT ( 'NONE',  ( 0.000000000000000000, 0.000000000000000000, 455.0000000000000000 ) ) ;
#301 = DIRECTION ( 'NONE',  ( 1.224646799147353207E-16, 1.000000000000000000, -0.000000000000000000 ) ) ;
#302 = ORIENTED_EDGE ( 'NONE', *, *, #217, .F. ) ;
#303 = EDGE_CURVE ( 'NONE', #234, #226, #156, .T. ) ;
#304 =( GEOMETRIC_REPRESENTATION_CONTEXT ( 3 ) GLOBAL_UNCERTAINTY_ASSIGNED_CONTEXT ( ( #267 ) ) GLOBAL_UNIT_ASSIGNED_CONTEXT ( ( #109, #193, #73 ) ) REPRESENTATION_CONTEXT ( 'NONE', 'WORKASPACE' ) );
#305 = ORIENTED_EDGE ( 'NONE', *, *, #182, .F. ) ;
#306 = FACE_OUTER_BOUND ( 'NONE', #120, .T. ) ;
#307 = ORIENTED_EDGE ( 'NONE', *, *, #32, .F. ) ;
#308 = CARTESIAN_POINT ( 'NONE',  ( 7.000000000000000000, 8.572527594031473190E-16, 0.000000000000000000 ) ) ;
#309 = AXIS2_PLACEMENT_3D ( 'NONE', #319, #21, #258 ) ;
#310 = EDGE_LOOP ( 'NONE', ( #305, #342, #117, #141 ) ) ;
#311 = EDGE_CURVE ( 'NONE', #254, #366, #273, .T. ) ;
#312 = DATE_AND_TIME ( #230, #4 ) ;
#313 = DIRECTION ( 'NONE',  ( 0.000000000000000000, 0.000000000000000000, -1.000000000000000000 ) ) ;
#314 = EDGE_LOOP ( 'NONE', ( #374, #362, #372, #364 ) ) ;
#315 = CALENDAR_DATE ( 2022, 8, 7 ) ;
#316 = DIRECTION ( 'NONE',  ( -0.000000000000000000, -0.000000000000000000, -1.000000000000000000 ) ) ;
#317 = DIRECTION ( 'NONE',  ( 0.000000000000000000, 0.000000000000000000, 1.000000000000000000 ) ) ;
#318 = CALENDAR_DATE ( 2022, 8, 7 ) ;
#319 = CARTESIAN_POINT ( 'NONE',  ( 0.000000000000000000, 0.000000000000000000, 0.000000000000000000 ) ) ;
#320 = DIRECTION ( 'NONE',  ( 1.000000000000000000, 0.000000000000000000, 0.000000000000000000 ) ) ;
#321 = EDGE_CURVE ( 'NONE', #113, #254, #227, .T. ) ;
#322 = SECURITY_CLASSIFICATION ( '', '', #22 ) ;
#323 = DIRECTION ( 'NONE',  ( 1.000000000000000000, 0.000000000000000000, 0.000000000000000000 ) ) ;
#324 = DIRECTION ( 'NONE',  ( 1.000000000000000000, 0.000000000000000000, 0.000000000000000000 ) ) ;
#325 = ADVANCED_FACE ( 'NONE', ( #14, #306 ), #12, .F. ) ;
#326 = CARTESIAN_POINT ( 'NONE',  ( 0.000000000000000000, 0.000000000000000000, 455.0000000000000000 ) ) ;
#327 = CIRCLE ( 'NONE', #164, 2.000000000000000000 ) ;
#328 = AXIS2_PLACEMENT_3D ( 'NONE', #271, #1, #297 ) ;
#329 = LINE ( 'NONE', #157, #368 ) ;
#330 = CYLINDRICAL_SURFACE ( 'NONE', #192, 4.000000000000000000 ) ;
#331 = ADVANCED_FACE ( 'NONE', ( #246 ), #10, .T. ) ;
#332 = CIRCLE ( 'NONE', #171, 2.000000000000000000 ) ;
#333 = ORIENTED_EDGE ( 'NONE', *, *, #16, .F. ) ;
#334 = AXIS2_PLACEMENT_3D ( 'NONE', #198, #43, #79 ) ;
#335 = DIRECTION ( 'NONE',  ( 0.000000000000000000, 0.000000000000000000, 1.000000000000000000 ) ) ;
#336 = CARTESIAN_POINT ( 'NONE',  ( 4.000000000000000000, 4.898587196589412829E-16, 455.0000000000000000 ) ) ;
#337 = ORIENTED_EDGE ( 'NONE', *, *, #182, .T. ) ;
#338 = PERSON_AND_ORGANIZATION ( #187, #355 ) ;
#339 = VERTEX_POINT ( 'NONE', #336 ) ;
#340 = CC_DESIGN_PERSON_AND_ORGANIZATION_ASSIGNMENT ( #338, #58, ( #240 ) ) ;
#341 = APPROVAL_DATE_TIME ( #86, #263 ) ;
#342 = ORIENTED_EDGE ( 'NONE', *, *, #321, .T. ) ;
#343 = APPROVAL_ROLE ( '' ) ;
#344 = CARTESIAN_POINT ( 'NONE',  ( 0.000000000000000000, 0.000000000000000000, 5.000000000000000000 ) ) ;
#345 = AXIS2_PLACEMENT_3D ( 'NONE', #300, #37, #266 ) ;
#346 = PERSON_AND_ORGANIZATION ( #187, #355 ) ;
#347 = DIRECTION ( 'NONE',  ( -1.000000000000000000, 0.000000000000000000, 0.000000000000000000 ) ) ;
#348 = CYLINDRICAL_SURFACE ( 'NONE', #29, 4.000000000000000000 ) ;
#349 = CARTESIAN_POINT ( 'NONE',  ( -2.000000000000000000, 0.000000000000000000, 455.0000000000000000 ) ) ;
#350 = CIRCLE ( 'NONE', #17, 4.000000000000000000 ) ;
#351 = DIRECTION ( 'NONE',  ( 1.000000000000000000, 0.000000000000000000, 0.000000000000000000 ) ) ;
#352 = EDGE_CURVE ( 'NONE', #173, #168, #221, .T. ) ;
#353 = DIRECTION ( 'NONE',  ( 0.000000000000000000, 0.000000000000000000, 1.000000000000000000 ) ) ;
#354 = DIRECTION ( 'NONE',  ( -0.000000000000000000, -0.000000000000000000, -1.000000000000000000 ) ) ;
#355 = ORGANIZATION ( 'NEURÈENÝ', 'NEURÈENÝ', '' ) ;
#356 = CARTESIAN_POINT ( 'NONE',  ( 0.000000000000000000, 0.000000000000000000, 5.000000000000000000 ) ) ;
#357 = CARTESIAN_POINT ( 'NONE',  ( 0.000000000000000000, 0.000000000000000000, 455.0000000000000000 ) ) ;
#358 = ORIENTED_EDGE ( 'NONE', *, *, #239, .F. ) ;
#359 = VERTEX_POINT ( 'NONE', #308 ) ;
#360 = TOROIDAL_SURFACE ( 'NONE', #334, 4.500000000000000888, 0.5000000000000000000 ) ;
#361 = DIRECTION ( 'NONE',  ( -0.000000000000000000, -0.000000000000000000, -1.000000000000000000 ) ) ;
#362 = ORIENTED_EDGE ( 'NONE', *, *, #217, .T. ) ;
#363 = ADVANCED_FACE ( 'NONE', ( #216 ), #360, .F. ) ;
#364 = ORIENTED_EDGE ( 'NONE', *, *, #352, .F. ) ;
#365 = PERSON_AND_ORGANIZATION ( #187, #355 ) ;
#366 = VERTEX_POINT ( 'NONE', #190 ) ;
#367 = DATE_AND_TIME ( #293, #75 ) ;
#368 = VECTOR ( 'NONE', #295, 1000.000000000000000 ) ;
#369 = CARTESIAN_POINT ( 'NONE',  ( 7.000000000000000000, 8.572527594031473190E-16, 5.000000000000000000 ) ) ;
#370 = CC_DESIGN_APPROVAL ( #263, ( #256 ) ) ;
#371 = COORDINATED_UNIVERSAL_TIME_OFFSET ( 1, 0, .AHEAD. ) ;
#372 = ORIENTED_EDGE ( 'NONE', *, *, #102, .T. ) ;
#373 = PERSON_AND_ORGANIZATION_ROLE ( 'classification_officer' ) ;
#374 = ORIENTED_EDGE ( 'NONE', *, *, #155, .F. ) ;
#375 = AXIS2_PLACEMENT_3D ( 'NONE', #259, #23, #92 ) ;
#376 = SHAPE_DEFINITION_REPRESENTATION ( #184, #114 ) ;
#377 = EDGE_LOOP ( 'NONE', ( #302, #333, #42, #80 ) ) ;
#378 = APPROVAL_PERSON_ORGANIZATION ( #200, #93, #343 ) ;
#379 = ADVANCED_FACE ( 'NONE', ( #134 ), #330, .T. ) ;
#380 = DIRECTION ( 'NONE',  ( -1.000000000000000000, 0.000000000000000000, 0.000000000000000000 ) ) ;
#381 = DIRECTION ( 'NONE',  ( 1.000000000000000000, 0.000000000000000000, -0.000000000000000000 ) ) ;
ENDSEC;
END-ISO-10303-21;
