ISO-10303-21;
HEADER;
FILE_DESCRIPTION (( 'STEP AP203' ),
    '1' );
FILE_NAME ('930c.STEP',
    '2022-07-08T14:56:27',
    ( '' ),
    ( '' ),
    'SwSTEP 2.0',
    'SolidWorks 2019',
    '' );
FILE_SCHEMA (( 'CONFIG_CONTROL_DESIGN' ));
ENDSEC;

DATA;
#1 = CC_DESIGN_DATE_AND_TIME_ASSIGNMENT ( #202, #229, ( #316 ) ) ;
#2 = AXIS2_PLACEMENT_3D ( 'NONE', #173, #32, #82 ) ;
#3 = APPROVAL_PERSON_ORGANIZATION ( #313, #91, #280 ) ;
#4 = AXIS2_PLACEMENT_3D ( 'NONE', #341, #286, #292 ) ;
#5 = ORIENTED_EDGE ( 'NONE', *, *, #80, .T. ) ;
#6 = DIRECTION ( 'NONE',  ( 0.000000000000000000, 0.000000000000000000, -1.000000000000000000 ) ) ;
#7 = VERTEX_POINT ( 'NONE', #277 ) ;
#8 = PLANE ( 'NONE',  #231 ) ;
#9 = ORIENTED_EDGE ( 'NONE', *, *, #221, .T. ) ;
#10 = ADVANCED_FACE ( 'NONE', ( #17 ), #380, .F. ) ;
#11 = DIRECTION ( 'NONE',  ( 1.000000000000000000, 0.000000000000000000, 0.000000000000000000 ) ) ;
#12 = EDGE_LOOP ( 'NONE', ( #300, #189, #335, #323 ) ) ;
#13 = ORIENTED_EDGE ( 'NONE', *, *, #27, .F. ) ;
#14 = CLOSED_SHELL ( 'NONE', ( #84, #10, #38, #69, #340, #242, #331, #275, #143, #157, #184 ) ) ;
#15 = DIRECTION ( 'NONE',  ( -0.000000000000000000, -0.000000000000000000, -1.000000000000000000 ) ) ;
#16 = EDGE_CURVE ( 'NONE', #246, #209, #279, .T. ) ;
#17 = FACE_OUTER_BOUND ( 'NONE', #131, .T. ) ;
#18 = DIRECTION ( 'NONE',  ( 0.000000000000000000, 0.000000000000000000, 1.000000000000000000 ) ) ;
#19 = DATE_AND_TIME ( #87, #107 ) ;
#20 = CC_DESIGN_PERSON_AND_ORGANIZATION_ASSIGNMENT ( #137, #28, ( #371 ) ) ;
#21 = FACE_OUTER_BOUND ( 'NONE', #328, .T. ) ;
#22 = VECTOR ( 'NONE', #215, 1000.000000000000000 ) ;
#23 = DIRECTION ( 'NONE',  ( 0.000000000000000000, 0.000000000000000000, 1.000000000000000000 ) ) ;
#24 = ORIENTED_EDGE ( 'NONE', *, *, #148, .F. ) ;
#25 = APPROVAL_DATE_TIME ( #110, #258 ) ;
#26 = FACE_OUTER_BOUND ( 'NONE', #186, .T. ) ;
#27 = EDGE_CURVE ( 'NONE', #293, #244, #48, .T. ) ;
#28 = PERSON_AND_ORGANIZATION_ROLE ( 'design_supplier' ) ;
#29 = LOCAL_TIME ( 16, 56, 27.00000000000000000, #255 ) ;
#30 = APPROVAL_ROLE ( '' ) ;
#31 = CARTESIAN_POINT ( 'NONE',  ( -8.000000000000000000, 0.000000000000000000, 5.000000000000000000 ) ) ;
#32 = DIRECTION ( 'NONE',  ( -0.000000000000000000, -0.000000000000000000, -1.000000000000000000 ) ) ;
#33 = ORIENTED_EDGE ( 'NONE', *, *, #284, .T. ) ;
#34 =( GEOMETRIC_REPRESENTATION_CONTEXT ( 3 ) GLOBAL_UNCERTAINTY_ASSIGNED_CONTEXT ( ( #185 ) ) GLOBAL_UNIT_ASSIGNED_CONTEXT ( ( #158, #46, #366 ) ) REPRESENTATION_CONTEXT ( 'NONE', 'WORKASPACE' ) );
#35 = PLANE ( 'NONE',  #238 ) ;
#36 = VERTEX_POINT ( 'NONE', #225 ) ;
#37 = ORIENTED_EDGE ( 'NONE', *, *, #214, .T. ) ;
#38 = ADVANCED_FACE ( 'NONE', ( #78 ), #338, .T. ) ;
#39 = CARTESIAN_POINT ( 'NONE',  ( 5.000000000000000000, 6.123233995736766282E-16, 5.499999999999949374 ) ) ;
#40 = EDGE_LOOP ( 'NONE', ( #290, #367 ) ) ;
#41 = CIRCLE ( 'NONE', #2, 5.500000000000000000 ) ;
#42 = DIRECTION ( 'NONE',  ( -1.000000000000000000, 0.000000000000000000, 0.000000000000000000 ) ) ;
#43 = VERTEX_POINT ( 'NONE', #227 ) ;
#44 = EDGE_CURVE ( 'NONE', #43, #7, #342, .T. ) ;
#45 = AXIS2_PLACEMENT_3D ( 'NONE', #252, #369, #160 ) ;
#46 =( NAMED_UNIT ( * ) PLANE_ANGLE_UNIT ( ) SI_UNIT ( $, .RADIAN. ) );
#47 = ORIENTED_EDGE ( 'NONE', *, *, #291, .F. ) ;
#48 = CIRCLE ( 'NONE', #183, 5.000000000000000000 ) ;
#49 = CIRCLE ( 'NONE', #325, 0.5000000000000004441 ) ;
#50 = EDGE_CURVE ( 'NONE', #246, #293, #132, .T. ) ;
#51 = DIRECTION ( 'NONE',  ( 1.000000000000000000, 0.000000000000000000, 0.000000000000000000 ) ) ;
#52 = CARTESIAN_POINT ( 'NONE',  ( 0.000000000000000000, 0.000000000000000000, 555.0000000000000000 ) ) ;
#53 = DIRECTION ( 'NONE',  ( 0.000000000000000000, 0.000000000000000000, 1.000000000000000000 ) ) ;
#54 = CC_DESIGN_APPROVAL ( #91, ( #165 ) ) ;
#55 = DATE_TIME_ROLE ( 'classification_date' ) ;
#56 = CARTESIAN_POINT ( 'NONE',  ( 0.000000000000000000, 0.000000000000000000, 0.000000000000000000 ) ) ;
#57 = CC_DESIGN_PERSON_AND_ORGANIZATION_ASSIGNMENT ( #140, #167, ( #371 ) ) ;
#58 = CARTESIAN_POINT ( 'NONE',  ( -8.000000000000000000, 0.000000000000000000, 0.000000000000000000 ) ) ;
#59 = DIRECTION ( 'NONE',  ( 0.000000000000000000, 0.000000000000000000, -1.000000000000000000 ) ) ;
#60 = PRODUCT ( '930c', '930c', '', ( #193 ) ) ;
#61 = EDGE_CURVE ( 'NONE', #120, #36, #176, .T. ) ;
#62 = DIRECTION ( 'NONE',  ( 1.000000000000000000, 0.000000000000000000, -0.000000000000000000 ) ) ;
#63 = ORIENTED_EDGE ( 'NONE', *, *, #201, .T. ) ;
#64 = AXIS2_PLACEMENT_3D ( 'NONE', #219, #303, #156 ) ;
#65 = DIRECTION ( 'NONE',  ( 0.000000000000000000, -1.000000000000000000, 0.000000000000000000 ) ) ;
#66 = ORIENTED_EDGE ( 'NONE', *, *, #44, .F. ) ;
#67 = AXIS2_PLACEMENT_3D ( 'NONE', #295, #72, #324 ) ;
#68 = ORIENTED_EDGE ( 'NONE', *, *, #44, .T. ) ;
#69 = ADVANCED_FACE ( 'NONE', ( #21 ), #373, .T. ) ;
#70 = CARTESIAN_POINT ( 'NONE',  ( -5.000000000000000000, 0.000000000000000000, 5.499999999999949374 ) ) ;
#71 = VERTEX_POINT ( 'NONE', #127 ) ;
#72 = DIRECTION ( 'NONE',  ( -0.000000000000000000, -0.000000000000000000, -1.000000000000000000 ) ) ;
#73 = EDGE_CURVE ( 'NONE', #7, #43, #190, .T. ) ;
#74 = APPLICATION_PROTOCOL_DEFINITION ( 'international standard', 'config_control_design', 1994, #104 ) ;
#75 = DIRECTION ( 'NONE',  ( 1.000000000000000000, 0.000000000000000000, 0.000000000000000000 ) ) ;
#76 = AXIS2_PLACEMENT_3D ( 'NONE', #164, #23, #257 ) ;
#77 = DIRECTION ( 'NONE',  ( 0.000000000000000000, 0.000000000000000000, -1.000000000000000000 ) ) ;
#78 = FACE_OUTER_BOUND ( 'NONE', #357, .T. ) ;
#79 = CIRCLE ( 'NONE', #333, 8.000000000000000000 ) ;
#80 = EDGE_CURVE ( 'NONE', #106, #177, #271, .T. ) ;
#81 = ORIENTED_EDGE ( 'NONE', *, *, #50, .F. ) ;
#82 = DIRECTION ( 'NONE',  ( 1.000000000000000000, 0.000000000000000000, 0.000000000000000000 ) ) ;
#83 = DATE_AND_TIME ( #372, #302 ) ;
#84 = ADVANCED_FACE ( 'NONE', ( #265 ), #139, .F. ) ;
#85 = CARTESIAN_POINT ( 'NONE',  ( 8.000000000000000000, 9.797174393178825657E-16, 0.000000000000000000 ) ) ;
#86 = PERSON_AND_ORGANIZATION_ROLE ( 'classification_officer' ) ;
#87 = CALENDAR_DATE ( 2022, 8, 7 ) ;
#88 = ORIENTED_EDGE ( 'NONE', *, *, #73, .T. ) ;
#89 = PERSON ( 'NEURÈENÝ', 'NEURÈENÝ', 'NEURÈENÝ', ('NEURÈENÝ'), ('NEURÈENÝ'), ('NEURÈENÝ') ) ;
#90 = DIRECTION ( 'NONE',  ( 1.000000000000000000, 0.000000000000000000, 0.000000000000000000 ) ) ;
#91 = APPROVAL ( #115, 'NEURÈENÝ' ) ;
#92 = CIRCLE ( 'NONE', #358, 8.000000000000000000 ) ;
#93 = DIRECTION ( 'NONE',  ( 1.000000000000000000, 0.000000000000000000, 0.000000000000000000 ) ) ;
#94 = ORIENTED_EDGE ( 'NONE', *, *, #73, .F. ) ;
#95 = APPROVAL ( #171, 'NEURÈENÝ' ) ;
#96 = FACE_OUTER_BOUND ( 'NONE', #147, .T. ) ;
#97 = EDGE_LOOP ( 'NONE', ( #68, #355, #240, #347 ) ) ;
#98 = AXIS2_PLACEMENT_3D ( 'NONE', #304, #336, #250 ) ;
#99 = CARTESIAN_POINT ( 'NONE',  ( 8.000000000000000000, 9.797174393178825657E-16, 5.000000000000000000 ) ) ;
#100 = CARTESIAN_POINT ( 'NONE',  ( 0.000000000000000000, 0.000000000000000000, 5.499999999999949374 ) ) ;
#101 = VERTEX_POINT ( 'NONE', #58 ) ;
#102 = APPLICATION_PROTOCOL_DEFINITION ( 'international standard', 'config_control_design', 1994, #145 ) ;
#103 = VECTOR ( 'NONE', #374, 1000.000000000000000 ) ;
#104 = APPLICATION_CONTEXT ( 'configuration controlled 3d designs of mechanical parts and assemblies' ) ;
#105 = EDGE_LOOP ( 'NONE', ( #321, #149 ) ) ;
#106 = VERTEX_POINT ( 'NONE', #377 ) ;
#107 = LOCAL_TIME ( 16, 56, 27.00000000000000000, #262 ) ;
#108 = CARTESIAN_POINT ( 'NONE',  ( -3.000000000000000444, 0.000000000000000000, 555.0000000000000000 ) ) ;
#109 = EDGE_CURVE ( 'NONE', #43, #36, #112, .T. ) ;
#110 = DATE_AND_TIME ( #169, #29 ) ;
#111 = CALENDAR_DATE ( 2022, 8, 7 ) ;
#112 = LINE ( 'NONE', #108, #187 ) ;
#113 = ORIENTED_EDGE ( 'NONE', *, *, #148, .T. ) ;
#114 = CC_DESIGN_APPROVAL ( #258, ( #371 ) ) ;
#115 = APPROVAL_STATUS ( 'not_yet_approved' ) ;
#116 = CARTESIAN_POINT ( 'NONE',  ( 0.000000000000000000, 0.000000000000000000, 555.0000000000000000 ) ) ;
#117 = VERTEX_POINT ( 'NONE', #85 ) ;
#118 = APPROVAL_PERSON_ORGANIZATION ( #218, #95, #30 ) ;
#119 = DIRECTION ( 'NONE',  ( 0.000000000000000000, 0.000000000000000000, -1.000000000000000000 ) ) ;
#120 = VERTEX_POINT ( 'NONE', #233 ) ;
#121 = CARTESIAN_POINT ( 'NONE',  ( -5.500000000000000000, 6.735557395310442023E-16, 5.499999999999949374 ) ) ;
#122 = VERTEX_POINT ( 'NONE', #170 ) ;
#123 = FACE_BOUND ( 'NONE', #105, .T. ) ;
#124 = DIRECTION ( 'NONE',  ( 0.000000000000000000, 0.000000000000000000, 1.000000000000000000 ) ) ;
#125 = ORIENTED_EDGE ( 'NONE', *, *, #50, .T. ) ;
#126 = EDGE_CURVE ( 'NONE', #177, #117, #200, .T. ) ;
#127 = CARTESIAN_POINT ( 'NONE',  ( 5.500000000000000000, 0.000000000000000000, 4.999999999999975131 ) ) ;
#128 = DIRECTION ( 'NONE',  ( -0.000000000000000000, -0.000000000000000000, -1.000000000000000000 ) ) ;
#129 = DIRECTION ( 'NONE',  ( 0.000000000000000000, 0.000000000000000000, 1.000000000000000000 ) ) ;
#130 = PRODUCT_RELATED_PRODUCT_CATEGORY ( 'detail', '', ( #60 ) ) ;
#131 = EDGE_LOOP ( 'NONE', ( #361, #9, #348, #296 ) ) ;
#132 = LINE ( 'NONE', #254, #217 ) ;
#133 = DIRECTION ( 'NONE',  ( 1.000000000000000000, 0.000000000000000000, 0.000000000000000000 ) ) ;
#134 = EDGE_CURVE ( 'NONE', #36, #120, #318, .T. ) ;
#135 = COORDINATED_UNIVERSAL_TIME_OFFSET ( 1, 0, .AHEAD. ) ;
#136 = FACE_BOUND ( 'NONE', #206, .T. ) ;
#137 = PERSON_AND_ORGANIZATION ( #89, #249 ) ;
#138 = AXIS2_PLACEMENT_3D ( 'NONE', #194, #18, #133 ) ;
#139 = CYLINDRICAL_SURFACE ( 'NONE', #239, 3.000000000000000444 ) ;
#140 = PERSON_AND_ORGANIZATION ( #89, #249 ) ;
#141 = DIRECTION ( 'NONE',  ( 0.000000000000000000, 0.000000000000000000, 1.000000000000000000 ) ) ;
#142 = CC_DESIGN_SECURITY_CLASSIFICATION ( #165, ( #371 ) ) ;
#143 = ADVANCED_FACE ( 'NONE', ( #136, #314 ), #315, .T. ) ;
#144 = CARTESIAN_POINT ( 'NONE',  ( 0.000000000000000000, 0.000000000000000000, 5.499999999999949374 ) ) ;
#145 = APPLICATION_CONTEXT ( 'configuration controlled 3d designs of mechanical parts and assemblies' ) ;
#146 = CARTESIAN_POINT ( 'NONE',  ( -5.000000000000000000, 0.000000000000000000, 555.0000000000000000 ) ) ;
#147 = EDGE_LOOP ( 'NONE', ( #5, #191 ) ) ;
#148 = EDGE_CURVE ( 'NONE', #209, #246, #166, .T. ) ;
#149 = ORIENTED_EDGE ( 'NONE', *, *, #174, .T. ) ;
#150 = CARTESIAN_POINT ( 'NONE',  ( 5.000000000000000000, 6.123233995736766282E-16, 555.0000000000000000 ) ) ;
#151 = TOROIDAL_SURFACE ( 'NONE', #205, 5.500000000000000000, 0.5000000000000000000 ) ;
#152 = CIRCLE ( 'NONE', #364, 0.5000000000000004441 ) ;
#153 = EDGE_CURVE ( 'NONE', #106, #101, #289, .T. ) ;
#154 = ORIENTED_EDGE ( 'NONE', *, *, #126, .T. ) ;
#155 = CARTESIAN_POINT ( 'NONE',  ( 0.000000000000000000, 0.000000000000000000, 0.000000000000000000 ) ) ;
#156 = DIRECTION ( 'NONE',  ( -1.000000000000000000, 0.000000000000000000, 0.000000000000000000 ) ) ;
#157 = ADVANCED_FACE ( 'NONE', ( #26 ), #151, .F. ) ;
#158 =( LENGTH_UNIT ( ) NAMED_UNIT ( * ) SI_UNIT ( .MILLI., .METRE. ) );
#159 = DIRECTION ( 'NONE',  ( 0.000000000000000000, 0.000000000000000000, 1.000000000000000000 ) ) ;
#160 = DIRECTION ( 'NONE',  ( -1.000000000000000000, 0.000000000000000000, 0.000000000000000000 ) ) ;
#161 = DIRECTION ( 'NONE',  ( -0.000000000000000000, -0.000000000000000000, -1.000000000000000000 ) ) ;
#162 = CALENDAR_DATE ( 2022, 8, 7 ) ;
#163 = AXIS2_PLACEMENT_3D ( 'NONE', #56, #203, #198 ) ;
#164 = CARTESIAN_POINT ( 'NONE',  ( 0.000000000000000000, 0.000000000000000000, 555.0000000000000000 ) ) ;
#165 = SECURITY_CLASSIFICATION ( '', '', #197 ) ;
#166 = CIRCLE ( 'NONE', #4, 5.000000000000000000 ) ;
#167 = PERSON_AND_ORGANIZATION_ROLE ( 'creator' ) ;
#168 = CARTESIAN_POINT ( 'NONE',  ( 0.000000000000000000, 0.000000000000000000, 555.0000000000000000 ) ) ;
#169 = CALENDAR_DATE ( 2022, 8, 7 ) ;
#170 = CARTESIAN_POINT ( 'NONE',  ( -5.500000000000000000, 6.735557395310442023E-16, 4.999999999999975131 ) ) ;
#171 = APPROVAL_STATUS ( 'not_yet_approved' ) ;
#172 = ORIENTED_EDGE ( 'NONE', *, *, #134, .T. ) ;
#173 = CARTESIAN_POINT ( 'NONE',  ( 0.000000000000000000, 0.000000000000000000, 5.000000000000000000 ) ) ;
#174 = EDGE_CURVE ( 'NONE', #122, #71, #41, .T. ) ;
#175 = CYLINDRICAL_SURFACE ( 'NONE', #243, 3.000000000000000444 ) ;
#176 = CIRCLE ( 'NONE', #259, 3.000000000000000444 ) ;
#177 = VERTEX_POINT ( 'NONE', #99 ) ;
#178 = DIRECTION ( 'NONE',  ( 0.000000000000000000, 0.000000000000000000, 1.000000000000000000 ) ) ;
#179 = ORIENTED_EDGE ( 'NONE', *, *, #109, .T. ) ;
#180 = DIRECTION ( 'NONE',  ( -1.000000000000000000, 1.224646799147351482E-16, 0.000000000000000000 ) ) ;
#181 = FACE_OUTER_BOUND ( 'NONE', #268, .T. ) ;
#182 = ORIENTED_EDGE ( 'NONE', *, *, #353, .F. ) ;
#183 = AXIS2_PLACEMENT_3D ( 'NONE', #278, #159, #75 ) ;
#184 = ADVANCED_FACE ( 'NONE', ( #237 ), #175, .F. ) ;
#185 = UNCERTAINTY_MEASURE_WITH_UNIT (LENGTH_MEASURE( 1.000000000000000082E-05 ), #158, 'distance_accuracy_value', 'NONE');
#186 = EDGE_LOOP ( 'NONE', ( #266, #13, #37, #273 ) ) ;
#187 = VECTOR ( 'NONE', #59, 1000.000000000000000 ) ;
#188 = DIRECTION ( 'NONE',  ( 0.000000000000000000, 0.000000000000000000, 1.000000000000000000 ) ) ;
#189 = ORIENTED_EDGE ( 'NONE', *, *, #80, .F. ) ;
#190 = CIRCLE ( 'NONE', #310, 3.000000000000000444 ) ;
#191 = ORIENTED_EDGE ( 'NONE', *, *, #230, .T. ) ;
#192 = AXIS2_PLACEMENT_3D ( 'NONE', #339, #307, #51 ) ;
#193 = MECHANICAL_CONTEXT ( 'NONE', #104, 'mechanical' ) ;
#194 = CARTESIAN_POINT ( 'NONE',  ( 0.000000000000000000, 0.000000000000000000, 555.0000000000000000 ) ) ;
#195 = ORIENTED_EDGE ( 'NONE', *, *, #291, .T. ) ;
#196 = CC_DESIGN_DATE_AND_TIME_ASSIGNMENT ( #83, #55, ( #165 ) ) ;
#197 = SECURITY_CLASSIFICATION_LEVEL ( 'unclassified' ) ;
#198 = DIRECTION ( 'NONE',  ( 1.000000000000000000, 0.000000000000000000, 0.000000000000000000 ) ) ;
#199 = CIRCLE ( 'NONE', #351, 5.000000000000000000 ) ;
#200 = LINE ( 'NONE', #312, #103 ) ;
#201 = EDGE_CURVE ( 'NONE', #117, #101, #359, .T. ) ;
#202 = DATE_AND_TIME ( #162, #212 ) ;
#203 = DIRECTION ( 'NONE',  ( -0.000000000000000000, -0.000000000000000000, -1.000000000000000000 ) ) ;
#204 = DATE_AND_TIME ( #111, #376 ) ;
#205 = AXIS2_PLACEMENT_3D ( 'NONE', #144, #350, #90 ) ;
#206 = EDGE_LOOP ( 'NONE', ( #66, #94 ) ) ;
#207 = APPROVAL_PERSON_ORGANIZATION ( #264, #258, #287 ) ;
#208 = DIRECTION ( 'NONE',  ( 1.000000000000000000, 0.000000000000000000, 0.000000000000000000 ) ) ;
#209 = VERTEX_POINT ( 'NONE', #146 ) ;
#210 = FACE_OUTER_BOUND ( 'NONE', #40, .T. ) ;
#211 = CARTESIAN_POINT ( 'NONE',  ( 0.000000000000000000, 0.000000000000000000, 0.000000000000000000 ) ) ;
#212 = LOCAL_TIME ( 16, 56, 27.00000000000000000, #288 ) ;
#213 = CARTESIAN_POINT ( 'NONE',  ( 0.000000000000000000, 0.000000000000000000, 5.000000000000000000 ) ) ;
#214 = EDGE_CURVE ( 'NONE', #293, #71, #152, .T. ) ;
#215 = DIRECTION ( 'NONE',  ( -0.000000000000000000, -0.000000000000000000, -1.000000000000000000 ) ) ;
#216 = ORIENTED_EDGE ( 'NONE', *, *, #27, .T. ) ;
#217 = VECTOR ( 'NONE', #15, 1000.000000000000000 ) ;
#218 = PERSON_AND_ORGANIZATION ( #89, #249 ) ;
#219 = CARTESIAN_POINT ( 'NONE',  ( 0.000000000000000000, 0.000000000000000000, 5.000000000000000000 ) ) ;
#220 = VECTOR ( 'NONE', #77, 1000.000000000000000 ) ;
#221 = EDGE_CURVE ( 'NONE', #244, #122, #49, .T. ) ;
#222 = LINE ( 'NONE', #334, #220 ) ;
#223 = VECTOR ( 'NONE', #319, 1000.000000000000000 ) ;
#224 = DIRECTION ( 'NONE',  ( 1.000000000000000000, 0.000000000000000000, 0.000000000000000000 ) ) ;
#225 = CARTESIAN_POINT ( 'NONE',  ( -3.000000000000000444, 0.000000000000000000, 0.000000000000000000 ) ) ;
#226 = DIRECTION ( 'NONE',  ( 1.000000000000000000, 0.000000000000000000, 0.000000000000000000 ) ) ;
#227 = CARTESIAN_POINT ( 'NONE',  ( -3.000000000000000444, 0.000000000000000000, 555.0000000000000000 ) ) ;
#228 = APPROVAL_DATE_TIME ( #19, #91 ) ;
#229 = DATE_TIME_ROLE ( 'creation_date' ) ;
#230 = EDGE_CURVE ( 'NONE', #177, #106, #92, .T. ) ;
#231 = AXIS2_PLACEMENT_3D ( 'NONE', #352, #327, #62 ) ;
#232 = ADVANCED_BREP_SHAPE_REPRESENTATION ( '930c', ( #251, #192 ), #34 ) ;
#233 = CARTESIAN_POINT ( 'NONE',  ( 3.000000000000000444, 3.673940397442060361E-16, 0.000000000000000000 ) ) ;
#234 = COORDINATED_UNIVERSAL_TIME_OFFSET ( 1, 0, .AHEAD. ) ;
#235 = DIRECTION ( 'NONE',  ( 0.000000000000000000, 0.000000000000000000, -1.000000000000000000 ) ) ;
#236 = EDGE_LOOP ( 'NONE', ( #182, #88, #179, #172 ) ) ;
#237 = FACE_OUTER_BOUND ( 'NONE', #236, .T. ) ;
#238 = AXIS2_PLACEMENT_3D ( 'NONE', #211, #124, #329 ) ;
#239 = AXIS2_PLACEMENT_3D ( 'NONE', #116, #235, #346 ) ;
#240 = ORIENTED_EDGE ( 'NONE', *, *, #61, .T. ) ;
#241 = LINE ( 'NONE', #299, #22 ) ;
#242 = ADVANCED_FACE ( 'NONE', ( #123, #96 ), #8, .T. ) ;
#243 = AXIS2_PLACEMENT_3D ( 'NONE', #270, #6, #42 ) ;
#244 = VERTEX_POINT ( 'NONE', #70 ) ;
#245 = PERSON_AND_ORGANIZATION ( #89, #249 ) ;
#246 = VERTEX_POINT ( 'NONE', #150 ) ;
#247 = AXIS2_PLACEMENT_3D ( 'NONE', #343, #141, #263 ) ;
#248 = FACE_OUTER_BOUND ( 'NONE', #12, .T. ) ;
#249 = ORGANIZATION ( 'NEURÈENÝ', 'NEURÈENÝ', '' ) ;
#250 = DIRECTION ( 'NONE',  ( -1.000000000000000000, 0.000000000000000000, 0.000000000000000000 ) ) ;
#251 = MANIFOLD_SOLID_BREP ( 'Odebrat vysunutím3', #14 ) ;
#252 = CARTESIAN_POINT ( 'NONE',  ( 0.000000000000000000, 0.000000000000000000, 555.0000000000000000 ) ) ;
#253 = CARTESIAN_POINT ( 'NONE',  ( 0.000000000000000000, 0.000000000000000000, 5.000000000000000000 ) ) ;
#254 = CARTESIAN_POINT ( 'NONE',  ( 5.000000000000000000, 6.123233995736766282E-16, 555.0000000000000000 ) ) ;
#255 = COORDINATED_UNIVERSAL_TIME_OFFSET ( 1, 0, .AHEAD. ) ;
#256 = APPROVAL_STATUS ( 'not_yet_approved' ) ;
#257 = DIRECTION ( 'NONE',  ( 1.000000000000000000, 0.000000000000000000, -0.000000000000000000 ) ) ;
#258 = APPROVAL ( #256, 'NEURÈENÝ' ) ;
#259 = AXIS2_PLACEMENT_3D ( 'NONE', #370, #161, #281 ) ;
#260 = PERSON_AND_ORGANIZATION ( #89, #249 ) ;
#261 = DESIGN_CONTEXT ( 'detailed design', #145, 'design' ) ;
#262 = COORDINATED_UNIVERSAL_TIME_OFFSET ( 1, 0, .AHEAD. ) ;
#263 = DIRECTION ( 'NONE',  ( 1.000000000000000000, 0.000000000000000000, 0.000000000000000000 ) ) ;
#264 = PERSON_AND_ORGANIZATION ( #89, #249 ) ;
#265 = FACE_OUTER_BOUND ( 'NONE', #97, .T. ) ;
#266 = ORIENTED_EDGE ( 'NONE', *, *, #221, .F. ) ;
#267 = CARTESIAN_POINT ( 'NONE',  ( 0.000000000000000000, 0.000000000000000000, 0.000000000000000000 ) ) ;
#268 = EDGE_LOOP ( 'NONE', ( #81, #24, #195, #33 ) ) ;
#269 = ORIENTED_EDGE ( 'NONE', *, *, #16, .T. ) ;
#270 = CARTESIAN_POINT ( 'NONE',  ( 0.000000000000000000, 0.000000000000000000, 555.0000000000000000 ) ) ;
#271 = CIRCLE ( 'NONE', #247, 8.000000000000000000 ) ;
#272 = FACE_BOUND ( 'NONE', #285, .T. ) ;
#273 = ORIENTED_EDGE ( 'NONE', *, *, #174, .F. ) ;
#274 = AXIS2_PLACEMENT_3D ( 'NONE', #267, #360, #11 ) ;
#275 = ADVANCED_FACE ( 'NONE', ( #181 ), #354, .T. ) ;
#276 = CYLINDRICAL_SURFACE ( 'NONE', #98, 8.000000000000000000 ) ;
#277 = CARTESIAN_POINT ( 'NONE',  ( 3.000000000000000444, 3.673940397442060361E-16, 555.0000000000000000 ) ) ;
#278 = CARTESIAN_POINT ( 'NONE',  ( 0.000000000000000000, 0.000000000000000000, 5.499999999999949374 ) ) ;
#279 = CIRCLE ( 'NONE', #375, 5.000000000000000000 ) ;
#280 = APPROVAL_ROLE ( '' ) ;
#281 = DIRECTION ( 'NONE',  ( 1.000000000000000000, 0.000000000000000000, 0.000000000000000000 ) ) ;
#282 = AXIS2_PLACEMENT_3D ( 'NONE', #253, #128, #226 ) ;
#283 = SHAPE_DEFINITION_REPRESENTATION ( #294, #232 ) ;
#284 = EDGE_CURVE ( 'NONE', #244, #293, #199, .T. ) ;
#285 = EDGE_LOOP ( 'NONE', ( #330, #363 ) ) ;
#286 = DIRECTION ( 'NONE',  ( 0.000000000000000000, 0.000000000000000000, 1.000000000000000000 ) ) ;
#287 = APPROVAL_ROLE ( '' ) ;
#288 = COORDINATED_UNIVERSAL_TIME_OFFSET ( 1, 0, .AHEAD. ) ;
#289 = LINE ( 'NONE', #31, #223 ) ;
#290 = ORIENTED_EDGE ( 'NONE', *, *, #337, .F. ) ;
#291 = EDGE_CURVE ( 'NONE', #209, #244, #241, .T. ) ;
#292 = DIRECTION ( 'NONE',  ( 1.000000000000000000, 0.000000000000000000, 0.000000000000000000 ) ) ;
#293 = VERTEX_POINT ( 'NONE', #39 ) ;
#294 = PRODUCT_DEFINITION_SHAPE ( 'NONE', 'NONE',  #316 ) ;
#295 = CARTESIAN_POINT ( 'NONE',  ( 0.000000000000000000, 0.000000000000000000, 555.0000000000000000 ) ) ;
#296 = ORIENTED_EDGE ( 'NONE', *, *, #214, .F. ) ;
#297 = DIRECTION ( 'NONE',  ( 0.000000000000000000, 0.000000000000000000, 1.000000000000000000 ) ) ;
#298 = ORIENTED_EDGE ( 'NONE', *, *, #230, .F. ) ;
#299 = CARTESIAN_POINT ( 'NONE',  ( -5.000000000000000000, 0.000000000000000000, 555.0000000000000000 ) ) ;
#300 = ORIENTED_EDGE ( 'NONE', *, *, #126, .F. ) ;
#301 = EDGE_LOOP ( 'NONE', ( #113, #269 ) ) ;
#302 = LOCAL_TIME ( 16, 56, 27.00000000000000000, #234 ) ;
#303 = DIRECTION ( 'NONE',  ( -0.000000000000000000, -0.000000000000000000, -1.000000000000000000 ) ) ;
#304 = CARTESIAN_POINT ( 'NONE',  ( 0.000000000000000000, 0.000000000000000000, 5.000000000000000000 ) ) ;
#305 = CC_DESIGN_PERSON_AND_ORGANIZATION_ASSIGNMENT ( #317, #378, ( #316 ) ) ;
#306 = CC_DESIGN_APPROVAL ( #95, ( #316 ) ) ;
#307 = DIRECTION ( 'NONE',  ( 0.000000000000000000, 0.000000000000000000, 1.000000000000000000 ) ) ;
#308 = DIRECTION ( 'NONE',  ( 1.000000000000000000, 0.000000000000000000, 0.000000000000000000 ) ) ;
#309 = CARTESIAN_POINT ( 'NONE',  ( 0.000000000000000000, 0.000000000000000000, 5.499999999999949374 ) ) ;
#310 = AXIS2_PLACEMENT_3D ( 'NONE', #168, #53, #379 ) ;
#311 = CC_DESIGN_PERSON_AND_ORGANIZATION_ASSIGNMENT ( #260, #86, ( #165 ) ) ;
#312 = CARTESIAN_POINT ( 'NONE',  ( 8.000000000000000000, 9.797174393178825657E-16, 5.000000000000000000 ) ) ;
#313 = PERSON_AND_ORGANIZATION ( #89, #249 ) ;
#314 = FACE_OUTER_BOUND ( 'NONE', #301, .T. ) ;
#315 = PLANE ( 'NONE',  #76 ) ;
#316 = PRODUCT_DEFINITION ( 'NEZNÁMÝ', '', #371, #261 ) ;
#317 = PERSON_AND_ORGANIZATION ( #89, #249 ) ;
#318 = CIRCLE ( 'NONE', #163, 3.000000000000000444 ) ;
#319 = DIRECTION ( 'NONE',  ( -0.000000000000000000, -0.000000000000000000, -1.000000000000000000 ) ) ;
#320 = ORIENTED_EDGE ( 'NONE', *, *, #16, .F. ) ;
#321 = ORIENTED_EDGE ( 'NONE', *, *, #365, .T. ) ;
#322 = CC_DESIGN_PERSON_AND_ORGANIZATION_ASSIGNMENT ( #245, #362, ( #60 ) ) ;
#323 = ORIENTED_EDGE ( 'NONE', *, *, #337, .T. ) ;
#324 = DIRECTION ( 'NONE',  ( -1.000000000000000000, 0.000000000000000000, 0.000000000000000000 ) ) ;
#325 = AXIS2_PLACEMENT_3D ( 'NONE', #121, #381, #180 ) ;
#326 = ORIENTED_EDGE ( 'NONE', *, *, #153, .F. ) ;
#327 = DIRECTION ( 'NONE',  ( 0.000000000000000000, 0.000000000000000000, 1.000000000000000000 ) ) ;
#328 = EDGE_LOOP ( 'NONE', ( #298, #154, #63, #326 ) ) ;
#329 = DIRECTION ( 'NONE',  ( 1.000000000000000000, 0.000000000000000000, -0.000000000000000000 ) ) ;
#330 = ORIENTED_EDGE ( 'NONE', *, *, #134, .F. ) ;
#331 = ADVANCED_FACE ( 'NONE', ( #272, #210 ), #35, .F. ) ;
#332 = DIRECTION ( 'NONE',  ( 1.000000000000000000, 0.000000000000000000, 0.000000000000000000 ) ) ;
#333 = AXIS2_PLACEMENT_3D ( 'NONE', #155, #368, #332 ) ;
#334 = CARTESIAN_POINT ( 'NONE',  ( 3.000000000000000444, 3.673940397442060361E-16, 555.0000000000000000 ) ) ;
#335 = ORIENTED_EDGE ( 'NONE', *, *, #153, .T. ) ;
#336 = DIRECTION ( 'NONE',  ( -0.000000000000000000, -0.000000000000000000, -1.000000000000000000 ) ) ;
#337 = EDGE_CURVE ( 'NONE', #101, #117, #79, .T. ) ;
#338 = CYLINDRICAL_SURFACE ( 'NONE', #45, 5.000000000000000000 ) ;
#339 = CARTESIAN_POINT ( 'NONE',  ( 0.000000000000000000, 0.000000000000000000, 0.000000000000000000 ) ) ;
#340 = ADVANCED_FACE ( 'NONE', ( #248 ), #276, .T. ) ;
#341 = CARTESIAN_POINT ( 'NONE',  ( 0.000000000000000000, 0.000000000000000000, 555.0000000000000000 ) ) ;
#342 = CIRCLE ( 'NONE', #138, 3.000000000000000444 ) ;
#343 = CARTESIAN_POINT ( 'NONE',  ( 0.000000000000000000, 0.000000000000000000, 5.000000000000000000 ) ) ;
#344 = CIRCLE ( 'NONE', #282, 5.500000000000000000 ) ;
#345 = APPROVAL_DATE_TIME ( #204, #95 ) ;
#346 = DIRECTION ( 'NONE',  ( -1.000000000000000000, 0.000000000000000000, 0.000000000000000000 ) ) ;
#347 = ORIENTED_EDGE ( 'NONE', *, *, #109, .F. ) ;
#348 = ORIENTED_EDGE ( 'NONE', *, *, #365, .F. ) ;
#349 = AXIS2_PLACEMENT_3D ( 'NONE', #309, #129, #308 ) ;
#350 = DIRECTION ( 'NONE',  ( 0.000000000000000000, 0.000000000000000000, 1.000000000000000000 ) ) ;
#351 = AXIS2_PLACEMENT_3D ( 'NONE', #100, #297, #93 ) ;
#352 = CARTESIAN_POINT ( 'NONE',  ( 0.000000000000000000, 0.000000000000000000, 5.000000000000000000 ) ) ;
#353 = EDGE_CURVE ( 'NONE', #7, #120, #222, .T. ) ;
#354 = CYLINDRICAL_SURFACE ( 'NONE', #67, 5.000000000000000000 ) ;
#355 = ORIENTED_EDGE ( 'NONE', *, *, #353, .T. ) ;
#356 = CARTESIAN_POINT ( 'NONE',  ( 5.500000000000000000, 0.000000000000000000, 5.499999999999949374 ) ) ;
#357 = EDGE_LOOP ( 'NONE', ( #320, #125, #216, #47 ) ) ;
#358 = AXIS2_PLACEMENT_3D ( 'NONE', #213, #178, #208 ) ;
#359 = CIRCLE ( 'NONE', #274, 8.000000000000000000 ) ;
#360 = DIRECTION ( 'NONE',  ( 0.000000000000000000, 0.000000000000000000, 1.000000000000000000 ) ) ;
#361 = ORIENTED_EDGE ( 'NONE', *, *, #284, .F. ) ;
#362 = PERSON_AND_ORGANIZATION_ROLE ( 'design_owner' ) ;
#363 = ORIENTED_EDGE ( 'NONE', *, *, #61, .F. ) ;
#364 = AXIS2_PLACEMENT_3D ( 'NONE', #356, #65, #119 ) ;
#365 = EDGE_CURVE ( 'NONE', #71, #122, #344, .T. ) ;
#366 =( NAMED_UNIT ( * ) SI_UNIT ( $, .STERADIAN. ) SOLID_ANGLE_UNIT ( ) );
#367 = ORIENTED_EDGE ( 'NONE', *, *, #201, .F. ) ;
#368 = DIRECTION ( 'NONE',  ( 0.000000000000000000, 0.000000000000000000, 1.000000000000000000 ) ) ;
#369 = DIRECTION ( 'NONE',  ( -0.000000000000000000, -0.000000000000000000, -1.000000000000000000 ) ) ;
#370 = CARTESIAN_POINT ( 'NONE',  ( 0.000000000000000000, 0.000000000000000000, 0.000000000000000000 ) ) ;
#371 = PRODUCT_DEFINITION_FORMATION_WITH_SPECIFIED_SOURCE ( 'LIBOVOLNÝ', '', #60, .NOT_KNOWN. ) ;
#372 = CALENDAR_DATE ( 2022, 8, 7 ) ;
#373 = CYLINDRICAL_SURFACE ( 'NONE', #64, 8.000000000000000000 ) ;
#374 = DIRECTION ( 'NONE',  ( -0.000000000000000000, -0.000000000000000000, -1.000000000000000000 ) ) ;
#375 = AXIS2_PLACEMENT_3D ( 'NONE', #52, #188, #224 ) ;
#376 = LOCAL_TIME ( 16, 56, 27.00000000000000000, #135 ) ;
#377 = CARTESIAN_POINT ( 'NONE',  ( -8.000000000000000000, 0.000000000000000000, 5.000000000000000000 ) ) ;
#378 = PERSON_AND_ORGANIZATION_ROLE ( 'creator' ) ;
#379 = DIRECTION ( 'NONE',  ( 1.000000000000000000, 0.000000000000000000, 0.000000000000000000 ) ) ;
#380 = TOROIDAL_SURFACE ( 'NONE', #349, 5.500000000000000000, 0.5000000000000000000 ) ;
#381 = DIRECTION ( 'NONE',  ( 1.224646799147353207E-16, 1.000000000000000000, -0.000000000000000000 ) ) ;
ENDSEC;
END-ISO-10303-21;
