ISO-10303-21;
HEADER;
FILE_DESCRIPTION (( 'STEP AP203' ),
    '1' );
FILE_NAME ('cd84.STEP',
    '2022-07-08T15:53:27',
    ( '' ),
    ( '' ),
    'SwSTEP 2.0',
    'SolidWorks 2019',
    '' );
FILE_SCHEMA (( 'CONFIG_CONTROL_DESIGN' ));
ENDSEC;

DATA;
#1 = DIRECTION ( 'NONE',  ( 1.000000000000000000, 0.000000000000000000, 0.000000000000000000 ) ) ;
#2 = DIRECTION ( 'NONE',  ( -0.000000000000000000, -0.000000000000000000, -1.000000000000000000 ) ) ;
#3 = PRODUCT_DEFINITION_FORMATION_WITH_SPECIFIED_SOURCE ( 'LIBOVOLNÝ', '', #253, .NOT_KNOWN. ) ;
#4 = DATE_AND_TIME ( #327, #293 ) ;
#5 = DIRECTION ( 'NONE',  ( 1.000000000000000000, 0.000000000000000000, 0.000000000000000000 ) ) ;
#6 = CARTESIAN_POINT ( 'NONE',  ( 0.000000000000000000, 0.000000000000000000, 0.000000000000000000 ) ) ;
#7 = EDGE_CURVE ( 'NONE', #337, #378, #188, .T. ) ;
#8 = CARTESIAN_POINT ( 'NONE',  ( 0.000000000000000000, 0.000000000000000000, 103.0000000000000142 ) ) ;
#9 = APPLICATION_CONTEXT ( 'configuration controlled 3d designs of mechanical parts and assemblies' ) ;
#10 = APPROVAL_PERSON_ORGANIZATION ( #84, #348, #140 ) ;
#11 = FACE_OUTER_BOUND ( 'NONE', #23, .T. ) ;
#12 = COORDINATED_UNIVERSAL_TIME_OFFSET ( 1, 0, .AHEAD. ) ;
#13 = CARTESIAN_POINT ( 'NONE',  ( 0.000000000000000000, 0.000000000000000000, 103.0000000000000142 ) ) ;
#14 = ORIENTED_EDGE ( 'NONE', *, *, #170, .T. ) ;
#15 = DIRECTION ( 'NONE',  ( -0.000000000000000000, -0.000000000000000000, -1.000000000000000000 ) ) ;
#16 = EDGE_LOOP ( 'NONE', ( #208, #123, #46, #175 ) ) ;
#17 = CIRCLE ( 'NONE', #76, 0.2999999999999999334 ) ;
#18 = AXIS2_PLACEMENT_3D ( 'NONE', #331, #87, #116 ) ;
#19 = EDGE_CURVE ( 'NONE', #310, #284, #300, .T. ) ;
#20 = ORIENTED_EDGE ( 'NONE', *, *, #7, .T. ) ;
#21 = DIRECTION ( 'NONE',  ( 0.000000000000000000, 0.000000000000000000, -1.000000000000000000 ) ) ;
#22 = AXIS2_PLACEMENT_3D ( 'NONE', #243, #190, #276 ) ;
#23 = EDGE_LOOP ( 'NONE', ( #290, #55, #346, #369 ) ) ;
#24 =( LENGTH_UNIT ( ) NAMED_UNIT ( * ) SI_UNIT ( .MILLI., .METRE. ) );
#25 = ORIENTED_EDGE ( 'NONE', *, *, #54, .T. ) ;
#26 = EDGE_CURVE ( 'NONE', #233, #224, #97, .T. ) ;
#27 = ORIENTED_EDGE ( 'NONE', *, *, #7, .F. ) ;
#28 = CIRCLE ( 'NONE', #121, 5.000000000000000000 ) ;
#29 = ORIENTED_EDGE ( 'NONE', *, *, #19, .F. ) ;
#30 = CARTESIAN_POINT ( 'NONE',  ( 1.000000000000000000, 1.224646799147353207E-16, 103.0000000000000142 ) ) ;
#31 = DIRECTION ( 'NONE',  ( 0.000000000000000000, 0.000000000000000000, 1.000000000000000000 ) ) ;
#32 = DIRECTION ( 'NONE',  ( -0.000000000000000000, -0.000000000000000000, -1.000000000000000000 ) ) ;
#33 = PERSON_AND_ORGANIZATION ( #257, #195 ) ;
#34 = FACE_OUTER_BOUND ( 'NONE', #16, .T. ) ;
#35 = TOROIDAL_SURFACE ( 'NONE', #283, 2.799999999999999822, 0.2999999999999999889 ) ;
#36 = UNCERTAINTY_MEASURE_WITH_UNIT (LENGTH_MEASURE( 1.000000000000000082E-05 ), #24, 'distance_accuracy_value', 'NONE');
#37 = DATE_AND_TIME ( #222, #248 ) ;
#38 = CARTESIAN_POINT ( 'NONE',  ( 0.000000000000000000, 0.000000000000000000, 103.0000000000000142 ) ) ;
#39 = CC_DESIGN_DATE_AND_TIME_ASSIGNMENT ( #338, #197, ( #339 ) ) ;
#40 = PERSON_AND_ORGANIZATION_ROLE ( 'classification_officer' ) ;
#41 = DIRECTION ( 'NONE',  ( 0.000000000000000000, 0.000000000000000000, 1.000000000000000000 ) ) ;
#42 = CARTESIAN_POINT ( 'NONE',  ( 0.000000000000000000, 0.000000000000000000, 103.0000000000000142 ) ) ;
#43 = CC_DESIGN_APPROVAL ( #359, ( #47 ) ) ;
#44 = PRODUCT_RELATED_PRODUCT_CATEGORY ( 'detail', '', ( #253 ) ) ;
#45 = DIRECTION ( 'NONE',  ( 1.000000000000000000, 0.000000000000000000, 0.000000000000000000 ) ) ;
#46 = ORIENTED_EDGE ( 'NONE', *, *, #246, .F. ) ;
#47 = PRODUCT_DEFINITION ( 'NEZNÁMÝ', '', #3, #68 ) ;
#48 = CIRCLE ( 'NONE', #214, 1.000000000000000000 ) ;
#49 = ORIENTED_EDGE ( 'NONE', *, *, #26, .F. ) ;
#50 = DIRECTION ( 'NONE',  ( 1.000000000000000000, 0.000000000000000000, -0.000000000000000000 ) ) ;
#51 = ORIENTED_EDGE ( 'NONE', *, *, #251, .T. ) ;
#52 = CARTESIAN_POINT ( 'NONE',  ( 0.000000000000000000, 0.000000000000000000, 3.000000000000000000 ) ) ;
#53 = CC_DESIGN_APPROVAL ( #348, ( #339 ) ) ;
#54 = EDGE_CURVE ( 'NONE', #263, #371, #17, .T. ) ;
#55 = ORIENTED_EDGE ( 'NONE', *, *, #88, .T. ) ;
#56 = ORIENTED_EDGE ( 'NONE', *, *, #88, .F. ) ;
#57 = CARTESIAN_POINT ( 'NONE',  ( -1.000000000000000000, 0.000000000000000000, 103.0000000000000142 ) ) ;
#58 = ORIENTED_EDGE ( 'NONE', *, *, #212, .T. ) ;
#59 = CC_DESIGN_SECURITY_CLASSIFICATION ( #339, ( #3 ) ) ;
#60 = DIRECTION ( 'NONE',  ( -0.000000000000000000, -0.000000000000000000, -1.000000000000000000 ) ) ;
#61 = CARTESIAN_POINT ( 'NONE',  ( -5.000000000000000000, 0.000000000000000000, 3.000000000000000000 ) ) ;
#62 = CARTESIAN_POINT ( 'NONE',  ( -2.500000000000000000, 0.000000000000000000, 3.299999999999997158 ) ) ;
#63 = CARTESIAN_POINT ( 'NONE',  ( 0.000000000000000000, 0.000000000000000000, 103.0000000000000142 ) ) ;
#64 = COORDINATED_UNIVERSAL_TIME_OFFSET ( 1, 0, .AHEAD. ) ;
#65 = DIRECTION ( 'NONE',  ( 1.000000000000000000, 0.000000000000000000, 0.000000000000000000 ) ) ;
#66 = ADVANCED_FACE ( 'NONE', ( #185 ), #131, .F. ) ;
#67 = LOCAL_TIME ( 17, 53, 27.00000000000000000, #12 ) ;
#68 = DESIGN_CONTEXT ( 'detailed design', #256, 'design' ) ;
#69 = APPROVAL_ROLE ( '' ) ;
#70 = LINE ( 'NONE', #192, #316 ) ;
#71 = DIRECTION ( 'NONE',  ( 0.000000000000000000, 0.000000000000000000, 1.000000000000000000 ) ) ;
#72 = DIRECTION ( 'NONE',  ( 1.000000000000000000, 0.000000000000000000, 0.000000000000000000 ) ) ;
#73 = APPROVAL_STATUS ( 'not_yet_approved' ) ;
#74 = ADVANCED_FACE ( 'NONE', ( #360 ), #99, .T. ) ;
#75 = DIRECTION ( 'NONE',  ( -1.000000000000000000, 0.000000000000000000, 0.000000000000000000 ) ) ;
#76 = AXIS2_PLACEMENT_3D ( 'NONE', #102, #381, #270 ) ;
#77 = AXIS2_PLACEMENT_3D ( 'NONE', #135, #15, #311 ) ;
#78 = DATE_AND_TIME ( #226, #223 ) ;
#79 = CARTESIAN_POINT ( 'NONE',  ( 0.000000000000000000, 0.000000000000000000, 3.299999999999997158 ) ) ;
#80 = ORIENTED_EDGE ( 'NONE', *, *, #19, .T. ) ;
#81 = EDGE_CURVE ( 'NONE', #366, #371, #326, .T. ) ;
#82 = APPROVAL_PERSON_ORGANIZATION ( #245, #267, #154 ) ;
#83 = DIRECTION ( 'NONE',  ( 1.000000000000000000, 0.000000000000000000, 0.000000000000000000 ) ) ;
#84 = PERSON_AND_ORGANIZATION ( #257, #195 ) ;
#85 = DIRECTION ( 'NONE',  ( 0.000000000000000000, 0.000000000000000000, 1.000000000000000000 ) ) ;
#86 = EDGE_LOOP ( 'NONE', ( #238, #173, #25, #89 ) ) ;
#87 = DIRECTION ( 'NONE',  ( 0.000000000000000000, 0.000000000000000000, 1.000000000000000000 ) ) ;
#88 = EDGE_CURVE ( 'NONE', #342, #319, #48, .T. ) ;
#89 = ORIENTED_EDGE ( 'NONE', *, *, #81, .F. ) ;
#90 = AXIS2_PLACEMENT_3D ( 'NONE', #380, #228, #83 ) ;
#91 = VECTOR ( 'NONE', #241, 1000.000000000000000 ) ;
#92 = ORIENTED_EDGE ( 'NONE', *, *, #246, .T. ) ;
#93 = CARTESIAN_POINT ( 'NONE',  ( 2.500000000000000000, 3.061616997868383141E-16, 103.0000000000000142 ) ) ;
#94 = EDGE_LOOP ( 'NONE', ( #281, #137, #373, #264 ) ) ;
#95 = CARTESIAN_POINT ( 'NONE',  ( 5.000000000000000000, 6.123233995736766282E-16, 0.000000000000000000 ) ) ;
#96 = CARTESIAN_POINT ( 'NONE',  ( 2.799999999999999822, 0.000000000000000000, 2.999999999999998668 ) ) ;
#97 = CIRCLE ( 'NONE', #345, 1.000000000000000000 ) ;
#98 = AXIS2_PLACEMENT_3D ( 'NONE', #336, #85, #50 ) ;
#99 = CYLINDRICAL_SURFACE ( 'NONE', #168, 5.000000000000000000 ) ;
#100 = CARTESIAN_POINT ( 'NONE',  ( 0.000000000000000000, 0.000000000000000000, 3.000000000000000000 ) ) ;
#101 = EDGE_CURVE ( 'NONE', #306, #288, #377, .T. ) ;
#102 = CARTESIAN_POINT ( 'NONE',  ( 2.799999999999999822, 0.000000000000000000, 3.299999999999997158 ) ) ;
#103 = MANIFOLD_SOLID_BREP ( 'Odebrat vysunutím3', #187 ) ;
#104 = DIRECTION ( 'NONE',  ( -1.000000000000000000, 0.000000000000000000, 0.000000000000000000 ) ) ;
#105 = AXIS2_PLACEMENT_3D ( 'NONE', #42, #280, #225 ) ;
#106 = APPLICATION_PROTOCOL_DEFINITION ( 'international standard', 'config_control_design', 1994, #256 ) ;
#107 = EDGE_CURVE ( 'NONE', #378, #337, #28, .T. ) ;
#108 = PERSON_AND_ORGANIZATION_ROLE ( 'creator' ) ;
#109 = DIRECTION ( 'NONE',  ( 1.000000000000000000, 0.000000000000000000, 0.000000000000000000 ) ) ;
#110 = ORIENTED_EDGE ( 'NONE', *, *, #299, .F. ) ;
#111 = AXIS2_PLACEMENT_3D ( 'NONE', #213, #321, #1 ) ;
#112 = CC_DESIGN_PERSON_AND_ORGANIZATION_ASSIGNMENT ( #186, #301, ( #3 ) ) ;
#113 = AXIS2_PLACEMENT_3D ( 'NONE', #249, #363, #109 ) ;
#114 = EDGE_LOOP ( 'NONE', ( #92, #179 ) ) ;
#115 = EDGE_CURVE ( 'NONE', #306, #117, #70, .T. ) ;
#116 = DIRECTION ( 'NONE',  ( 1.000000000000000000, 0.000000000000000000, 0.000000000000000000 ) ) ;
#117 = VERTEX_POINT ( 'NONE', #62 ) ;
#118 = DIRECTION ( 'NONE',  ( -0.000000000000000000, -0.000000000000000000, -1.000000000000000000 ) ) ;
#119 = ORIENTED_EDGE ( 'NONE', *, *, #273, .T. ) ;
#120 = AXIS2_PLACEMENT_3D ( 'NONE', #292, #317, #149 ) ;
#121 = AXIS2_PLACEMENT_3D ( 'NONE', #216, #152, #328 ) ;
#122 = ADVANCED_FACE ( 'NONE', ( #352, #129 ), #244, .F. ) ;
#123 = ORIENTED_EDGE ( 'NONE', *, *, #312, .T. ) ;
#124 = ADVANCED_BREP_SHAPE_REPRESENTATION ( 'cd84', ( #103, #138 ), #353 ) ;
#125 = LINE ( 'NONE', #30, #189 ) ;
#126 = DIRECTION ( 'NONE',  ( 0.000000000000000000, 0.000000000000000000, 1.000000000000000000 ) ) ;
#127 = CARTESIAN_POINT ( 'NONE',  ( -5.000000000000000000, 0.000000000000000000, 3.000000000000000000 ) ) ;
#128 = AXIS2_PLACEMENT_3D ( 'NONE', #13, #252, #72 ) ;
#129 = FACE_OUTER_BOUND ( 'NONE', #344, .T. ) ;
#130 = ADVANCED_FACE ( 'NONE', ( #161 ), #183, .T. ) ;
#131 = CYLINDRICAL_SURFACE ( 'NONE', #265, 1.000000000000000000 ) ;
#132 = DIRECTION ( 'NONE',  ( -1.000000000000000000, 0.000000000000000000, 0.000000000000000000 ) ) ;
#133 = CARTESIAN_POINT ( 'NONE',  ( 1.000000000000000000, 1.224646799147353207E-16, 0.000000000000000000 ) ) ;
#134 = CC_DESIGN_APPROVAL ( #267, ( #3 ) ) ;
#135 = CARTESIAN_POINT ( 'NONE',  ( 0.000000000000000000, 0.000000000000000000, 0.000000000000000000 ) ) ;
#136 = CYLINDRICAL_SURFACE ( 'NONE', #347, 1.000000000000000000 ) ;
#137 = ORIENTED_EDGE ( 'NONE', *, *, #107, .F. ) ;
#138 = AXIS2_PLACEMENT_3D ( 'NONE', #6, #71, #193 ) ;
#139 = ADVANCED_FACE ( 'NONE', ( #355, #320 ), #240, .T. ) ;
#140 = APPROVAL_ROLE ( '' ) ;
#141 = ORIENTED_EDGE ( 'NONE', *, *, #375, .T. ) ;
#142 = AXIS2_PLACEMENT_3D ( 'NONE', #63, #31, #351 ) ;
#143 = DIRECTION ( 'NONE',  ( 0.000000000000000000, 0.000000000000000000, 1.000000000000000000 ) ) ;
#144 = ORIENTED_EDGE ( 'NONE', *, *, #107, .T. ) ;
#145 = ORIENTED_EDGE ( 'NONE', *, *, #273, .F. ) ;
#146 = ORIENTED_EDGE ( 'NONE', *, *, #367, .F. ) ;
#147 = ADVANCED_FACE ( 'NONE', ( #34 ), #35, .F. ) ;
#148 = VECTOR ( 'NONE', #118, 1000.000000000000000 ) ;
#149 = DIRECTION ( 'NONE',  ( 1.000000000000000000, 0.000000000000000000, 0.000000000000000000 ) ) ;
#150 = DIRECTION ( 'NONE',  ( 0.000000000000000000, 0.000000000000000000, -1.000000000000000000 ) ) ;
#151 = DIRECTION ( 'NONE',  ( -1.000000000000000000, 1.224646799147353207E-16, 0.000000000000000000 ) ) ;
#152 = DIRECTION ( 'NONE',  ( 0.000000000000000000, 0.000000000000000000, 1.000000000000000000 ) ) ;
#153 = ADVANCED_FACE ( 'NONE', ( #272 ), #303, .T. ) ;
#154 = APPROVAL_ROLE ( '' ) ;
#155 = CIRCLE ( 'NONE', #368, 2.799999999999999822 ) ;
#156 = PERSON_AND_ORGANIZATION ( #257, #195 ) ;
#157 = DIRECTION ( 'NONE',  ( -0.000000000000000000, -0.000000000000000000, -1.000000000000000000 ) ) ;
#158 = PRODUCT_DEFINITION_SHAPE ( 'NONE', 'NONE',  #47 ) ;
#159 = COORDINATED_UNIVERSAL_TIME_OFFSET ( 1, 0, .AHEAD. ) ;
#160 = EDGE_CURVE ( 'NONE', #319, #233, #172, .T. ) ;
#161 = FACE_OUTER_BOUND ( 'NONE', #94, .T. ) ;
#162 = DIRECTION ( 'NONE',  ( -0.000000000000000000, -0.000000000000000000, -1.000000000000000000 ) ) ;
#163 = AXIS2_PLACEMENT_3D ( 'NONE', #260, #202, #45 ) ;
#164 = PERSON_AND_ORGANIZATION_ROLE ( 'design_owner' ) ;
#165 = CARTESIAN_POINT ( 'NONE',  ( 2.500000000000000000, 3.061616997868383141E-16, 3.299999999999997158 ) ) ;
#166 = FACE_OUTER_BOUND ( 'NONE', #268, .T. ) ;
#167 = ORIENTED_EDGE ( 'NONE', *, *, #115, .F. ) ;
#168 = AXIS2_PLACEMENT_3D ( 'NONE', #100, #32, #104 ) ;
#169 = CIRCLE ( 'NONE', #18, 2.500000000000000000 ) ;
#170 = EDGE_CURVE ( 'NONE', #263, #117, #169, .T. ) ;
#171 = ORIENTED_EDGE ( 'NONE', *, *, #101, .T. ) ;
#172 = LINE ( 'NONE', #307, #237 ) ;
#173 = ORIENTED_EDGE ( 'NONE', *, *, #170, .F. ) ;
#174 = CIRCLE ( 'NONE', #77, 1.000000000000000000 ) ;
#175 = ORIENTED_EDGE ( 'NONE', *, *, #54, .F. ) ;
#176 = EDGE_LOOP ( 'NONE', ( #171, #230 ) ) ;
#177 = ADVANCED_FACE ( 'NONE', ( #11 ), #136, .F. ) ;
#178 = DIRECTION ( 'NONE',  ( 1.224646799147353207E-16, 1.000000000000000000, -0.000000000000000000 ) ) ;
#179 = ORIENTED_EDGE ( 'NONE', *, *, #81, .T. ) ;
#180 = LOCAL_TIME ( 17, 53, 27.00000000000000000, #159 ) ;
#181 = DIRECTION ( 'NONE',  ( 1.000000000000000000, 0.000000000000000000, 0.000000000000000000 ) ) ;
#182 = CC_DESIGN_PERSON_AND_ORGANIZATION_ASSIGNMENT ( #304, #40, ( #339 ) ) ;
#183 = CYLINDRICAL_SURFACE ( 'NONE', #22, 5.000000000000000000 ) ;
#184 = APPROVAL_STATUS ( 'not_yet_approved' ) ;
#185 = FACE_OUTER_BOUND ( 'NONE', #315, .T. ) ;
#186 = PERSON_AND_ORGANIZATION ( #257, #195 ) ;
#187 = CLOSED_SHELL ( 'NONE', ( #66, #147, #153, #74, #130, #199, #122, #234, #139, #196, #177 ) ) ;
#188 = CIRCLE ( 'NONE', #120, 5.000000000000000000 ) ;
#189 = VECTOR ( 'NONE', #150, 1000.000000000000000 ) ;
#190 = DIRECTION ( 'NONE',  ( -0.000000000000000000, -0.000000000000000000, -1.000000000000000000 ) ) ;
#191 = CALENDAR_DATE ( 2022, 8, 7 ) ;
#192 = CARTESIAN_POINT ( 'NONE',  ( -2.500000000000000000, 0.000000000000000000, 103.0000000000000142 ) ) ;
#193 = DIRECTION ( 'NONE',  ( 1.000000000000000000, 0.000000000000000000, 0.000000000000000000 ) ) ;
#194 = CARTESIAN_POINT ( 'NONE',  ( -1.000000000000000000, 0.000000000000000000, 0.000000000000000000 ) ) ;
#195 = ORGANIZATION ( 'NEURÈENÝ', 'NEURÈENÝ', '' ) ;
#196 = ADVANCED_FACE ( 'NONE', ( #221 ), #271, .F. ) ;
#197 = DATE_TIME_ROLE ( 'classification_date' ) ;
#198 = APPROVAL_PERSON_ORGANIZATION ( #278, #359, #69 ) ;
#199 = ADVANCED_FACE ( 'NONE', ( #250, #166 ), #343, .T. ) ;
#200 = EDGE_LOOP ( 'NONE', ( #110, #285, #340, #141 ) ) ;
#201 = APPROVAL_DATE_TIME ( #78, #348 ) ;
#202 = DIRECTION ( 'NONE',  ( 0.000000000000000000, 0.000000000000000000, 1.000000000000000000 ) ) ;
#203 = ORIENTED_EDGE ( 'NONE', *, *, #299, .T. ) ;
#204 = CARTESIAN_POINT ( 'NONE',  ( 5.000000000000000000, 6.123233995736766282E-16, 3.000000000000000000 ) ) ;
#205 = ORIENTED_EDGE ( 'NONE', *, *, #354, .T. ) ;
#206 = AXIS2_PLACEMENT_3D ( 'NONE', #305, #41, #242 ) ;
#207 = CC_DESIGN_DATE_AND_TIME_ASSIGNMENT ( #37, #330, ( #47 ) ) ;
#208 = ORIENTED_EDGE ( 'NONE', *, *, #375, .F. ) ;
#209 = LINE ( 'NONE', #318, #91 ) ;
#210 = ORIENTED_EDGE ( 'NONE', *, *, #220, .F. ) ;
#211 = DIRECTION ( 'NONE',  ( 0.000000000000000000, 0.000000000000000000, 1.000000000000000000 ) ) ;
#212 = EDGE_CURVE ( 'NONE', #319, #342, #254, .T. ) ;
#213 = CARTESIAN_POINT ( 'NONE',  ( 0.000000000000000000, 0.000000000000000000, 3.299999999999997158 ) ) ;
#214 = AXIS2_PLACEMENT_3D ( 'NONE', #322, #126, #295 ) ;
#215 = CARTESIAN_POINT ( 'NONE',  ( 0.000000000000000000, 0.000000000000000000, 103.0000000000000142 ) ) ;
#216 = CARTESIAN_POINT ( 'NONE',  ( 0.000000000000000000, 0.000000000000000000, 3.000000000000000000 ) ) ;
#217 = APPLICATION_PROTOCOL_DEFINITION ( 'international standard', 'config_control_design', 1994, #9 ) ;
#218 = DIRECTION ( 'NONE',  ( 1.000000000000000000, 0.000000000000000000, 0.000000000000000000 ) ) ;
#219 = CARTESIAN_POINT ( 'NONE',  ( 0.000000000000000000, 0.000000000000000000, 103.0000000000000142 ) ) ;
#220 = EDGE_CURVE ( 'NONE', #288, #306, #229, .T. ) ;
#221 = FACE_OUTER_BOUND ( 'NONE', #86, .T. ) ;
#222 = CALENDAR_DATE ( 2022, 8, 7 ) ;
#223 = LOCAL_TIME ( 17, 53, 27.00000000000000000, #255 ) ;
#224 = VERTEX_POINT ( 'NONE', #133 ) ;
#225 = DIRECTION ( 'NONE',  ( -1.000000000000000000, 0.000000000000000000, 0.000000000000000000 ) ) ;
#226 = CALENDAR_DATE ( 2022, 8, 7 ) ;
#227 = EDGE_CURVE ( 'NONE', #284, #310, #361, .T. ) ;
#228 = DIRECTION ( 'NONE',  ( 0.000000000000000000, 0.000000000000000000, 1.000000000000000000 ) ) ;
#229 = CIRCLE ( 'NONE', #163, 2.500000000000000000 ) ;
#230 = ORIENTED_EDGE ( 'NONE', *, *, #220, .T. ) ;
#231 = CALENDAR_DATE ( 2022, 8, 7 ) ;
#232 = DIRECTION ( 'NONE',  ( 1.000000000000000000, 0.000000000000000000, 0.000000000000000000 ) ) ;
#233 = VERTEX_POINT ( 'NONE', #194 ) ;
#234 = ADVANCED_FACE ( 'NONE', ( #364 ), #372, .T. ) ;
#235 = ORIENTED_EDGE ( 'NONE', *, *, #160, .F. ) ;
#236 = CIRCLE ( 'NONE', #302, 0.2999999999999999334 ) ;
#237 = VECTOR ( 'NONE', #21, 1000.000000000000000 ) ;
#238 = ORIENTED_EDGE ( 'NONE', *, *, #312, .F. ) ;
#239 = CARTESIAN_POINT ( 'NONE',  ( -2.799999999999999822, 3.429011037612589276E-16, 2.999999999999998668 ) ) ;
#240 = PLANE ( 'NONE',  #142 ) ;
#241 = DIRECTION ( 'NONE',  ( -0.000000000000000000, -0.000000000000000000, -1.000000000000000000 ) ) ;
#242 = DIRECTION ( 'NONE',  ( 1.000000000000000000, 0.000000000000000000, -0.000000000000000000 ) ) ;
#243 = CARTESIAN_POINT ( 'NONE',  ( 0.000000000000000000, 0.000000000000000000, 3.000000000000000000 ) ) ;
#244 = PLANE ( 'NONE',  #206 ) ;
#245 = PERSON_AND_ORGANIZATION ( #257, #195 ) ;
#246 = EDGE_CURVE ( 'NONE', #371, #366, #155, .T. ) ;
#247 = DIRECTION ( 'NONE',  ( -0.000000000000000000, -0.000000000000000000, -1.000000000000000000 ) ) ;
#248 = LOCAL_TIME ( 17, 53, 27.00000000000000000, #356 ) ;
#249 = CARTESIAN_POINT ( 'NONE',  ( 0.000000000000000000, 0.000000000000000000, 0.000000000000000000 ) ) ;
#250 = FACE_BOUND ( 'NONE', #114, .T. ) ;
#251 = EDGE_CURVE ( 'NONE', #337, #310, #277, .T. ) ;
#252 = DIRECTION ( 'NONE',  ( 0.000000000000000000, 0.000000000000000000, 1.000000000000000000 ) ) ;
#253 = PRODUCT ( 'cd84', 'cd84', '', ( #334 ) ) ;
#254 = CIRCLE ( 'NONE', #128, 1.000000000000000000 ) ;
#255 = COORDINATED_UNIVERSAL_TIME_OFFSET ( 1, 0, .AHEAD. ) ;
#256 = APPLICATION_CONTEXT ( 'configuration controlled 3d designs of mechanical parts and assemblies' ) ;
#257 = PERSON ( 'NEURÈENÝ', 'NEURÈENÝ', 'NEURÈENÝ', ('NEURÈENÝ'), ('NEURÈENÝ'), ('NEURÈENÝ') ) ;
#258 = EDGE_LOOP ( 'NONE', ( #49, #145 ) ) ;
#259 = CIRCLE ( 'NONE', #111, 2.500000000000000000 ) ;
#260 = CARTESIAN_POINT ( 'NONE',  ( 0.000000000000000000, 0.000000000000000000, 103.0000000000000142 ) ) ;
#261 = EDGE_LOOP ( 'NONE', ( #27, #51, #80, #146 ) ) ;
#262 =( NAMED_UNIT ( * ) PLANE_ANGLE_UNIT ( ) SI_UNIT ( $, .RADIAN. ) );
#263 = VERTEX_POINT ( 'NONE', #165 ) ;
#264 = ORIENTED_EDGE ( 'NONE', *, *, #227, .T. ) ;
#265 = AXIS2_PLACEMENT_3D ( 'NONE', #215, #323, #132 ) ;
#266 = AXIS2_PLACEMENT_3D ( 'NONE', #79, #143, #341 ) ;
#267 = APPROVAL ( #184, 'NEURÈENÝ' ) ;
#268 = EDGE_LOOP ( 'NONE', ( #144, #20 ) ) ;
#269 = CARTESIAN_POINT ( 'NONE',  ( 0.000000000000000000, 0.000000000000000000, 0.000000000000000000 ) ) ;
#270 = DIRECTION ( 'NONE',  ( 0.000000000000000000, 0.000000000000000000, -1.000000000000000000 ) ) ;
#271 = TOROIDAL_SURFACE ( 'NONE', #266, 2.799999999999999822, 0.2999999999999999889 ) ;
#272 = FACE_OUTER_BOUND ( 'NONE', #313, .T. ) ;
#273 = EDGE_CURVE ( 'NONE', #224, #233, #174, .T. ) ;
#274 = PERSON_AND_ORGANIZATION_ROLE ( 'design_supplier' ) ;
#275 = DIRECTION ( 'NONE',  ( -1.000000000000000000, 0.000000000000000000, 0.000000000000000000 ) ) ;
#276 = DIRECTION ( 'NONE',  ( -1.000000000000000000, 0.000000000000000000, 0.000000000000000000 ) ) ;
#277 = LINE ( 'NONE', #204, #370 ) ;
#278 = PERSON_AND_ORGANIZATION ( #257, #195 ) ;
#279 = ORIENTED_EDGE ( 'NONE', *, *, #227, .F. ) ;
#280 = DIRECTION ( 'NONE',  ( -0.000000000000000000, -0.000000000000000000, -1.000000000000000000 ) ) ;
#281 = ORIENTED_EDGE ( 'NONE', *, *, #251, .F. ) ;
#282 = SHAPE_DEFINITION_REPRESENTATION ( #158, #124 ) ;
#283 = AXIS2_PLACEMENT_3D ( 'NONE', #357, #325, #65 ) ;
#284 = VERTEX_POINT ( 'NONE', #289 ) ;
#285 = ORIENTED_EDGE ( 'NONE', *, *, #101, .F. ) ;
#286 = AXIS2_PLACEMENT_3D ( 'NONE', #38, #157, #275 ) ;
#287 = CARTESIAN_POINT ( 'NONE',  ( 5.000000000000000000, 6.123233995736766282E-16, 3.000000000000000000 ) ) ;
#288 = VERTEX_POINT ( 'NONE', #93 ) ;
#289 = CARTESIAN_POINT ( 'NONE',  ( -5.000000000000000000, 0.000000000000000000, 0.000000000000000000 ) ) ;
#290 = ORIENTED_EDGE ( 'NONE', *, *, #354, .F. ) ;
#291 = CC_DESIGN_PERSON_AND_ORGANIZATION_ASSIGNMENT ( #156, #274, ( #3 ) ) ;
#292 = CARTESIAN_POINT ( 'NONE',  ( 0.000000000000000000, 0.000000000000000000, 3.000000000000000000 ) ) ;
#293 = LOCAL_TIME ( 17, 53, 27.00000000000000000, #64 ) ;
#294 = CARTESIAN_POINT ( 'NONE',  ( -2.500000000000000000, 0.000000000000000000, 103.0000000000000142 ) ) ;
#295 = DIRECTION ( 'NONE',  ( 1.000000000000000000, 0.000000000000000000, 0.000000000000000000 ) ) ;
#296 = CARTESIAN_POINT ( 'NONE',  ( -2.799999999999999822, 3.429011037612588783E-16, 3.299999999999997158 ) ) ;
#297 =( NAMED_UNIT ( * ) SI_UNIT ( $, .STERADIAN. ) SOLID_ANGLE_UNIT ( ) );
#298 = CARTESIAN_POINT ( 'NONE',  ( 0.000000000000000000, 0.000000000000000000, 3.000000000000000000 ) ) ;
#299 = EDGE_CURVE ( 'NONE', #288, #263, #209, .T. ) ;
#300 = CIRCLE ( 'NONE', #90, 5.000000000000000000 ) ;
#301 = PERSON_AND_ORGANIZATION_ROLE ( 'creator' ) ;
#302 = AXIS2_PLACEMENT_3D ( 'NONE', #296, #178, #151 ) ;
#303 = CYLINDRICAL_SURFACE ( 'NONE', #286, 2.500000000000000000 ) ;
#304 = PERSON_AND_ORGANIZATION ( #257, #195 ) ;
#305 = CARTESIAN_POINT ( 'NONE',  ( 0.000000000000000000, 0.000000000000000000, 0.000000000000000000 ) ) ;
#306 = VERTEX_POINT ( 'NONE', #294 ) ;
#307 = CARTESIAN_POINT ( 'NONE',  ( -1.000000000000000000, 0.000000000000000000, 103.0000000000000142 ) ) ;
#308 = CC_DESIGN_PERSON_AND_ORGANIZATION_ASSIGNMENT ( #362, #164, ( #253 ) ) ;
#309 = APPROVAL_STATUS ( 'not_yet_approved' ) ;
#310 = VERTEX_POINT ( 'NONE', #95 ) ;
#311 = DIRECTION ( 'NONE',  ( 1.000000000000000000, 0.000000000000000000, 0.000000000000000000 ) ) ;
#312 = EDGE_CURVE ( 'NONE', #117, #366, #236, .T. ) ;
#313 = EDGE_LOOP ( 'NONE', ( #210, #203, #14, #167 ) ) ;
#314 = DIRECTION ( 'NONE',  ( -0.000000000000000000, -0.000000000000000000, -1.000000000000000000 ) ) ;
#315 = EDGE_LOOP ( 'NONE', ( #58, #205, #119, #235 ) ) ;
#316 = VECTOR ( 'NONE', #2, 1000.000000000000000 ) ;
#317 = DIRECTION ( 'NONE',  ( 0.000000000000000000, 0.000000000000000000, 1.000000000000000000 ) ) ;
#318 = CARTESIAN_POINT ( 'NONE',  ( 2.500000000000000000, 3.061616997868383141E-16, 103.0000000000000142 ) ) ;
#319 = VERTEX_POINT ( 'NONE', #57 ) ;
#320 = FACE_OUTER_BOUND ( 'NONE', #176, .T. ) ;
#321 = DIRECTION ( 'NONE',  ( 0.000000000000000000, 0.000000000000000000, 1.000000000000000000 ) ) ;
#322 = CARTESIAN_POINT ( 'NONE',  ( 0.000000000000000000, 0.000000000000000000, 103.0000000000000142 ) ) ;
#323 = DIRECTION ( 'NONE',  ( 0.000000000000000000, 0.000000000000000000, -1.000000000000000000 ) ) ;
#324 = APPROVAL_DATE_TIME ( #4, #267 ) ;
#325 = DIRECTION ( 'NONE',  ( 0.000000000000000000, 0.000000000000000000, 1.000000000000000000 ) ) ;
#326 = CIRCLE ( 'NONE', #376, 2.799999999999999822 ) ;
#327 = CALENDAR_DATE ( 2022, 8, 7 ) ;
#328 = DIRECTION ( 'NONE',  ( 1.000000000000000000, 0.000000000000000000, 0.000000000000000000 ) ) ;
#329 = CC_DESIGN_PERSON_AND_ORGANIZATION_ASSIGNMENT ( #33, #108, ( #47 ) ) ;
#330 = DATE_TIME_ROLE ( 'creation_date' ) ;
#331 = CARTESIAN_POINT ( 'NONE',  ( 0.000000000000000000, 0.000000000000000000, 3.299999999999997158 ) ) ;
#332 = DATE_AND_TIME ( #191, #67 ) ;
#333 = DIRECTION ( 'NONE',  ( 0.000000000000000000, 0.000000000000000000, -1.000000000000000000 ) ) ;
#334 = MECHANICAL_CONTEXT ( 'NONE', #9, 'mechanical' ) ;
#335 = AXIS2_PLACEMENT_3D ( 'NONE', #219, #211, #5 ) ;
#336 = CARTESIAN_POINT ( 'NONE',  ( 0.000000000000000000, 0.000000000000000000, 3.000000000000000000 ) ) ;
#337 = VERTEX_POINT ( 'NONE', #287 ) ;
#338 = DATE_AND_TIME ( #231, #180 ) ;
#339 = SECURITY_CLASSIFICATION ( '', '', #358 ) ;
#340 = ORIENTED_EDGE ( 'NONE', *, *, #115, .T. ) ;
#341 = DIRECTION ( 'NONE',  ( 1.000000000000000000, 0.000000000000000000, 0.000000000000000000 ) ) ;
#342 = VERTEX_POINT ( 'NONE', #379 ) ;
#343 = PLANE ( 'NONE',  #98 ) ;
#344 = EDGE_LOOP ( 'NONE', ( #279, #29 ) ) ;
#345 = AXIS2_PLACEMENT_3D ( 'NONE', #269, #60, #181 ) ;
#346 = ORIENTED_EDGE ( 'NONE', *, *, #160, .T. ) ;
#347 = AXIS2_PLACEMENT_3D ( 'NONE', #8, #333, #75 ) ;
#348 = APPROVAL ( #309, 'NEURÈENÝ' ) ;
#349 = ORIENTED_EDGE ( 'NONE', *, *, #212, .F. ) ;
#350 = LINE ( 'NONE', #61, #148 ) ;
#351 = DIRECTION ( 'NONE',  ( 1.000000000000000000, 0.000000000000000000, -0.000000000000000000 ) ) ;
#352 = FACE_BOUND ( 'NONE', #258, .T. ) ;
#353 =( GEOMETRIC_REPRESENTATION_CONTEXT ( 3 ) GLOBAL_UNCERTAINTY_ASSIGNED_CONTEXT ( ( #36 ) ) GLOBAL_UNIT_ASSIGNED_CONTEXT ( ( #24, #262, #297 ) ) REPRESENTATION_CONTEXT ( 'NONE', 'WORKASPACE' ) );
#354 = EDGE_CURVE ( 'NONE', #342, #224, #125, .T. ) ;
#355 = FACE_BOUND ( 'NONE', #374, .T. ) ;
#356 = COORDINATED_UNIVERSAL_TIME_OFFSET ( 1, 0, .AHEAD. ) ;
#357 = CARTESIAN_POINT ( 'NONE',  ( 0.000000000000000000, 0.000000000000000000, 3.299999999999997158 ) ) ;
#358 = SECURITY_CLASSIFICATION_LEVEL ( 'unclassified' ) ;
#359 = APPROVAL ( #73, 'NEURÈENÝ' ) ;
#360 = FACE_OUTER_BOUND ( 'NONE', #261, .T. ) ;
#361 = CIRCLE ( 'NONE', #113, 5.000000000000000000 ) ;
#362 = PERSON_AND_ORGANIZATION ( #257, #195 ) ;
#363 = DIRECTION ( 'NONE',  ( 0.000000000000000000, 0.000000000000000000, 1.000000000000000000 ) ) ;
#364 = FACE_OUTER_BOUND ( 'NONE', #200, .T. ) ;
#365 = APPROVAL_DATE_TIME ( #332, #359 ) ;
#366 = VERTEX_POINT ( 'NONE', #239 ) ;
#367 = EDGE_CURVE ( 'NONE', #378, #284, #350, .T. ) ;
#368 = AXIS2_PLACEMENT_3D ( 'NONE', #52, #162, #232 ) ;
#369 = ORIENTED_EDGE ( 'NONE', *, *, #26, .T. ) ;
#370 = VECTOR ( 'NONE', #314, 1000.000000000000000 ) ;
#371 = VERTEX_POINT ( 'NONE', #96 ) ;
#372 = CYLINDRICAL_SURFACE ( 'NONE', #105, 2.500000000000000000 ) ;
#373 = ORIENTED_EDGE ( 'NONE', *, *, #367, .T. ) ;
#374 = EDGE_LOOP ( 'NONE', ( #349, #56 ) ) ;
#375 = EDGE_CURVE ( 'NONE', #117, #263, #259, .T. ) ;
#376 = AXIS2_PLACEMENT_3D ( 'NONE', #298, #247, #218 ) ;
#377 = CIRCLE ( 'NONE', #335, 2.500000000000000000 ) ;
#378 = VERTEX_POINT ( 'NONE', #127 ) ;
#379 = CARTESIAN_POINT ( 'NONE',  ( 1.000000000000000000, 1.224646799147353207E-16, 103.0000000000000142 ) ) ;
#380 = CARTESIAN_POINT ( 'NONE',  ( 0.000000000000000000, 0.000000000000000000, 0.000000000000000000 ) ) ;
#381 = DIRECTION ( 'NONE',  ( 0.000000000000000000, -1.000000000000000000, 0.000000000000000000 ) ) ;
ENDSEC;
END-ISO-10303-21;
