ISO-10303-21;
HEADER;
FILE_DESCRIPTION (( 'STEP AP203' ),
    '1' );
FILE_NAME ('5f16.STEP',
    '2022-07-08T14:25:36',
    ( '' ),
    ( '' ),
    'SwSTEP 2.0',
    'SolidWorks 2019',
    '' );
FILE_SCHEMA (( 'CONFIG_CONTROL_DESIGN' ));
ENDSEC;

DATA;
#1 = DIRECTION ( 'NONE',  ( 1.000000000000000000, 0.000000000000000000, 0.000000000000000000 ) ) ;
#2 = EDGE_CURVE ( 'NONE', #271, #51, #263, .T. ) ;
#3 = FACE_BOUND ( 'NONE', #352, .T. ) ;
#4 = ORIENTED_EDGE ( 'NONE', *, *, #72, .F. ) ;
#5 = CARTESIAN_POINT ( 'NONE',  ( 0.000000000000000000, 0.000000000000000000, 0.000000000000000000 ) ) ;
#6 = AXIS2_PLACEMENT_3D ( 'NONE', #46, #12, #357 ) ;
#7 = DIRECTION ( 'NONE',  ( 0.000000000000000000, 0.000000000000000000, 1.000000000000000000 ) ) ;
#8 = EDGE_LOOP ( 'NONE', ( #188, #135 ) ) ;
#9 = DIRECTION ( 'NONE',  ( 1.000000000000000000, 0.000000000000000000, 0.000000000000000000 ) ) ;
#10 = ORIENTED_EDGE ( 'NONE', *, *, #2, .F. ) ;
#11 = EDGE_CURVE ( 'NONE', #335, #203, #276, .T. ) ;
#12 = DIRECTION ( 'NONE',  ( -0.000000000000000000, -0.000000000000000000, -1.000000000000000000 ) ) ;
#13 = EDGE_LOOP ( 'NONE', ( #268, #299, #116, #106 ) ) ;
#14 = DIRECTION ( 'NONE',  ( -0.000000000000000000, -0.000000000000000000, -1.000000000000000000 ) ) ;
#15 = APPROVAL_PERSON_ORGANIZATION ( #311, #220, #161 ) ;
#16 = EDGE_LOOP ( 'NONE', ( #159, #122 ) ) ;
#17 = CALENDAR_DATE ( 2022, 8, 7 ) ;
#18 = ORIENTED_EDGE ( 'NONE', *, *, #72, .T. ) ;
#19 = CALENDAR_DATE ( 2022, 8, 7 ) ;
#20 = EDGE_LOOP ( 'NONE', ( #119, #221, #186, #199 ) ) ;
#21 = AXIS2_PLACEMENT_3D ( 'NONE', #176, #65, #295 ) ;
#22 = CC_DESIGN_APPROVAL ( #285, ( #333 ) ) ;
#23 = DIRECTION ( 'NONE',  ( 0.000000000000000000, 0.000000000000000000, 1.000000000000000000 ) ) ;
#24 = DIRECTION ( 'NONE',  ( -0.000000000000000000, -0.000000000000000000, -1.000000000000000000 ) ) ;
#25 = DIRECTION ( 'NONE',  ( -0.000000000000000000, -0.000000000000000000, -1.000000000000000000 ) ) ;
#26 = PERSON_AND_ORGANIZATION_ROLE ( 'design_supplier' ) ;
#27 = ADVANCED_BREP_SHAPE_REPRESENTATION ( '5f16', ( #74, #85 ), #381 ) ;
#28 = CC_DESIGN_PERSON_AND_ORGANIZATION_ASSIGNMENT ( #367, #76, ( #345 ) ) ;
#29 = VECTOR ( 'NONE', #75, 1000.000000000000000 ) ;
#30 = EDGE_CURVE ( 'NONE', #184, #155, #247, .T. ) ;
#31 = FACE_OUTER_BOUND ( 'NONE', #13, .T. ) ;
#32 = CIRCLE ( 'NONE', #56, 4.500000000000000000 ) ;
#33 = EDGE_CURVE ( 'NONE', #69, #360, #254, .T. ) ;
#34 = DIRECTION ( 'NONE',  ( 0.000000000000000000, 0.000000000000000000, 1.000000000000000000 ) ) ;
#35 = PRODUCT_RELATED_PRODUCT_CATEGORY ( 'detail', '', ( #345 ) ) ;
#36 = APPLICATION_CONTEXT ( 'configuration controlled 3d designs of mechanical parts and assemblies' ) ;
#37 = FACE_BOUND ( 'NONE', #322, .T. ) ;
#38 = ORIENTED_EDGE ( 'NONE', *, *, #190, .T. ) ;
#39 = DIRECTION ( 'NONE',  ( 0.000000000000000000, 0.000000000000000000, 1.000000000000000000 ) ) ;
#40 = ORIENTED_EDGE ( 'NONE', *, *, #113, .F. ) ;
#41 = AXIS2_PLACEMENT_3D ( 'NONE', #287, #25, #318 ) ;
#42 = AXIS2_PLACEMENT_3D ( 'NONE', #212, #334, #70 ) ;
#43 = EDGE_CURVE ( 'NONE', #62, #93, #368, .T. ) ;
#44 = CARTESIAN_POINT ( 'NONE',  ( 0.000000000000000000, 0.000000000000000000, 7.000000000000000000 ) ) ;
#45 = VERTEX_POINT ( 'NONE', #257 ) ;
#46 = CARTESIAN_POINT ( 'NONE',  ( 0.000000000000000000, 0.000000000000000000, 0.000000000000000000 ) ) ;
#47 = VERTEX_POINT ( 'NONE', #104 ) ;
#48 = COORDINATED_UNIVERSAL_TIME_OFFSET ( 1, 0, .AHEAD. ) ;
#49 = ORIENTED_EDGE ( 'NONE', *, *, #315, .T. ) ;
#50 = APPROVAL_STATUS ( 'not_yet_approved' ) ;
#51 = VERTEX_POINT ( 'NONE', #337 ) ;
#52 = DATE_TIME_ROLE ( 'creation_date' ) ;
#53 = ORIENTED_EDGE ( 'NONE', *, *, #2, .T. ) ;
#54 = PERSON_AND_ORGANIZATION_ROLE ( 'creator' ) ;
#55 = CYLINDRICAL_SURFACE ( 'NONE', #355, 4.500000000000000000 ) ;
#56 = AXIS2_PLACEMENT_3D ( 'NONE', #217, #280, #100 ) ;
#57 = AXIS2_PLACEMENT_3D ( 'NONE', #353, #306, #329 ) ;
#58 = DATE_AND_TIME ( #313, #211 ) ;
#59 = EDGE_CURVE ( 'NONE', #155, #93, #32, .T. ) ;
#60 = APPROVAL_PERSON_ORGANIZATION ( #349, #285, #282 ) ;
#61 = CC_DESIGN_PERSON_AND_ORGANIZATION_ASSIGNMENT ( #374, #224, ( #174 ) ) ;
#62 = VERTEX_POINT ( 'NONE', #77 ) ;
#63 = CARTESIAN_POINT ( 'NONE',  ( -4.500000000000000000, 0.000000000000000000, 0.000000000000000000 ) ) ;
#64 = CARTESIAN_POINT ( 'NONE',  ( 0.000000000000000000, 0.000000000000000000, 0.000000000000000000 ) ) ;
#65 = DIRECTION ( 'NONE',  ( 0.000000000000000000, 0.000000000000000000, 1.000000000000000000 ) ) ;
#66 = VERTEX_POINT ( 'NONE', #71 ) ;
#67 = CIRCLE ( 'NONE', #115, 6.000000000000000888 ) ;
#68 = CARTESIAN_POINT ( 'NONE',  ( -10.00000000000000000, 0.000000000000000000, 7.000000000000000000 ) ) ;
#69 = VERTEX_POINT ( 'NONE', #340 ) ;
#70 = DIRECTION ( 'NONE',  ( 1.000000000000000000, 0.000000000000000000, 0.000000000000000000 ) ) ;
#71 = CARTESIAN_POINT ( 'NONE',  ( -10.00000000000000000, 0.000000000000000000, 0.000000000000000000 ) ) ;
#72 = EDGE_CURVE ( 'NONE', #203, #51, #189, .T. ) ;
#73 = CARTESIAN_POINT ( 'NONE',  ( -6.700000000000001066, 8.205133554287267548E-16, 7.700000000000040146 ) ) ;
#74 = MANIFOLD_SOLID_BREP ( 'Odebrat vysunutím3', #321 ) ;
#75 = DIRECTION ( 'NONE',  ( 0.000000000000000000, 0.000000000000000000, -1.000000000000000000 ) ) ;
#76 = PERSON_AND_ORGANIZATION_ROLE ( 'design_owner' ) ;
#77 = CARTESIAN_POINT ( 'NONE',  ( 4.500000000000000000, 5.510910596163088569E-16, 657.0000000000000000 ) ) ;
#78 = ADVANCED_FACE ( 'NONE', ( #317 ), #55, .F. ) ;
#79 = CARTESIAN_POINT ( 'NONE',  ( 4.500000000000000000, 5.510910596163088569E-16, 0.000000000000000000 ) ) ;
#80 = FACE_OUTER_BOUND ( 'NONE', #266, .T. ) ;
#81 = AXIS2_PLACEMENT_3D ( 'NONE', #377, #82, #320 ) ;
#82 = DIRECTION ( 'NONE',  ( 0.000000000000000000, 0.000000000000000000, 1.000000000000000000 ) ) ;
#83 = PLANE ( 'NONE',  #173 ) ;
#84 = CIRCLE ( 'NONE', #370, 6.700000000000001066 ) ;
#85 = AXIS2_PLACEMENT_3D ( 'NONE', #316, #23, #376 ) ;
#86 = UNCERTAINTY_MEASURE_WITH_UNIT (LENGTH_MEASURE( 1.000000000000000082E-05 ), #259, 'distance_accuracy_value', 'NONE');
#87 = CARTESIAN_POINT ( 'NONE',  ( 0.000000000000000000, 0.000000000000000000, 7.000000000000000000 ) ) ;
#88 = PERSON ( 'NEURÈENÝ', 'NEURÈENÝ', 'NEURÈENÝ', ('NEURÈENÝ'), ('NEURÈENÝ'), ('NEURÈENÝ') ) ;
#89 = CARTESIAN_POINT ( 'NONE',  ( 0.000000000000000000, 0.000000000000000000, 657.0000000000000000 ) ) ;
#90 = CIRCLE ( 'NONE', #21, 10.00000000000000000 ) ;
#91 = CARTESIAN_POINT ( 'NONE',  ( 0.000000000000000000, 0.000000000000000000, 657.0000000000000000 ) ) ;
#92 = DIRECTION ( 'NONE',  ( -0.000000000000000000, -0.000000000000000000, -1.000000000000000000 ) ) ;
#93 = VERTEX_POINT ( 'NONE', #79 ) ;
#94 = DIRECTION ( 'NONE',  ( 1.000000000000000000, 0.000000000000000000, 0.000000000000000000 ) ) ;
#95 = ORIENTED_EDGE ( 'NONE', *, *, #242, .T. ) ;
#96 = CARTESIAN_POINT ( 'NONE',  ( 0.000000000000000000, 0.000000000000000000, 7.000000000000000000 ) ) ;
#97 = ORIENTED_EDGE ( 'NONE', *, *, #226, .F. ) ;
#98 = AXIS2_PLACEMENT_3D ( 'NONE', #73, #192, #346 ) ;
#99 = DIRECTION ( 'NONE',  ( 0.000000000000000000, 0.000000000000000000, 1.000000000000000000 ) ) ;
#100 = DIRECTION ( 'NONE',  ( 1.000000000000000000, 0.000000000000000000, 0.000000000000000000 ) ) ;
#101 = DATE_TIME_ROLE ( 'classification_date' ) ;
#102 = DIRECTION ( 'NONE',  ( 0.000000000000000000, 0.000000000000000000, 1.000000000000000000 ) ) ;
#103 = PERSON_AND_ORGANIZATION_ROLE ( 'creator' ) ;
#104 = CARTESIAN_POINT ( 'NONE',  ( 10.00000000000000000, 1.224646799147353256E-15, 7.000000000000000000 ) ) ;
#105 = CC_DESIGN_APPROVAL ( #262, ( #171 ) ) ;
#106 = ORIENTED_EDGE ( 'NONE', *, *, #30, .F. ) ;
#107 = EDGE_CURVE ( 'NONE', #203, #335, #361, .T. ) ;
#108 = CARTESIAN_POINT ( 'NONE',  ( 0.000000000000000000, 0.000000000000000000, 7.000000000000000000 ) ) ;
#109 = APPLICATION_PROTOCOL_DEFINITION ( 'international standard', 'config_control_design', 1994, #36 ) ;
#110 = CARTESIAN_POINT ( 'NONE',  ( -4.500000000000000000, 0.000000000000000000, 657.0000000000000000 ) ) ;
#111 = AXIS2_PLACEMENT_3D ( 'NONE', #89, #261, #324 ) ;
#112 = APPROVAL_PERSON_ORGANIZATION ( #288, #262, #336 ) ;
#113 = EDGE_CURVE ( 'NONE', #335, #271, #197, .T. ) ;
#114 = APPROVAL_DATE_TIME ( #132, #220 ) ;
#115 = AXIS2_PLACEMENT_3D ( 'NONE', #91, #209, #156 ) ;
#116 = ORIENTED_EDGE ( 'NONE', *, *, #293, .T. ) ;
#117 = FACE_OUTER_BOUND ( 'NONE', #331, .T. ) ;
#118 = FACE_OUTER_BOUND ( 'NONE', #8, .T. ) ;
#119 = ORIENTED_EDGE ( 'NONE', *, *, #43, .F. ) ;
#120 = CIRCLE ( 'NONE', #338, 10.00000000000000000 ) ;
#121 = DIRECTION ( 'NONE',  ( 0.000000000000000000, 0.000000000000000000, 1.000000000000000000 ) ) ;
#122 = ORIENTED_EDGE ( 'NONE', *, *, #242, .F. ) ;
#123 = LOCAL_TIME ( 16, 25, 36.00000000000000000, #137 ) ;
#124 = CARTESIAN_POINT ( 'NONE',  ( 6.700000000000001066, 0.000000000000000000, 7.000000000000020428 ) ) ;
#125 = CC_DESIGN_PERSON_AND_ORGANIZATION_ASSIGNMENT ( #248, #103, ( #333 ) ) ;
#126 = CARTESIAN_POINT ( 'NONE',  ( 6.000000000000000888, 7.347880794884120722E-16, 657.0000000000000000 ) ) ;
#127 = CARTESIAN_POINT ( 'NONE',  ( 0.000000000000000000, 0.000000000000000000, 7.000000000000000000 ) ) ;
#128 = EDGE_LOOP ( 'NONE', ( #4, #149, #133, #364 ) ) ;
#129 = AXIS2_PLACEMENT_3D ( 'NONE', #277, #102, #165 ) ;
#130 = CALENDAR_DATE ( 2022, 8, 7 ) ;
#131 = ORIENTED_EDGE ( 'NONE', *, *, #293, .F. ) ;
#132 = DATE_AND_TIME ( #17, #371 ) ;
#133 = ORIENTED_EDGE ( 'NONE', *, *, #113, .T. ) ;
#134 = CALENDAR_DATE ( 2022, 8, 7 ) ;
#135 = ORIENTED_EDGE ( 'NONE', *, *, #300, .T. ) ;
#136 = ADVANCED_FACE ( 'NONE', ( #347, #80 ), #83, .T. ) ;
#137 = COORDINATED_UNIVERSAL_TIME_OFFSET ( 1, 0, .AHEAD. ) ;
#138 = ORIENTED_EDGE ( 'NONE', *, *, #362, .T. ) ;
#139 = DIRECTION ( 'NONE',  ( 0.000000000000000000, 0.000000000000000000, 1.000000000000000000 ) ) ;
#140 = ADVANCED_FACE ( 'NONE', ( #117 ), #305, .T. ) ;
#141 = AXIS2_PLACEMENT_3D ( 'NONE', #5, #121, #240 ) ;
#142 = CC_DESIGN_SECURITY_CLASSIFICATION ( #174, ( #171 ) ) ;
#143 = ORIENTED_EDGE ( 'NONE', *, *, #216, .T. ) ;
#144 = LINE ( 'NONE', #152, #218 ) ;
#145 = ORIENTED_EDGE ( 'NONE', *, *, #107, .F. ) ;
#146 = ADVANCED_FACE ( 'NONE', ( #31 ), #234, .F. ) ;
#147 = FACE_OUTER_BOUND ( 'NONE', #128, .T. ) ;
#148 = FACE_OUTER_BOUND ( 'NONE', #16, .T. ) ;
#149 = ORIENTED_EDGE ( 'NONE', *, *, #11, .F. ) ;
#150 = CC_DESIGN_PERSON_AND_ORGANIZATION_ASSIGNMENT ( #214, #26, ( #171 ) ) ;
#151 = AXIS2_PLACEMENT_3D ( 'NONE', #372, #251, #225 ) ;
#152 = CARTESIAN_POINT ( 'NONE',  ( 10.00000000000000000, 1.224646799147353256E-15, 7.000000000000000000 ) ) ;
#153 = ORIENTED_EDGE ( 'NONE', *, *, #216, .F. ) ;
#154 = DIRECTION ( 'NONE',  ( 1.000000000000000000, 0.000000000000000000, 0.000000000000000000 ) ) ;
#155 = VERTEX_POINT ( 'NONE', #63 ) ;
#156 = DIRECTION ( 'NONE',  ( 1.000000000000000000, 0.000000000000000000, 0.000000000000000000 ) ) ;
#157 = CARTESIAN_POINT ( 'NONE',  ( 4.500000000000000000, 5.510910596163088569E-16, 657.0000000000000000 ) ) ;
#158 = ADVANCED_FACE ( 'NONE', ( #147 ), #245, .F. ) ;
#159 = ORIENTED_EDGE ( 'NONE', *, *, #206, .F. ) ;
#160 = AXIS2_PLACEMENT_3D ( 'NONE', #281, #373, #222 ) ;
#161 = APPROVAL_ROLE ( '' ) ;
#162 = CARTESIAN_POINT ( 'NONE',  ( 0.000000000000000000, 0.000000000000000000, 7.000000000000000000 ) ) ;
#163 = EDGE_CURVE ( 'NONE', #51, #271, #84, .T. ) ;
#164 = APPROVAL_STATUS ( 'not_yet_approved' ) ;
#165 = DIRECTION ( 'NONE',  ( 1.000000000000000000, 0.000000000000000000, 0.000000000000000000 ) ) ;
#166 =( NAMED_UNIT ( * ) PLANE_ANGLE_UNIT ( ) SI_UNIT ( $, .RADIAN. ) );
#167 = CARTESIAN_POINT ( 'NONE',  ( 0.000000000000000000, 0.000000000000000000, 657.0000000000000000 ) ) ;
#168 = ADVANCED_FACE ( 'NONE', ( #296 ), #235, .T. ) ;
#169 = DIRECTION ( 'NONE',  ( -0.000000000000000000, -0.000000000000000000, -1.000000000000000000 ) ) ;
#170 = CIRCLE ( 'NONE', #57, 4.500000000000000000 ) ;
#171 = PRODUCT_DEFINITION_FORMATION_WITH_SPECIFIED_SOURCE ( 'LIBOVOLNÝ', '', #345, .NOT_KNOWN. ) ;
#172 = EDGE_CURVE ( 'NONE', #182, #47, #120, .T. ) ;
#173 = AXIS2_PLACEMENT_3D ( 'NONE', #289, #332, #328 ) ;
#174 = SECURITY_CLASSIFICATION ( '', '', #256 ) ;
#175 = ORIENTED_EDGE ( 'NONE', *, *, #190, .F. ) ;
#176 = CARTESIAN_POINT ( 'NONE',  ( 0.000000000000000000, 0.000000000000000000, 0.000000000000000000 ) ) ;
#177 = CC_DESIGN_DATE_AND_TIME_ASSIGNMENT ( #58, #52, ( #333 ) ) ;
#178 = PLANE ( 'NONE',  #141 ) ;
#179 = DESIGN_CONTEXT ( 'detailed design', #36, 'design' ) ;
#180 = AXIS2_PLACEMENT_3D ( 'NONE', #96, #99, #237 ) ;
#181 = CARTESIAN_POINT ( 'NONE',  ( 0.000000000000000000, 0.000000000000000000, 657.0000000000000000 ) ) ;
#182 = VERTEX_POINT ( 'NONE', #223 ) ;
#183 = DIRECTION ( 'NONE',  ( -0.000000000000000000, -0.000000000000000000, -1.000000000000000000 ) ) ;
#184 = VERTEX_POINT ( 'NONE', #344 ) ;
#185 = APPROVAL_DATE_TIME ( #252, #262 ) ;
#186 = ORIENTED_EDGE ( 'NONE', *, *, #30, .T. ) ;
#187 = PERSON_AND_ORGANIZATION ( #88, #219 ) ;
#188 = ORIENTED_EDGE ( 'NONE', *, *, #172, .T. ) ;
#189 = CIRCLE ( 'NONE', #98, 0.7000000000000000666 ) ;
#190 = EDGE_CURVE ( 'NONE', #47, #45, #144, .T. ) ;
#191 = APPROVAL_STATUS ( 'not_yet_approved' ) ;
#192 = DIRECTION ( 'NONE',  ( 1.224646799147353207E-16, 1.000000000000000000, -0.000000000000000000 ) ) ;
#193 = CC_DESIGN_PERSON_AND_ORGANIZATION_ASSIGNMENT ( #187, #54, ( #171 ) ) ;
#194 = COORDINATED_UNIVERSAL_TIME_OFFSET ( 1, 0, .AHEAD. ) ;
#195 = COORDINATED_UNIVERSAL_TIME_OFFSET ( 1, 0, .AHEAD. ) ;
#196 = CARTESIAN_POINT ( 'NONE',  ( 0.000000000000000000, 0.000000000000000000, 7.700000000000040146 ) ) ;
#197 = CIRCLE ( 'NONE', #160, 0.7000000000000000666 ) ;
#198 = ADVANCED_FACE ( 'NONE', ( #325 ), #267, .T. ) ;
#199 = ORIENTED_EDGE ( 'NONE', *, *, #59, .T. ) ;
#200 = CARTESIAN_POINT ( 'NONE',  ( 0.000000000000000000, 0.000000000000000000, 657.0000000000000000 ) ) ;
#201 = FACE_OUTER_BOUND ( 'NONE', #312, .T. ) ;
#202 = FACE_OUTER_BOUND ( 'NONE', #273, .T. ) ;
#203 = VERTEX_POINT ( 'NONE', #304 ) ;
#204 = DIRECTION ( 'NONE',  ( -1.000000000000000000, 0.000000000000000000, 0.000000000000000000 ) ) ;
#205 = ORIENTED_EDGE ( 'NONE', *, *, #33, .T. ) ;
#206 = EDGE_CURVE ( 'NONE', #66, #45, #323, .T. ) ;
#207 = VECTOR ( 'NONE', #183, 1000.000000000000000 ) ;
#208 = AXIS2_PLACEMENT_3D ( 'NONE', #44, #39, #154 ) ;
#209 = DIRECTION ( 'NONE',  ( 0.000000000000000000, 0.000000000000000000, 1.000000000000000000 ) ) ;
#210 = ORIENTED_EDGE ( 'NONE', *, *, #315, .F. ) ;
#211 = LOCAL_TIME ( 16, 25, 36.00000000000000000, #194 ) ;
#212 = CARTESIAN_POINT ( 'NONE',  ( 0.000000000000000000, 0.000000000000000000, 657.0000000000000000 ) ) ;
#213 = DIRECTION ( 'NONE',  ( 0.000000000000000000, 0.000000000000000000, -1.000000000000000000 ) ) ;
#214 = PERSON_AND_ORGANIZATION ( #88, #219 ) ;
#215 = ORIENTED_EDGE ( 'NONE', *, *, #351, .T. ) ;
#216 = EDGE_CURVE ( 'NONE', #360, #335, #356, .T. ) ;
#217 = CARTESIAN_POINT ( 'NONE',  ( 0.000000000000000000, 0.000000000000000000, 0.000000000000000000 ) ) ;
#218 = VECTOR ( 'NONE', #326, 1000.000000000000000 ) ;
#219 = ORGANIZATION ( 'NEURÈENÝ', 'NEURÈENÝ', '' ) ;
#220 = APPROVAL ( #50, 'NEURÈENÝ' ) ;
#221 = ORIENTED_EDGE ( 'NONE', *, *, #379, .T. ) ;
#222 = DIRECTION ( 'NONE',  ( 0.000000000000000000, 0.000000000000000000, -1.000000000000000000 ) ) ;
#223 = CARTESIAN_POINT ( 'NONE',  ( -10.00000000000000000, 0.000000000000000000, 7.000000000000000000 ) ) ;
#224 = PERSON_AND_ORGANIZATION_ROLE ( 'classification_officer' ) ;
#225 = DIRECTION ( 'NONE',  ( 1.000000000000000000, 0.000000000000000000, 0.000000000000000000 ) ) ;
#226 = EDGE_CURVE ( 'NONE', #184, #62, #170, .T. ) ;
#227 = APPLICATION_PROTOCOL_DEFINITION ( 'international standard', 'config_control_design', 1994, #228 ) ;
#228 = APPLICATION_CONTEXT ( 'configuration controlled 3d designs of mechanical parts and assemblies' ) ;
#229 = SHAPE_DEFINITION_REPRESENTATION ( #278, #27 ) ;
#230 = DIRECTION ( 'NONE',  ( 1.000000000000000000, 0.000000000000000000, 0.000000000000000000 ) ) ;
#231 = ADVANCED_FACE ( 'NONE', ( #202 ), #238, .F. ) ;
#232 = AXIS2_PLACEMENT_3D ( 'NONE', #298, #34, #94 ) ;
#233 = CIRCLE ( 'NONE', #42, 4.500000000000000000 ) ;
#234 = CYLINDRICAL_SURFACE ( 'NONE', #111, 4.500000000000000000 ) ;
#235 = CYLINDRICAL_SURFACE ( 'NONE', #41, 10.00000000000000000 ) ;
#236 = CC_DESIGN_DATE_AND_TIME_ASSIGNMENT ( #365, #101, ( #174 ) ) ;
#237 = DIRECTION ( 'NONE',  ( 1.000000000000000000, 0.000000000000000000, -0.000000000000000000 ) ) ;
#238 = TOROIDAL_SURFACE ( 'NONE', #232, 6.700000000000001066, 0.6999999999999999556 ) ;
#239 = CARTESIAN_POINT ( 'NONE',  ( 6.000000000000000888, 7.347880794884120722E-16, 7.700000000000040146 ) ) ;
#240 = DIRECTION ( 'NONE',  ( 1.000000000000000000, 0.000000000000000000, -0.000000000000000000 ) ) ;
#241 = ORIENTED_EDGE ( 'NONE', *, *, #163, .T. ) ;
#242 = EDGE_CURVE ( 'NONE', #45, #66, #90, .T. ) ;
#243 = DIRECTION ( 'NONE',  ( -0.000000000000000000, -0.000000000000000000, -1.000000000000000000 ) ) ;
#244 = ORIENTED_EDGE ( 'NONE', *, *, #172, .F. ) ;
#245 = TOROIDAL_SURFACE ( 'NONE', #81, 6.700000000000001066, 0.6999999999999999556 ) ;
#246 = DIRECTION ( 'NONE',  ( -0.000000000000000000, -0.000000000000000000, -1.000000000000000000 ) ) ;
#247 = LINE ( 'NONE', #110, #284 ) ;
#248 = PERSON_AND_ORGANIZATION ( #88, #219 ) ;
#249 = ORIENTED_EDGE ( 'NONE', *, *, #11, .T. ) ;
#250 = DATE_AND_TIME ( #130, #269 ) ;
#251 = DIRECTION ( 'NONE',  ( 0.000000000000000000, 0.000000000000000000, 1.000000000000000000 ) ) ;
#252 = DATE_AND_TIME ( #19, #123 ) ;
#253 = DIRECTION ( 'NONE',  ( 1.000000000000000000, 0.000000000000000000, 0.000000000000000000 ) ) ;
#254 = CIRCLE ( 'NONE', #151, 6.000000000000000888 ) ;
#255 = CC_DESIGN_APPROVAL ( #220, ( #174 ) ) ;
#256 = SECURITY_CLASSIFICATION_LEVEL ( 'unclassified' ) ;
#257 = CARTESIAN_POINT ( 'NONE',  ( 10.00000000000000000, 1.224646799147353256E-15, 0.000000000000000000 ) ) ;
#258 = DIRECTION ( 'NONE',  ( 1.000000000000000000, 0.000000000000000000, 0.000000000000000000 ) ) ;
#259 =( LENGTH_UNIT ( ) NAMED_UNIT ( * ) SI_UNIT ( .MILLI., .METRE. ) );
#260 = AXIS2_PLACEMENT_3D ( 'NONE', #64, #7, #9 ) ;
#261 = DIRECTION ( 'NONE',  ( 0.000000000000000000, 0.000000000000000000, -1.000000000000000000 ) ) ;
#262 = APPROVAL ( #164, 'NEURÈENÝ' ) ;
#263 = CIRCLE ( 'NONE', #378, 6.700000000000001066 ) ;
#264 = ORIENTED_EDGE ( 'NONE', *, *, #379, .F. ) ;
#265 = LINE ( 'NONE', #272, #350 ) ;
#266 = EDGE_LOOP ( 'NONE', ( #205, #215 ) ) ;
#267 = CYLINDRICAL_SURFACE ( 'NONE', #380, 6.000000000000000888 ) ;
#268 = ORIENTED_EDGE ( 'NONE', *, *, #226, .T. ) ;
#269 = LOCAL_TIME ( 16, 25, 36.00000000000000000, #195 ) ;
#270 = LINE ( 'NONE', #68, #207 ) ;
#271 = VERTEX_POINT ( 'NONE', #124 ) ;
#272 = CARTESIAN_POINT ( 'NONE',  ( -6.000000000000000888, 0.000000000000000000, 657.0000000000000000 ) ) ;
#273 = EDGE_LOOP ( 'NONE', ( #145, #18, #10, #40 ) ) ;
#274 = CYLINDRICAL_SURFACE ( 'NONE', #286, 10.00000000000000000 ) ;
#275 = DIRECTION ( 'NONE',  ( 0.000000000000000000, 0.000000000000000000, 1.000000000000000000 ) ) ;
#276 = CIRCLE ( 'NONE', #129, 6.000000000000000888 ) ;
#277 = CARTESIAN_POINT ( 'NONE',  ( 0.000000000000000000, 0.000000000000000000, 7.700000000000040146 ) ) ;
#278 = PRODUCT_DEFINITION_SHAPE ( 'NONE', 'NONE',  #333 ) ;
#279 = COORDINATED_UNIVERSAL_TIME_OFFSET ( 1, 0, .AHEAD. ) ;
#280 = DIRECTION ( 'NONE',  ( -0.000000000000000000, -0.000000000000000000, -1.000000000000000000 ) ) ;
#281 = CARTESIAN_POINT ( 'NONE',  ( 6.700000000000001066, 0.000000000000000000, 7.700000000000040146 ) ) ;
#282 = APPROVAL_ROLE ( '' ) ;
#283 = DIRECTION ( 'NONE',  ( -1.000000000000000000, 0.000000000000000000, 0.000000000000000000 ) ) ;
#284 = VECTOR ( 'NONE', #343, 1000.000000000000000 ) ;
#285 = APPROVAL ( #191, 'NEURÈENÝ' ) ;
#286 = AXIS2_PLACEMENT_3D ( 'NONE', #127, #246, #363 ) ;
#287 = CARTESIAN_POINT ( 'NONE',  ( 0.000000000000000000, 0.000000000000000000, 7.000000000000000000 ) ) ;
#288 = PERSON_AND_ORGANIZATION ( #88, #219 ) ;
#289 = CARTESIAN_POINT ( 'NONE',  ( 0.000000000000000000, 0.000000000000000000, 657.0000000000000000 ) ) ;
#290 = ADVANCED_FACE ( 'NONE', ( #37, #148 ), #178, .F. ) ;
#291 = CIRCLE ( 'NONE', #6, 4.500000000000000000 ) ;
#292 = DIRECTION ( 'NONE',  ( -1.000000000000000000, 0.000000000000000000, 0.000000000000000000 ) ) ;
#293 = EDGE_CURVE ( 'NONE', #93, #155, #291, .T. ) ;
#294 = VECTOR ( 'NONE', #92, 1000.000000000000000 ) ;
#295 = DIRECTION ( 'NONE',  ( 1.000000000000000000, 0.000000000000000000, 0.000000000000000000 ) ) ;
#296 = FACE_OUTER_BOUND ( 'NONE', #308, .T. ) ;
#297 = ORIENTED_EDGE ( 'NONE', *, *, #300, .F. ) ;
#298 = CARTESIAN_POINT ( 'NONE',  ( 0.000000000000000000, 0.000000000000000000, 7.700000000000040146 ) ) ;
#299 = ORIENTED_EDGE ( 'NONE', *, *, #43, .T. ) ;
#300 = EDGE_CURVE ( 'NONE', #47, #182, #303, .T. ) ;
#301 = DIRECTION ( 'NONE',  ( -0.000000000000000000, -0.000000000000000000, -1.000000000000000000 ) ) ;
#302 = ORIENTED_EDGE ( 'NONE', *, *, #59, .F. ) ;
#303 = CIRCLE ( 'NONE', #208, 10.00000000000000000 ) ;
#304 = CARTESIAN_POINT ( 'NONE',  ( -6.000000000000000888, 0.000000000000000000, 7.700000000000040146 ) ) ;
#305 = CYLINDRICAL_SURFACE ( 'NONE', #309, 6.000000000000000888 ) ;
#306 = DIRECTION ( 'NONE',  ( 0.000000000000000000, 0.000000000000000000, 1.000000000000000000 ) ) ;
#307 = ORIENTED_EDGE ( 'NONE', *, *, #107, .T. ) ;
#308 = EDGE_LOOP ( 'NONE', ( #297, #38, #95, #314 ) ) ;
#309 = AXIS2_PLACEMENT_3D ( 'NONE', #200, #14, #292 ) ;
#310 = LOCAL_TIME ( 16, 25, 36.00000000000000000, #48 ) ;
#311 = PERSON_AND_ORGANIZATION ( #88, #219 ) ;
#312 = EDGE_LOOP ( 'NONE', ( #175, #244, #138, #354 ) ) ;
#313 = CALENDAR_DATE ( 2022, 8, 7 ) ;
#314 = ORIENTED_EDGE ( 'NONE', *, *, #362, .F. ) ;
#315 = EDGE_CURVE ( 'NONE', #69, #203, #265, .T. ) ;
#316 = CARTESIAN_POINT ( 'NONE',  ( 0.000000000000000000, 0.000000000000000000, 0.000000000000000000 ) ) ;
#317 = FACE_OUTER_BOUND ( 'NONE', #20, .T. ) ;
#318 = DIRECTION ( 'NONE',  ( -1.000000000000000000, 0.000000000000000000, 0.000000000000000000 ) ) ;
#319 =( NAMED_UNIT ( * ) SI_UNIT ( $, .STERADIAN. ) SOLID_ANGLE_UNIT ( ) );
#320 = DIRECTION ( 'NONE',  ( 1.000000000000000000, 0.000000000000000000, 0.000000000000000000 ) ) ;
#321 = CLOSED_SHELL ( 'NONE', ( #146, #231, #140, #168, #369, #341, #290, #198, #136, #158, #78 ) ) ;
#322 = EDGE_LOOP ( 'NONE', ( #302, #131 ) ) ;
#323 = CIRCLE ( 'NONE', #260, 10.00000000000000000 ) ;
#324 = DIRECTION ( 'NONE',  ( -1.000000000000000000, 0.000000000000000000, 0.000000000000000000 ) ) ;
#325 = FACE_OUTER_BOUND ( 'NONE', #375, .T. ) ;
#326 = DIRECTION ( 'NONE',  ( -0.000000000000000000, -0.000000000000000000, -1.000000000000000000 ) ) ;
#327 = EDGE_LOOP ( 'NONE', ( #97, #264 ) ) ;
#328 = DIRECTION ( 'NONE',  ( 1.000000000000000000, 0.000000000000000000, -0.000000000000000000 ) ) ;
#329 = DIRECTION ( 'NONE',  ( 1.000000000000000000, 0.000000000000000000, 0.000000000000000000 ) ) ;
#330 = CARTESIAN_POINT ( 'NONE',  ( 6.000000000000000888, 7.347880794884120722E-16, 657.0000000000000000 ) ) ;
#331 = EDGE_LOOP ( 'NONE', ( #366, #143, #249, #210 ) ) ;
#332 = DIRECTION ( 'NONE',  ( 0.000000000000000000, 0.000000000000000000, 1.000000000000000000 ) ) ;
#333 = PRODUCT_DEFINITION ( 'NEZNÁMÝ', '', #171, #179 ) ;
#334 = DIRECTION ( 'NONE',  ( 0.000000000000000000, 0.000000000000000000, 1.000000000000000000 ) ) ;
#335 = VERTEX_POINT ( 'NONE', #239 ) ;
#336 = APPROVAL_ROLE ( '' ) ;
#337 = CARTESIAN_POINT ( 'NONE',  ( -6.700000000000001066, 8.205133554287267548E-16, 7.000000000000020428 ) ) ;
#338 = AXIS2_PLACEMENT_3D ( 'NONE', #108, #139, #258 ) ;
#339 = MECHANICAL_CONTEXT ( 'NONE', #228, 'mechanical' ) ;
#340 = CARTESIAN_POINT ( 'NONE',  ( -6.000000000000000888, 0.000000000000000000, 657.0000000000000000 ) ) ;
#341 = ADVANCED_FACE ( 'NONE', ( #3, #118 ), #359, .T. ) ;
#342 = APPROVAL_DATE_TIME ( #250, #285 ) ;
#343 = DIRECTION ( 'NONE',  ( 0.000000000000000000, 0.000000000000000000, -1.000000000000000000 ) ) ;
#344 = CARTESIAN_POINT ( 'NONE',  ( -4.500000000000000000, 0.000000000000000000, 657.0000000000000000 ) ) ;
#345 = PRODUCT ( '5f16', '5f16', '', ( #339 ) ) ;
#346 = DIRECTION ( 'NONE',  ( -1.000000000000000000, 1.224646799147353454E-16, 0.000000000000000000 ) ) ;
#347 = FACE_BOUND ( 'NONE', #327, .T. ) ;
#348 = AXIS2_PLACEMENT_3D ( 'NONE', #196, #275, #230 ) ;
#349 = PERSON_AND_ORGANIZATION ( #88, #219 ) ;
#350 = VECTOR ( 'NONE', #243, 1000.000000000000000 ) ;
#351 = EDGE_CURVE ( 'NONE', #360, #69, #67, .T. ) ;
#352 = EDGE_LOOP ( 'NONE', ( #53, #241 ) ) ;
#353 = CARTESIAN_POINT ( 'NONE',  ( 0.000000000000000000, 0.000000000000000000, 657.0000000000000000 ) ) ;
#354 = ORIENTED_EDGE ( 'NONE', *, *, #206, .T. ) ;
#355 = AXIS2_PLACEMENT_3D ( 'NONE', #167, #213, #283 ) ;
#356 = LINE ( 'NONE', #126, #294 ) ;
#357 = DIRECTION ( 'NONE',  ( 1.000000000000000000, 0.000000000000000000, 0.000000000000000000 ) ) ;
#358 = ORIENTED_EDGE ( 'NONE', *, *, #33, .F. ) ;
#359 = PLANE ( 'NONE',  #180 ) ;
#360 = VERTEX_POINT ( 'NONE', #330 ) ;
#361 = CIRCLE ( 'NONE', #348, 6.000000000000000888 ) ;
#362 = EDGE_CURVE ( 'NONE', #182, #66, #270, .T. ) ;
#363 = DIRECTION ( 'NONE',  ( -1.000000000000000000, 0.000000000000000000, 0.000000000000000000 ) ) ;
#364 = ORIENTED_EDGE ( 'NONE', *, *, #163, .F. ) ;
#365 = DATE_AND_TIME ( #134, #310 ) ;
#366 = ORIENTED_EDGE ( 'NONE', *, *, #351, .F. ) ;
#367 = PERSON_AND_ORGANIZATION ( #88, #219 ) ;
#368 = LINE ( 'NONE', #157, #29 ) ;
#369 = ADVANCED_FACE ( 'NONE', ( #201 ), #274, .T. ) ;
#370 = AXIS2_PLACEMENT_3D ( 'NONE', #87, #169, #1 ) ;
#371 = LOCAL_TIME ( 16, 25, 36.00000000000000000, #279 ) ;
#372 = CARTESIAN_POINT ( 'NONE',  ( 0.000000000000000000, 0.000000000000000000, 657.0000000000000000 ) ) ;
#373 = DIRECTION ( 'NONE',  ( 0.000000000000000000, -1.000000000000000000, 0.000000000000000000 ) ) ;
#374 = PERSON_AND_ORGANIZATION ( #88, #219 ) ;
#375 = EDGE_LOOP ( 'NONE', ( #153, #358, #49, #307 ) ) ;
#376 = DIRECTION ( 'NONE',  ( 1.000000000000000000, 0.000000000000000000, 0.000000000000000000 ) ) ;
#377 = CARTESIAN_POINT ( 'NONE',  ( 0.000000000000000000, 0.000000000000000000, 7.700000000000040146 ) ) ;
#378 = AXIS2_PLACEMENT_3D ( 'NONE', #162, #24, #253 ) ;
#379 = EDGE_CURVE ( 'NONE', #62, #184, #233, .T. ) ;
#380 = AXIS2_PLACEMENT_3D ( 'NONE', #181, #301, #204 ) ;
#381 =( GEOMETRIC_REPRESENTATION_CONTEXT ( 3 ) GLOBAL_UNCERTAINTY_ASSIGNED_CONTEXT ( ( #86 ) ) GLOBAL_UNIT_ASSIGNED_CONTEXT ( ( #259, #166, #319 ) ) REPRESENTATION_CONTEXT ( 'NONE', 'WORKASPACE' ) );
ENDSEC;
END-ISO-10303-21;
