ISO-10303-21;
HEADER;
FILE_DESCRIPTION (( 'STEP AP203' ),
    '1' );
FILE_NAME ('12a5.STEP',
    '2022-07-08T15:47:40',
    ( '' ),
    ( '' ),
    'SwSTEP 2.0',
    'SolidWorks 2019',
    '' );
FILE_SCHEMA (( 'CONFIG_CONTROL_DESIGN' ));
ENDSEC;

DATA;
#1 = ADVANCED_FACE ( 'NONE', ( #238 ), #104, .F. ) ;
#2 = MECHANICAL_CONTEXT ( 'NONE', #289, 'mechanical' ) ;
#3 = AXIS2_PLACEMENT_3D ( 'NONE', #285, #229, #25 ) ;
#4 = EDGE_LOOP ( 'NONE', ( #203, #214, #119, #190 ) ) ;
#5 = APPROVAL_PERSON_ORGANIZATION ( #172, #223, #147 ) ;
#6 = DIRECTION ( 'NONE',  ( 0.000000000000000000, 0.000000000000000000, 1.000000000000000000 ) ) ;
#7 = EDGE_LOOP ( 'NONE', ( #102, #264, #88, #91 ) ) ;
#8 = CARTESIAN_POINT ( 'NONE',  ( -5.000000000000000000, 0.000000000000000000, 3.000000000000000000 ) ) ;
#9 = ORIENTED_EDGE ( 'NONE', *, *, #71, .T. ) ;
#10 = PERSON_AND_ORGANIZATION ( #191, #163 ) ;
#11 = EDGE_CURVE ( 'NONE', #317, #241, #309, .T. ) ;
#12 = DIRECTION ( 'NONE',  ( -0.000000000000000000, -0.000000000000000000, -1.000000000000000000 ) ) ;
#13 = DIRECTION ( 'NONE',  ( -0.000000000000000000, -0.000000000000000000, -1.000000000000000000 ) ) ;
#14 = EDGE_CURVE ( 'NONE', #216, #257, #319, .T. ) ;
#15 = DIRECTION ( 'NONE',  ( 0.000000000000000000, 0.000000000000000000, 1.000000000000000000 ) ) ;
#16 = ORIENTED_EDGE ( 'NONE', *, *, #84, .T. ) ;
#17 = DIRECTION ( 'NONE',  ( 0.000000000000000000, 0.000000000000000000, -1.000000000000000000 ) ) ;
#18 = AXIS2_PLACEMENT_3D ( 'NONE', #329, #36, #83 ) ;
#19 = ADVANCED_FACE ( 'NONE', ( #165 ), #193, .T. ) ;
#20 = LINE ( 'NONE', #255, #24 ) ;
#21 = CARTESIAN_POINT ( 'NONE',  ( 0.000000000000000000, 0.000000000000000000, 228.0000000000000000 ) ) ;
#22 = DIRECTION ( 'NONE',  ( 0.000000000000000000, 0.000000000000000000, -1.000000000000000000 ) ) ;
#23 = AXIS2_PLACEMENT_3D ( 'NONE', #194, #15, #63 ) ;
#24 = VECTOR ( 'NONE', #110, 1000.000000000000000 ) ;
#25 = DIRECTION ( 'NONE',  ( 1.000000000000000000, 0.000000000000000000, 0.000000000000000000 ) ) ;
#26 = VERTEX_POINT ( 'NONE', #97 ) ;
#27 = EDGE_CURVE ( 'NONE', #154, #174, #369, .T. ) ;
#28 = EDGE_LOOP ( 'NONE', ( #212, #381, #55, #126 ) ) ;
#29 = CC_DESIGN_PERSON_AND_ORGANIZATION_ASSIGNMENT ( #153, #125, ( #301 ) ) ;
#30 = AXIS2_PLACEMENT_3D ( 'NONE', #77, #170, #291 ) ;
#31 = ORIENTED_EDGE ( 'NONE', *, *, #228, .F. ) ;
#32 = DIRECTION ( 'NONE',  ( -0.000000000000000000, -0.000000000000000000, -1.000000000000000000 ) ) ;
#33 = EDGE_LOOP ( 'NONE', ( #290, #31, #222, #145 ) ) ;
#34 = COORDINATED_UNIVERSAL_TIME_OFFSET ( 1, 0, .AHEAD. ) ;
#35 = VERTEX_POINT ( 'NONE', #44 ) ;
#36 = DIRECTION ( 'NONE',  ( 0.000000000000000000, 0.000000000000000000, 1.000000000000000000 ) ) ;
#37 = AXIS2_PLACEMENT_3D ( 'NONE', #375, #108, #215 ) ;
#38 = ADVANCED_FACE ( 'NONE', ( #224, #251 ), #280, .T. ) ;
#39 = VERTEX_POINT ( 'NONE', #335 ) ;
#40 = PERSON_AND_ORGANIZATION ( #191, #163 ) ;
#41 = CARTESIAN_POINT ( 'NONE',  ( 0.000000000000000000, 0.000000000000000000, 3.000000000000000000 ) ) ;
#42 = CIRCLE ( 'NONE', #56, 0.2999999999999999334 ) ;
#43 = DIRECTION ( 'NONE',  ( -0.000000000000000000, -0.000000000000000000, -1.000000000000000000 ) ) ;
#44 = CARTESIAN_POINT ( 'NONE',  ( -1.250000000000000000, 0.000000000000000000, 228.0000000000000000 ) ) ;
#45 = PRODUCT_RELATED_PRODUCT_CATEGORY ( 'detail', '', ( #186 ) ) ;
#46 = CARTESIAN_POINT ( 'NONE',  ( 1.250000000000000000, 1.530808498934191324E-16, 228.0000000000000000 ) ) ;
#47 = AXIS2_PLACEMENT_3D ( 'NONE', #316, #107, #204 ) ;
#48 = PRODUCT_DEFINITION_FORMATION_WITH_SPECIFIED_SOURCE ( 'LIBOVOLNÝ', '', #186, .NOT_KNOWN. ) ;
#49 = DIRECTION ( 'NONE',  ( 0.000000000000000000, -1.000000000000000000, 0.000000000000000000 ) ) ;
#50 = CARTESIAN_POINT ( 'NONE',  ( 5.000000000000000000, 6.123233995736766282E-16, 0.000000000000000000 ) ) ;
#51 = CYLINDRICAL_SURFACE ( 'NONE', #47, 1.250000000000000000 ) ;
#52 = DIRECTION ( 'NONE',  ( -0.000000000000000000, -0.000000000000000000, -1.000000000000000000 ) ) ;
#53 = EDGE_CURVE ( 'NONE', #174, #154, #242, .T. ) ;
#54 = DATE_AND_TIME ( #350, #286 ) ;
#55 = ORIENTED_EDGE ( 'NONE', *, *, #11, .T. ) ;
#56 = AXIS2_PLACEMENT_3D ( 'NONE', #380, #49, #17 ) ;
#57 = ORIENTED_EDGE ( 'NONE', *, *, #53, .F. ) ;
#58 = APPROVAL_STATUS ( 'not_yet_approved' ) ;
#59 = VERTEX_POINT ( 'NONE', #308 ) ;
#60 = ADVANCED_BREP_SHAPE_REPRESENTATION ( '12a5', ( #69, #256 ), #226 ) ;
#61 = EDGE_CURVE ( 'NONE', #241, #317, #260, .T. ) ;
#62 = DIRECTION ( 'NONE',  ( 0.000000000000000000, 0.000000000000000000, 1.000000000000000000 ) ) ;
#63 = DIRECTION ( 'NONE',  ( 1.000000000000000000, 0.000000000000000000, 0.000000000000000000 ) ) ;
#64 = CC_DESIGN_PERSON_AND_ORGANIZATION_ASSIGNMENT ( #89, #213, ( #186 ) ) ;
#65 = PERSON_AND_ORGANIZATION_ROLE ( 'classification_officer' ) ;
#66 = CARTESIAN_POINT ( 'NONE',  ( 0.000000000000000000, 0.000000000000000000, 228.0000000000000000 ) ) ;
#67 = CYLINDRICAL_SURFACE ( 'NONE', #150, 2.500000000000000000 ) ;
#68 = AXIS2_PLACEMENT_3D ( 'NONE', #306, #43, #132 ) ;
#69 = MANIFOLD_SOLID_BREP ( 'Odebrat vysunutím3', #218 ) ;
#70 = DIRECTION ( 'NONE',  ( 0.000000000000000000, 0.000000000000000000, -1.000000000000000000 ) ) ;
#71 = EDGE_CURVE ( 'NONE', #35, #39, #189, .T. ) ;
#72 = ORIENTED_EDGE ( 'NONE', *, *, #356, .T. ) ;
#73 = CARTESIAN_POINT ( 'NONE',  ( 5.000000000000000000, 6.123233995736766282E-16, 3.000000000000000000 ) ) ;
#74 = FACE_OUTER_BOUND ( 'NONE', #200, .T. ) ;
#75 = ORIENTED_EDGE ( 'NONE', *, *, #374, .F. ) ;
#76 = DIRECTION ( 'NONE',  ( 0.000000000000000000, 0.000000000000000000, 1.000000000000000000 ) ) ;
#77 = CARTESIAN_POINT ( 'NONE',  ( -2.799999999999999822, 3.429011037612588783E-16, 3.299999999999997158 ) ) ;
#78 = CYLINDRICAL_SURFACE ( 'NONE', #206, 5.000000000000000000 ) ;
#79 = ORIENTED_EDGE ( 'NONE', *, *, #197, .T. ) ;
#80 = AXIS2_PLACEMENT_3D ( 'NONE', #259, #324, #271 ) ;
#81 = CC_DESIGN_APPROVAL ( #343, ( #156 ) ) ;
#82 = APPROVAL_DATE_TIME ( #54, #223 ) ;
#83 = DIRECTION ( 'NONE',  ( 1.000000000000000000, 0.000000000000000000, 0.000000000000000000 ) ) ;
#84 = EDGE_CURVE ( 'NONE', #179, #298, #361, .T. ) ;
#85 = PERSON_AND_ORGANIZATION_ROLE ( 'design_supplier' ) ;
#86 = ORIENTED_EDGE ( 'NONE', *, *, #197, .F. ) ;
#87 =( NAMED_UNIT ( * ) PLANE_ANGLE_UNIT ( ) SI_UNIT ( $, .RADIAN. ) );
#88 = ORIENTED_EDGE ( 'NONE', *, *, #53, .T. ) ;
#89 = PERSON_AND_ORGANIZATION ( #191, #163 ) ;
#90 = CALENDAR_DATE ( 2022, 8, 7 ) ;
#91 = ORIENTED_EDGE ( 'NONE', *, *, #366, .F. ) ;
#92 = APPROVAL_ROLE ( '' ) ;
#93 = DIRECTION ( 'NONE',  ( -1.000000000000000000, 0.000000000000000000, 0.000000000000000000 ) ) ;
#94 = PRODUCT_DEFINITION_SHAPE ( 'NONE', 'NONE',  #301 ) ;
#95 = AXIS2_PLACEMENT_3D ( 'NONE', #41, #13, #93 ) ;
#96 = SHAPE_DEFINITION_REPRESENTATION ( #94, #60 ) ;
#97 = CARTESIAN_POINT ( 'NONE',  ( 2.799999999999999822, 0.000000000000000000, 2.999999999999998668 ) ) ;
#98 = AXIS2_PLACEMENT_3D ( 'NONE', #21, #318, #112 ) ;
#99 = APPROVAL ( #58, 'NEURÈENÝ' ) ;
#100 = CALENDAR_DATE ( 2022, 8, 7 ) ;
#101 = DIRECTION ( 'NONE',  ( -0.000000000000000000, -0.000000000000000000, -1.000000000000000000 ) ) ;
#102 = ORIENTED_EDGE ( 'NONE', *, *, #84, .F. ) ;
#103 = CARTESIAN_POINT ( 'NONE',  ( 2.500000000000000000, 3.061616997868383141E-16, 228.0000000000000000 ) ) ;
#104 = TOROIDAL_SURFACE ( 'NONE', #18, 2.799999999999999822, 0.2999999999999999889 ) ;
#105 = CIRCLE ( 'NONE', #332, 2.799999999999999822 ) ;
#106 = EDGE_CURVE ( 'NONE', #26, #123, #198, .T. ) ;
#107 = DIRECTION ( 'NONE',  ( 0.000000000000000000, 0.000000000000000000, -1.000000000000000000 ) ) ;
#108 = DIRECTION ( 'NONE',  ( 0.000000000000000000, 0.000000000000000000, 1.000000000000000000 ) ) ;
#109 = AXIS2_PLACEMENT_3D ( 'NONE', #276, #221, #247 ) ;
#110 = DIRECTION ( 'NONE',  ( -0.000000000000000000, -0.000000000000000000, -1.000000000000000000 ) ) ;
#111 = EDGE_LOOP ( 'NONE', ( #293, #121 ) ) ;
#112 = DIRECTION ( 'NONE',  ( -1.000000000000000000, 0.000000000000000000, 0.000000000000000000 ) ) ;
#113 = DATE_AND_TIME ( #90, #371 ) ;
#114 = CC_DESIGN_DATE_AND_TIME_ASSIGNMENT ( #274, #188, ( #156 ) ) ;
#115 = VERTEX_POINT ( 'NONE', #337 ) ;
#116 = CIRCLE ( 'NONE', #344, 1.250000000000000000 ) ;
#117 = APPROVAL_PERSON_ORGANIZATION ( #10, #99, #120 ) ;
#118 = CARTESIAN_POINT ( 'NONE',  ( 0.000000000000000000, 0.000000000000000000, 3.000000000000000000 ) ) ;
#119 = ORIENTED_EDGE ( 'NONE', *, *, #106, .F. ) ;
#120 = APPROVAL_ROLE ( '' ) ;
#121 = ORIENTED_EDGE ( 'NONE', *, *, #356, .F. ) ;
#122 = CARTESIAN_POINT ( 'NONE',  ( 0.000000000000000000, 0.000000000000000000, 0.000000000000000000 ) ) ;
#123 = VERTEX_POINT ( 'NONE', #160 ) ;
#124 = ADVANCED_FACE ( 'NONE', ( #277 ), #67, .T. ) ;
#125 = PERSON_AND_ORGANIZATION_ROLE ( 'creator' ) ;
#126 = ORIENTED_EDGE ( 'NONE', *, *, #292, .F. ) ;
#127 = DIRECTION ( 'NONE',  ( 0.000000000000000000, 0.000000000000000000, 1.000000000000000000 ) ) ;
#128 = CARTESIAN_POINT ( 'NONE',  ( 0.000000000000000000, 0.000000000000000000, 3.000000000000000000 ) ) ;
#129 = EDGE_CURVE ( 'NONE', #216, #317, #282, .T. ) ;
#130 = UNCERTAINTY_MEASURE_WITH_UNIT (LENGTH_MEASURE( 1.000000000000000082E-05 ), #296, 'distance_accuracy_value', 'NONE');
#131 = APPROVAL_DATE_TIME ( #185, #343 ) ;
#132 = DIRECTION ( 'NONE',  ( 1.000000000000000000, 0.000000000000000000, 0.000000000000000000 ) ) ;
#133 = APPROVAL_PERSON_ORGANIZATION ( #40, #343, #92 ) ;
#134 = EDGE_LOOP ( 'NONE', ( #364, #75, #270, #348 ) ) ;
#135 = CARTESIAN_POINT ( 'NONE',  ( 0.000000000000000000, 0.000000000000000000, 3.000000000000000000 ) ) ;
#136 = CARTESIAN_POINT ( 'NONE',  ( 0.000000000000000000, 0.000000000000000000, 0.000000000000000000 ) ) ;
#137 = CC_DESIGN_PERSON_AND_ORGANIZATION_ASSIGNMENT ( #265, #208, ( #48 ) ) ;
#138 = DIRECTION ( 'NONE',  ( -0.000000000000000000, -0.000000000000000000, -1.000000000000000000 ) ) ;
#139 = CARTESIAN_POINT ( 'NONE',  ( -2.500000000000000000, 0.000000000000000000, 228.0000000000000000 ) ) ;
#140 = EDGE_LOOP ( 'NONE', ( #346, #79, #9, #195 ) ) ;
#141 = FACE_OUTER_BOUND ( 'NONE', #7, .T. ) ;
#142 = LINE ( 'NONE', #46, #219 ) ;
#143 = VECTOR ( 'NONE', #144, 1000.000000000000000 ) ;
#144 = DIRECTION ( 'NONE',  ( -0.000000000000000000, -0.000000000000000000, -1.000000000000000000 ) ) ;
#145 = ORIENTED_EDGE ( 'NONE', *, *, #61, .T. ) ;
#146 = EDGE_CURVE ( 'NONE', #39, #115, #351, .T. ) ;
#147 = APPROVAL_ROLE ( '' ) ;
#148 = APPROVAL_STATUS ( 'not_yet_approved' ) ;
#149 = VECTOR ( 'NONE', #70, 1000.000000000000000 ) ;
#150 = AXIS2_PLACEMENT_3D ( 'NONE', #66, #12, #164 ) ;
#151 = EDGE_LOOP ( 'NONE', ( #313, #307 ) ) ;
#152 = CC_DESIGN_PERSON_AND_ORGANIZATION_ASSIGNMENT ( #266, #85, ( #48 ) ) ;
#153 = PERSON_AND_ORGANIZATION ( #191, #163 ) ;
#154 = VERTEX_POINT ( 'NONE', #249 ) ;
#155 = AXIS2_PLACEMENT_3D ( 'NONE', #373, #263, #349 ) ;
#156 = SECURITY_CLASSIFICATION ( '', '', #210 ) ;
#157 = ADVANCED_FACE ( 'NONE', ( #367, #363 ), #359, .F. ) ;
#158 = CARTESIAN_POINT ( 'NONE',  ( 0.000000000000000000, 0.000000000000000000, 228.0000000000000000 ) ) ;
#159 = ORIENTED_EDGE ( 'NONE', *, *, #305, .F. ) ;
#160 = CARTESIAN_POINT ( 'NONE',  ( -2.799999999999999822, 3.429011037612589276E-16, 2.999999999999998668 ) ) ;
#161 = DIRECTION ( 'NONE',  ( 1.000000000000000000, 0.000000000000000000, 0.000000000000000000 ) ) ;
#162 = AXIS2_PLACEMENT_3D ( 'NONE', #136, #252, #246 ) ;
#163 = ORGANIZATION ( 'NEURÈENÝ', 'NEURÈENÝ', '' ) ;
#164 = DIRECTION ( 'NONE',  ( -1.000000000000000000, 0.000000000000000000, 0.000000000000000000 ) ) ;
#165 = FACE_OUTER_BOUND ( 'NONE', #134, .T. ) ;
#166 = FACE_BOUND ( 'NONE', #180, .T. ) ;
#167 = CC_DESIGN_APPROVAL ( #99, ( #301 ) ) ;
#168 = ADVANCED_FACE ( 'NONE', ( #304 ), #51, .F. ) ;
#169 = FACE_OUTER_BOUND ( 'NONE', #140, .T. ) ;
#170 = DIRECTION ( 'NONE',  ( 1.224646799147353207E-16, 1.000000000000000000, -0.000000000000000000 ) ) ;
#171 = FACE_OUTER_BOUND ( 'NONE', #275, .T. ) ;
#172 = PERSON_AND_ORGANIZATION ( #191, #163 ) ;
#173 = ORIENTED_EDGE ( 'NONE', *, *, #71, .F. ) ;
#174 = VERTEX_POINT ( 'NONE', #50 ) ;
#175 = CIRCLE ( 'NONE', #183, 5.000000000000000000 ) ;
#176 =( NAMED_UNIT ( * ) SI_UNIT ( $, .STERADIAN. ) SOLID_ANGLE_UNIT ( ) );
#177 = ADVANCED_FACE ( 'NONE', ( #166, #171 ), #288, .T. ) ;
#178 = DATE_AND_TIME ( #353, #310 ) ;
#179 = VERTEX_POINT ( 'NONE', #73 ) ;
#180 = EDGE_LOOP ( 'NONE', ( #159, #86 ) ) ;
#181 = CC_DESIGN_PERSON_AND_ORGANIZATION_ASSIGNMENT ( #322, #65, ( #156 ) ) ;
#182 = AXIS2_PLACEMENT_3D ( 'NONE', #338, #62, #184 ) ;
#183 = AXIS2_PLACEMENT_3D ( 'NONE', #118, #327, #297 ) ;
#184 = DIRECTION ( 'NONE',  ( 1.000000000000000000, 0.000000000000000000, -0.000000000000000000 ) ) ;
#185 = DATE_AND_TIME ( #100, #207 ) ;
#186 = PRODUCT ( '12a5', '12a5', '', ( #2 ) ) ;
#187 = DIRECTION ( 'NONE',  ( 1.000000000000000000, 0.000000000000000000, 0.000000000000000000 ) ) ;
#188 = DATE_TIME_ROLE ( 'classification_date' ) ;
#189 = LINE ( 'NONE', #217, #149 ) ;
#190 = ORIENTED_EDGE ( 'NONE', *, *, #205, .F. ) ;
#191 = PERSON ( 'NEURÈENÝ', 'NEURÈENÝ', 'NEURÈENÝ', ('NEURÈENÝ'), ('NEURÈENÝ'), ('NEURÈENÝ') ) ;
#192 = AXIS2_PLACEMENT_3D ( 'NONE', #209, #268, #326 ) ;
#193 = CYLINDRICAL_SURFACE ( 'NONE', #95, 5.000000000000000000 ) ;
#194 = CARTESIAN_POINT ( 'NONE',  ( 0.000000000000000000, 0.000000000000000000, 0.000000000000000000 ) ) ;
#195 = ORIENTED_EDGE ( 'NONE', *, *, #146, .T. ) ;
#196 = CARTESIAN_POINT ( 'NONE',  ( -2.500000000000000000, 0.000000000000000000, 3.299999999999997158 ) ) ;
#197 = EDGE_CURVE ( 'NONE', #59, #35, #116, .T. ) ;
#198 = CIRCLE ( 'NONE', #68, 2.799999999999999822 ) ;
#199 = CARTESIAN_POINT ( 'NONE',  ( 0.000000000000000000, 0.000000000000000000, 228.0000000000000000 ) ) ;
#200 = EDGE_LOOP ( 'NONE', ( #368, #379, #323, #287 ) ) ;
#201 = CARTESIAN_POINT ( 'NONE',  ( 2.500000000000000000, 3.061616997868383141E-16, 228.0000000000000000 ) ) ;
#202 = CYLINDRICAL_SURFACE ( 'NONE', #155, 2.500000000000000000 ) ;
#203 = ORIENTED_EDGE ( 'NONE', *, *, #61, .F. ) ;
#204 = DIRECTION ( 'NONE',  ( -1.000000000000000000, 0.000000000000000000, 0.000000000000000000 ) ) ;
#205 = EDGE_CURVE ( 'NONE', #317, #26, #42, .T. ) ;
#206 = AXIS2_PLACEMENT_3D ( 'NONE', #320, #52, #341 ) ;
#207 = LOCAL_TIME ( 17, 47, 40.00000000000000000, #360 ) ;
#208 = PERSON_AND_ORGANIZATION_ROLE ( 'creator' ) ;
#209 = CARTESIAN_POINT ( 'NONE',  ( 0.000000000000000000, 0.000000000000000000, 3.299999999999997158 ) ) ;
#210 = SECURITY_CLASSIFICATION_LEVEL ( 'unclassified' ) ;
#211 = EDGE_CURVE ( 'NONE', #241, #123, #262, .T. ) ;
#212 = ORIENTED_EDGE ( 'NONE', *, *, #14, .F. ) ;
#213 = PERSON_AND_ORGANIZATION_ROLE ( 'design_owner' ) ;
#214 = ORIENTED_EDGE ( 'NONE', *, *, #211, .T. ) ;
#215 = DIRECTION ( 'NONE',  ( 1.000000000000000000, 0.000000000000000000, 0.000000000000000000 ) ) ;
#216 = VERTEX_POINT ( 'NONE', #201 ) ;
#217 = CARTESIAN_POINT ( 'NONE',  ( -1.250000000000000000, 0.000000000000000000, 228.0000000000000000 ) ) ;
#218 = CLOSED_SHELL ( 'NONE', ( #168, #1, #321, #331, #19, #38, #157, #124, #177, #339, #245 ) ) ;
#219 = VECTOR ( 'NONE', #22, 1000.000000000000000 ) ;
#220 = DIRECTION ( 'NONE',  ( 0.000000000000000000, 0.000000000000000000, 1.000000000000000000 ) ) ;
#221 = DIRECTION ( 'NONE',  ( 0.000000000000000000, 0.000000000000000000, 1.000000000000000000 ) ) ;
#222 = ORIENTED_EDGE ( 'NONE', *, *, #292, .T. ) ;
#223 = APPROVAL ( #148, 'NEURÈENÝ' ) ;
#224 = FACE_BOUND ( 'NONE', #151, .T. ) ;
#225 = DIRECTION ( 'NONE',  ( 1.000000000000000000, 0.000000000000000000, -0.000000000000000000 ) ) ;
#226 =( GEOMETRIC_REPRESENTATION_CONTEXT ( 3 ) GLOBAL_UNCERTAINTY_ASSIGNED_CONTEXT ( ( #130 ) ) GLOBAL_UNIT_ASSIGNED_CONTEXT ( ( #296, #87, #176 ) ) REPRESENTATION_CONTEXT ( 'NONE', 'WORKASPACE' ) );
#227 = DIRECTION ( 'NONE',  ( 0.000000000000000000, 0.000000000000000000, 1.000000000000000000 ) ) ;
#228 = EDGE_CURVE ( 'NONE', #257, #216, #273, .T. ) ;
#229 = DIRECTION ( 'NONE',  ( 0.000000000000000000, 0.000000000000000000, 1.000000000000000000 ) ) ;
#230 = DIRECTION ( 'NONE',  ( 1.000000000000000000, 0.000000000000000000, -0.000000000000000000 ) ) ;
#231 = LOCAL_TIME ( 17, 47, 40.00000000000000000, #303 ) ;
#232 = CARTESIAN_POINT ( 'NONE',  ( -2.500000000000000000, 0.000000000000000000, 228.0000000000000000 ) ) ;
#233 = ORIENTED_EDGE ( 'NONE', *, *, #374, .T. ) ;
#234 = DIRECTION ( 'NONE',  ( 0.000000000000000000, 0.000000000000000000, 1.000000000000000000 ) ) ;
#235 = ORIENTED_EDGE ( 'NONE', *, *, #14, .T. ) ;
#236 = DIRECTION ( 'NONE',  ( 1.000000000000000000, 0.000000000000000000, 0.000000000000000000 ) ) ;
#237 = ORIENTED_EDGE ( 'NONE', *, *, #27, .F. ) ;
#238 = FACE_OUTER_BOUND ( 'NONE', #4, .T. ) ;
#239 = EDGE_CURVE ( 'NONE', #59, #115, #142, .T. ) ;
#240 = COORDINATED_UNIVERSAL_TIME_OFFSET ( 1, 0, .AHEAD. ) ;
#241 = VERTEX_POINT ( 'NONE', #196 ) ;
#242 = CIRCLE ( 'NONE', #342, 5.000000000000000000 ) ;
#243 = CIRCLE ( 'NONE', #269, 1.250000000000000000 ) ;
#244 = COORDINATED_UNIVERSAL_TIME_OFFSET ( 1, 0, .AHEAD. ) ;
#245 = ADVANCED_FACE ( 'NONE', ( #169 ), #312, .F. ) ;
#246 = DIRECTION ( 'NONE',  ( 1.000000000000000000, 0.000000000000000000, 0.000000000000000000 ) ) ;
#247 = DIRECTION ( 'NONE',  ( 1.000000000000000000, 0.000000000000000000, 0.000000000000000000 ) ) ;
#248 = CALENDAR_DATE ( 2022, 8, 7 ) ;
#249 = CARTESIAN_POINT ( 'NONE',  ( -5.000000000000000000, 0.000000000000000000, 0.000000000000000000 ) ) ;
#250 = ORIENTED_EDGE ( 'NONE', *, *, #305, .T. ) ;
#251 = FACE_OUTER_BOUND ( 'NONE', #302, .T. ) ;
#252 = DIRECTION ( 'NONE',  ( -0.000000000000000000, -0.000000000000000000, -1.000000000000000000 ) ) ;
#253 = CC_DESIGN_DATE_AND_TIME_ASSIGNMENT ( #113, #328, ( #301 ) ) ;
#254 = CIRCLE ( 'NONE', #80, 1.250000000000000000 ) ;
#255 = CARTESIAN_POINT ( 'NONE',  ( 5.000000000000000000, 6.123233995736766282E-16, 3.000000000000000000 ) ) ;
#256 = AXIS2_PLACEMENT_3D ( 'NONE', #122, #6, #236 ) ;
#257 = VERTEX_POINT ( 'NONE', #139 ) ;
#258 = CARTESIAN_POINT ( 'NONE',  ( 2.500000000000000000, 3.061616997868383141E-16, 3.299999999999997158 ) ) ;
#259 = CARTESIAN_POINT ( 'NONE',  ( 0.000000000000000000, 0.000000000000000000, 0.000000000000000000 ) ) ;
#260 = CIRCLE ( 'NONE', #109, 2.500000000000000000 ) ;
#261 = CARTESIAN_POINT ( 'NONE',  ( 0.000000000000000000, 0.000000000000000000, 3.000000000000000000 ) ) ;
#262 = CIRCLE ( 'NONE', #30, 0.2999999999999999334 ) ;
#263 = DIRECTION ( 'NONE',  ( -0.000000000000000000, -0.000000000000000000, -1.000000000000000000 ) ) ;
#264 = ORIENTED_EDGE ( 'NONE', *, *, #272, .T. ) ;
#265 = PERSON_AND_ORGANIZATION ( #191, #163 ) ;
#266 = PERSON_AND_ORGANIZATION ( #191, #163 ) ;
#267 = EDGE_CURVE ( 'NONE', #123, #26, #105, .T. ) ;
#268 = DIRECTION ( 'NONE',  ( 0.000000000000000000, 0.000000000000000000, 1.000000000000000000 ) ) ;
#269 = AXIS2_PLACEMENT_3D ( 'NONE', #294, #234, #347 ) ;
#270 = ORIENTED_EDGE ( 'NONE', *, *, #366, .T. ) ;
#271 = DIRECTION ( 'NONE',  ( 1.000000000000000000, 0.000000000000000000, 0.000000000000000000 ) ) ;
#272 = EDGE_CURVE ( 'NONE', #179, #174, #20, .T. ) ;
#273 = CIRCLE ( 'NONE', #3, 2.500000000000000000 ) ;
#274 = DATE_AND_TIME ( #248, #231 ) ;
#275 = EDGE_LOOP ( 'NONE', ( #355, #235 ) ) ;
#276 = CARTESIAN_POINT ( 'NONE',  ( 0.000000000000000000, 0.000000000000000000, 3.299999999999997158 ) ) ;
#277 = FACE_OUTER_BOUND ( 'NONE', #33, .T. ) ;
#278 = AXIS2_PLACEMENT_3D ( 'NONE', #158, #311, #161 ) ;
#279 = VECTOR ( 'NONE', #32, 1000.000000000000000 ) ;
#280 = PLANE ( 'NONE',  #314 ) ;
#281 = APPLICATION_CONTEXT ( 'configuration controlled 3d designs of mechanical parts and assemblies' ) ;
#282 = LINE ( 'NONE', #103, #295 ) ;
#283 = LINE ( 'NONE', #232, #143 ) ;
#284 = AXIS2_PLACEMENT_3D ( 'NONE', #340, #227, #230 ) ;
#285 = CARTESIAN_POINT ( 'NONE',  ( 0.000000000000000000, 0.000000000000000000, 228.0000000000000000 ) ) ;
#286 = LOCAL_TIME ( 17, 47, 40.00000000000000000, #240 ) ;
#287 = ORIENTED_EDGE ( 'NONE', *, *, #267, .F. ) ;
#288 = PLANE ( 'NONE',  #284 ) ;
#289 = APPLICATION_CONTEXT ( 'configuration controlled 3d designs of mechanical parts and assemblies' ) ;
#290 = ORIENTED_EDGE ( 'NONE', *, *, #129, .F. ) ;
#291 = DIRECTION ( 'NONE',  ( -1.000000000000000000, 1.224646799147353207E-16, 0.000000000000000000 ) ) ;
#292 = EDGE_CURVE ( 'NONE', #257, #241, #283, .T. ) ;
#293 = ORIENTED_EDGE ( 'NONE', *, *, #146, .F. ) ;
#294 = CARTESIAN_POINT ( 'NONE',  ( 0.000000000000000000, 0.000000000000000000, 228.0000000000000000 ) ) ;
#295 = VECTOR ( 'NONE', #101, 1000.000000000000000 ) ;
#296 =( LENGTH_UNIT ( ) NAMED_UNIT ( * ) SI_UNIT ( .MILLI., .METRE. ) );
#297 = DIRECTION ( 'NONE',  ( 1.000000000000000000, 0.000000000000000000, 0.000000000000000000 ) ) ;
#298 = VERTEX_POINT ( 'NONE', #372 ) ;
#299 = APPLICATION_PROTOCOL_DEFINITION ( 'international standard', 'config_control_design', 1994, #289 ) ;
#300 = ORIENTED_EDGE ( 'NONE', *, *, #239, .T. ) ;
#301 = PRODUCT_DEFINITION ( 'NEZNÁMÝ', '', #48, #336 ) ;
#302 = EDGE_LOOP ( 'NONE', ( #233, #16 ) ) ;
#303 = COORDINATED_UNIVERSAL_TIME_OFFSET ( 1, 0, .AHEAD. ) ;
#304 = FACE_OUTER_BOUND ( 'NONE', #376, .T. ) ;
#305 = EDGE_CURVE ( 'NONE', #35, #59, #243, .T. ) ;
#306 = CARTESIAN_POINT ( 'NONE',  ( 0.000000000000000000, 0.000000000000000000, 3.000000000000000000 ) ) ;
#307 = ORIENTED_EDGE ( 'NONE', *, *, #267, .T. ) ;
#308 = CARTESIAN_POINT ( 'NONE',  ( 1.250000000000000000, 1.530808498934191324E-16, 228.0000000000000000 ) ) ;
#309 = CIRCLE ( 'NONE', #192, 2.500000000000000000 ) ;
#310 = LOCAL_TIME ( 17, 47, 40.00000000000000000, #34 ) ;
#311 = DIRECTION ( 'NONE',  ( 0.000000000000000000, 0.000000000000000000, 1.000000000000000000 ) ) ;
#312 = CYLINDRICAL_SURFACE ( 'NONE', #98, 1.250000000000000000 ) ;
#313 = ORIENTED_EDGE ( 'NONE', *, *, #106, .T. ) ;
#314 = AXIS2_PLACEMENT_3D ( 'NONE', #128, #220, #225 ) ;
#315 = FACE_OUTER_BOUND ( 'NONE', #28, .T. ) ;
#316 = CARTESIAN_POINT ( 'NONE',  ( 0.000000000000000000, 0.000000000000000000, 228.0000000000000000 ) ) ;
#317 = VERTEX_POINT ( 'NONE', #258 ) ;
#318 = DIRECTION ( 'NONE',  ( 0.000000000000000000, 0.000000000000000000, -1.000000000000000000 ) ) ;
#319 = CIRCLE ( 'NONE', #278, 2.500000000000000000 ) ;
#320 = CARTESIAN_POINT ( 'NONE',  ( 0.000000000000000000, 0.000000000000000000, 3.000000000000000000 ) ) ;
#321 = ADVANCED_FACE ( 'NONE', ( #315 ), #202, .T. ) ;
#322 = PERSON_AND_ORGANIZATION ( #191, #163 ) ;
#323 = ORIENTED_EDGE ( 'NONE', *, *, #205, .T. ) ;
#324 = DIRECTION ( 'NONE',  ( -0.000000000000000000, -0.000000000000000000, -1.000000000000000000 ) ) ;
#325 = AXIS2_PLACEMENT_3D ( 'NONE', #135, #330, #365 ) ;
#326 = DIRECTION ( 'NONE',  ( 1.000000000000000000, 0.000000000000000000, 0.000000000000000000 ) ) ;
#327 = DIRECTION ( 'NONE',  ( 0.000000000000000000, 0.000000000000000000, 1.000000000000000000 ) ) ;
#328 = DATE_TIME_ROLE ( 'creation_date' ) ;
#329 = CARTESIAN_POINT ( 'NONE',  ( 0.000000000000000000, 0.000000000000000000, 3.299999999999997158 ) ) ;
#330 = DIRECTION ( 'NONE',  ( 0.000000000000000000, 0.000000000000000000, 1.000000000000000000 ) ) ;
#331 = ADVANCED_FACE ( 'NONE', ( #141 ), #78, .T. ) ;
#332 = AXIS2_PLACEMENT_3D ( 'NONE', #261, #138, #377 ) ;
#333 = CC_DESIGN_APPROVAL ( #223, ( #48 ) ) ;
#334 = CARTESIAN_POINT ( 'NONE',  ( 0.000000000000000000, 0.000000000000000000, 0.000000000000000000 ) ) ;
#335 = CARTESIAN_POINT ( 'NONE',  ( -1.250000000000000000, 0.000000000000000000, 0.000000000000000000 ) ) ;
#336 = DESIGN_CONTEXT ( 'detailed design', #281, 'design' ) ;
#337 = CARTESIAN_POINT ( 'NONE',  ( 1.250000000000000000, 1.530808498934191324E-16, 0.000000000000000000 ) ) ;
#338 = CARTESIAN_POINT ( 'NONE',  ( 0.000000000000000000, 0.000000000000000000, 0.000000000000000000 ) ) ;
#339 = ADVANCED_FACE ( 'NONE', ( #74 ), #370, .F. ) ;
#340 = CARTESIAN_POINT ( 'NONE',  ( 0.000000000000000000, 0.000000000000000000, 228.0000000000000000 ) ) ;
#341 = DIRECTION ( 'NONE',  ( -1.000000000000000000, 0.000000000000000000, 0.000000000000000000 ) ) ;
#342 = AXIS2_PLACEMENT_3D ( 'NONE', #334, #127, #187 ) ;
#343 = APPROVAL ( #362, 'NEURÈENÝ' ) ;
#344 = AXIS2_PLACEMENT_3D ( 'NONE', #199, #76, #345 ) ;
#345 = DIRECTION ( 'NONE',  ( 1.000000000000000000, 0.000000000000000000, 0.000000000000000000 ) ) ;
#346 = ORIENTED_EDGE ( 'NONE', *, *, #239, .F. ) ;
#347 = DIRECTION ( 'NONE',  ( 1.000000000000000000, 0.000000000000000000, 0.000000000000000000 ) ) ;
#348 = ORIENTED_EDGE ( 'NONE', *, *, #27, .T. ) ;
#349 = DIRECTION ( 'NONE',  ( -1.000000000000000000, 0.000000000000000000, 0.000000000000000000 ) ) ;
#350 = CALENDAR_DATE ( 2022, 8, 7 ) ;
#351 = CIRCLE ( 'NONE', #162, 1.250000000000000000 ) ;
#352 = EDGE_LOOP ( 'NONE', ( #237, #57 ) ) ;
#353 = CALENDAR_DATE ( 2022, 8, 7 ) ;
#354 = APPLICATION_PROTOCOL_DEFINITION ( 'international standard', 'config_control_design', 1994, #281 ) ;
#355 = ORIENTED_EDGE ( 'NONE', *, *, #228, .T. ) ;
#356 = EDGE_CURVE ( 'NONE', #115, #39, #254, .T. ) ;
#357 = LINE ( 'NONE', #8, #279 ) ;
#358 = APPROVAL_DATE_TIME ( #178, #99 ) ;
#359 = PLANE ( 'NONE',  #182 ) ;
#360 = COORDINATED_UNIVERSAL_TIME_OFFSET ( 1, 0, .AHEAD. ) ;
#361 = CIRCLE ( 'NONE', #325, 5.000000000000000000 ) ;
#362 = APPROVAL_STATUS ( 'not_yet_approved' ) ;
#363 = FACE_OUTER_BOUND ( 'NONE', #352, .T. ) ;
#364 = ORIENTED_EDGE ( 'NONE', *, *, #272, .F. ) ;
#365 = DIRECTION ( 'NONE',  ( 1.000000000000000000, 0.000000000000000000, 0.000000000000000000 ) ) ;
#366 = EDGE_CURVE ( 'NONE', #298, #154, #357, .T. ) ;
#367 = FACE_BOUND ( 'NONE', #111, .T. ) ;
#368 = ORIENTED_EDGE ( 'NONE', *, *, #211, .F. ) ;
#369 = CIRCLE ( 'NONE', #23, 5.000000000000000000 ) ;
#370 = TOROIDAL_SURFACE ( 'NONE', #37, 2.799999999999999822, 0.2999999999999999889 ) ;
#371 = LOCAL_TIME ( 17, 47, 40.00000000000000000, #244 ) ;
#372 = CARTESIAN_POINT ( 'NONE',  ( -5.000000000000000000, 0.000000000000000000, 3.000000000000000000 ) ) ;
#373 = CARTESIAN_POINT ( 'NONE',  ( 0.000000000000000000, 0.000000000000000000, 228.0000000000000000 ) ) ;
#374 = EDGE_CURVE ( 'NONE', #298, #179, #175, .T. ) ;
#375 = CARTESIAN_POINT ( 'NONE',  ( 0.000000000000000000, 0.000000000000000000, 3.299999999999997158 ) ) ;
#376 = EDGE_LOOP ( 'NONE', ( #250, #300, #72, #173 ) ) ;
#377 = DIRECTION ( 'NONE',  ( 1.000000000000000000, 0.000000000000000000, 0.000000000000000000 ) ) ;
#378 = CC_DESIGN_SECURITY_CLASSIFICATION ( #156, ( #48 ) ) ;
#379 = ORIENTED_EDGE ( 'NONE', *, *, #11, .F. ) ;
#380 = CARTESIAN_POINT ( 'NONE',  ( 2.799999999999999822, 0.000000000000000000, 3.299999999999997158 ) ) ;
#381 = ORIENTED_EDGE ( 'NONE', *, *, #129, .T. ) ;
ENDSEC;
END-ISO-10303-21;
