ISO-10303-21;
HEADER;
FILE_DESCRIPTION (( 'STEP AP203' ),
    '1' );
FILE_NAME ('d820.STEP',
    '2022-07-08T15:01:02',
    ( '' ),
    ( '' ),
    'SwSTEP 2.0',
    'SolidWorks 2019',
    '' );
FILE_SCHEMA (( 'CONFIG_CONTROL_DESIGN' ));
ENDSEC;

DATA;
#1 = CARTESIAN_POINT ( 'NONE',  ( 0.000000000000000000, 0.000000000000000000, 0.000000000000000000 ) ) ;
#2 = DIRECTION ( 'NONE',  ( 1.000000000000000000, 0.000000000000000000, 0.000000000000000000 ) ) ;
#3 = ORIENTED_EDGE ( 'NONE', *, *, #84, .T. ) ;
#4 = DIRECTION ( 'NONE',  ( 0.000000000000000000, 0.000000000000000000, 1.000000000000000000 ) ) ;
#5 = VERTEX_POINT ( 'NONE', #331 ) ;
#6 = APPROVAL_STATUS ( 'not_yet_approved' ) ;
#7 = CARTESIAN_POINT ( 'NONE',  ( 0.000000000000000000, 0.000000000000000000, 282.0000000000000000 ) ) ;
#8 = ORIENTED_EDGE ( 'NONE', *, *, #377, .F. ) ;
#9 = VECTOR ( 'NONE', #154, 1000.000000000000000 ) ;
#10 = CARTESIAN_POINT ( 'NONE',  ( 0.000000000000000000, 0.000000000000000000, 7.500000000000007105 ) ) ;
#11 = EDGE_CURVE ( 'NONE', #320, #211, #329, .T. ) ;
#12 = DIRECTION ( 'NONE',  ( 1.000000000000000000, 0.000000000000000000, 0.000000000000000000 ) ) ;
#13 = VECTOR ( 'NONE', #303, 1000.000000000000000 ) ;
#14 = AXIS2_PLACEMENT_3D ( 'NONE', #261, #316, #50 ) ;
#15 = CIRCLE ( 'NONE', #322, 6.000000000000000888 ) ;
#16 = LOCAL_TIME ( 17, 1, 2.000000000000000000, #235 ) ;
#17 = DIRECTION ( 'NONE',  ( -1.000000000000000000, 0.000000000000000000, 0.000000000000000000 ) ) ;
#18 = DIRECTION ( 'NONE',  ( 0.000000000000000000, 0.000000000000000000, 1.000000000000000000 ) ) ;
#19 = ADVANCED_FACE ( 'NONE', ( #219, #159 ), #245, .F. ) ;
#20 = PERSON_AND_ORGANIZATION_ROLE ( 'creator' ) ;
#21 = CARTESIAN_POINT ( 'NONE',  ( 0.000000000000000000, 0.000000000000000000, 282.0000000000000000 ) ) ;
#22 = APPLICATION_CONTEXT ( 'configuration controlled 3d designs of mechanical parts and assemblies' ) ;
#23 = DIRECTION ( 'NONE',  ( 1.000000000000000000, 0.000000000000000000, -0.000000000000000000 ) ) ;
#24 = CC_DESIGN_APPROVAL ( #140, ( #64 ) ) ;
#25 = VERTEX_POINT ( 'NONE', #181 ) ;
#26 = DATE_AND_TIME ( #209, #49 ) ;
#27 = CARTESIAN_POINT ( 'NONE',  ( 0.000000000000000000, 0.000000000000000000, 7.000000000000000000 ) ) ;
#28 = CARTESIAN_POINT ( 'NONE',  ( -6.000000000000000888, 0.000000000000000000, 282.0000000000000000 ) ) ;
#29 = VERTEX_POINT ( 'NONE', #69 ) ;
#30 = EDGE_CURVE ( 'NONE', #51, #29, #227, .T. ) ;
#31 = DIRECTION ( 'NONE',  ( 0.000000000000000000, 0.000000000000000000, -1.000000000000000000 ) ) ;
#32 = ORIENTED_EDGE ( 'NONE', *, *, #341, .F. ) ;
#33 = CARTESIAN_POINT ( 'NONE',  ( 0.000000000000000000, 0.000000000000000000, 282.0000000000000000 ) ) ;
#34 = ORIENTED_EDGE ( 'NONE', *, *, #30, .T. ) ;
#35 = AXIS2_PLACEMENT_3D ( 'NONE', #91, #328, #268 ) ;
#36 = PRODUCT_RELATED_PRODUCT_CATEGORY ( 'detail', '', ( #381 ) ) ;
#37 = DESIGN_CONTEXT ( 'detailed design', #22, 'design' ) ;
#38 = PLANE ( 'NONE',  #128 ) ;
#39 = ADVANCED_FACE ( 'NONE', ( #97 ), #45, .F. ) ;
#40 = ORIENTED_EDGE ( 'NONE', *, *, #214, .F. ) ;
#41 = EDGE_CURVE ( 'NONE', #229, #208, #98, .T. ) ;
#42 = CIRCLE ( 'NONE', #362, 2.750000000000000000 ) ;
#43 = DIRECTION ( 'NONE',  ( 1.000000000000000000, 0.000000000000000000, 0.000000000000000000 ) ) ;
#44 = DIRECTION ( 'NONE',  ( -1.000000000000000000, 0.000000000000000000, 0.000000000000000000 ) ) ;
#45 = TOROIDAL_SURFACE ( 'NONE', #360, 6.500000000000000888, 0.5000000000000000000 ) ;
#46 = CARTESIAN_POINT ( 'NONE',  ( 6.000000000000000888, 7.347880794884120722E-16, 7.500000000000007105 ) ) ;
#47 = CIRCLE ( 'NONE', #153, 2.750000000000000000 ) ;
#48 = DATE_AND_TIME ( #139, #131 ) ;
#49 = LOCAL_TIME ( 17, 1, 2.000000000000000000, #106 ) ;
#50 = DIRECTION ( 'NONE',  ( 1.000000000000000000, 0.000000000000000000, 0.000000000000000000 ) ) ;
#51 = VERTEX_POINT ( 'NONE', #294 ) ;
#52 = CARTESIAN_POINT ( 'NONE',  ( -2.750000000000000000, 0.000000000000000000, 0.000000000000000000 ) ) ;
#53 = ORIENTED_EDGE ( 'NONE', *, *, #54, .F. ) ;
#54 = EDGE_CURVE ( 'NONE', #211, #163, #176, .T. ) ;
#55 = VECTOR ( 'NONE', #300, 1000.000000000000000 ) ;
#56 = ORIENTED_EDGE ( 'NONE', *, *, #302, .F. ) ;
#57 = CIRCLE ( 'NONE', #129, 6.500000000000000888 ) ;
#58 = AXIS2_PLACEMENT_3D ( 'NONE', #332, #370, #193 ) ;
#59 = CARTESIAN_POINT ( 'NONE',  ( 10.00000000000000000, 1.224646799147353256E-15, 0.000000000000000000 ) ) ;
#60 = ORIENTED_EDGE ( 'NONE', *, *, #238, .T. ) ;
#61 = EDGE_LOOP ( 'NONE', ( #292, #135 ) ) ;
#62 = EDGE_CURVE ( 'NONE', #145, #5, #92, .T. ) ;
#63 = CIRCLE ( 'NONE', #113, 2.750000000000000000 ) ;
#64 = PRODUCT_DEFINITION_FORMATION_WITH_SPECIFIED_SOURCE ( 'LIBOVOLNÝ', '', #381, .NOT_KNOWN. ) ;
#65 = APPLICATION_PROTOCOL_DEFINITION ( 'international standard', 'config_control_design', 1994, #22 ) ;
#66 = CIRCLE ( 'NONE', #119, 0.5000000000000004441 ) ;
#67 = CARTESIAN_POINT ( 'NONE',  ( 10.00000000000000000, 1.224646799147353256E-15, 7.000000000000000000 ) ) ;
#68 = DIRECTION ( 'NONE',  ( 0.000000000000000000, 0.000000000000000000, 1.000000000000000000 ) ) ;
#69 = CARTESIAN_POINT ( 'NONE',  ( -10.00000000000000000, 0.000000000000000000, 0.000000000000000000 ) ) ;
#70 = AXIS2_PLACEMENT_3D ( 'NONE', #168, #338, #273 ) ;
#71 = FACE_OUTER_BOUND ( 'NONE', #234, .T. ) ;
#72 = CC_DESIGN_PERSON_AND_ORGANIZATION_ASSIGNMENT ( #279, #232, ( #242 ) ) ;
#73 = PLANE ( 'NONE',  #347 ) ;
#74 = EDGE_LOOP ( 'NONE', ( #353, #317 ) ) ;
#75 = PERSON_AND_ORGANIZATION ( #126, #368 ) ;
#76 = AXIS2_PLACEMENT_3D ( 'NONE', #352, #89, #285 ) ;
#77 = COORDINATED_UNIVERSAL_TIME_OFFSET ( 1, 0, .AHEAD. ) ;
#78 = PERSON_AND_ORGANIZATION ( #126, #368 ) ;
#79 = CARTESIAN_POINT ( 'NONE',  ( 0.000000000000000000, 0.000000000000000000, 7.000000000000000000 ) ) ;
#80 = ORIENTED_EDGE ( 'NONE', *, *, #123, .F. ) ;
#81 = DATE_AND_TIME ( #312, #228 ) ;
#82 = DIRECTION ( 'NONE',  ( -0.000000000000000000, -0.000000000000000000, -1.000000000000000000 ) ) ;
#83 = EDGE_LOOP ( 'NONE', ( #111, #150 ) ) ;
#84 = EDGE_CURVE ( 'NONE', #174, #260, #243, .T. ) ;
#85 = DIRECTION ( 'NONE',  ( -0.000000000000000000, -0.000000000000000000, -1.000000000000000000 ) ) ;
#86 = EDGE_LOOP ( 'NONE', ( #118, #251, #304, #53 ) ) ;
#87 = CARTESIAN_POINT ( 'NONE',  ( -6.500000000000000888, 7.960204194457796463E-16, 7.000000000000002665 ) ) ;
#88 = EDGE_LOOP ( 'NONE', ( #60, #354, #313, #8 ) ) ;
#89 = DIRECTION ( 'NONE',  ( 0.000000000000000000, 0.000000000000000000, 1.000000000000000000 ) ) ;
#90 = ORIENTED_EDGE ( 'NONE', *, *, #62, .F. ) ;
#91 = CARTESIAN_POINT ( 'NONE',  ( 6.500000000000000888, 0.000000000000000000, 7.500000000000007105 ) ) ;
#92 = CIRCLE ( 'NONE', #364, 6.000000000000000888 ) ;
#93 = CARTESIAN_POINT ( 'NONE',  ( 0.000000000000000000, 0.000000000000000000, 0.000000000000000000 ) ) ;
#94 = EDGE_LOOP ( 'NONE', ( #102, #114 ) ) ;
#95 = ADVANCED_FACE ( 'NONE', ( #187, #297 ), #38, .T. ) ;
#96 = DIRECTION ( 'NONE',  ( 0.000000000000000000, 0.000000000000000000, 1.000000000000000000 ) ) ;
#97 = FACE_OUTER_BOUND ( 'NONE', #152, .T. ) ;
#98 = CIRCLE ( 'NONE', #314, 2.750000000000000000 ) ;
#99 = AXIS2_PLACEMENT_3D ( 'NONE', #356, #141, #321 ) ;
#100 = CC_DESIGN_PERSON_AND_ORGANIZATION_ASSIGNMENT ( #78, #318, ( #241 ) ) ;
#101 = MECHANICAL_CONTEXT ( 'NONE', #103, 'mechanical' ) ;
#102 = ORIENTED_EDGE ( 'NONE', *, *, #41, .F. ) ;
#103 = APPLICATION_CONTEXT ( 'configuration controlled 3d designs of mechanical parts and assemblies' ) ;
#104 = FACE_OUTER_BOUND ( 'NONE', #74, .T. ) ;
#105 = LINE ( 'NONE', #375, #13 ) ;
#106 = COORDINATED_UNIVERSAL_TIME_OFFSET ( 1, 0, .AHEAD. ) ;
#107 = CYLINDRICAL_SURFACE ( 'NONE', #146, 2.750000000000000000 ) ;
#108 = DIRECTION ( 'NONE',  ( -0.000000000000000000, -0.000000000000000000, -1.000000000000000000 ) ) ;
#109 = ORIENTED_EDGE ( 'NONE', *, *, #54, .T. ) ;
#110 = PERSON_AND_ORGANIZATION ( #126, #368 ) ;
#111 = ORIENTED_EDGE ( 'NONE', *, *, #302, .T. ) ;
#112 = ADVANCED_FACE ( 'NONE', ( #199, #104 ), #73, .T. ) ;
#113 = AXIS2_PLACEMENT_3D ( 'NONE', #1, #85, #213 ) ;
#114 = ORIENTED_EDGE ( 'NONE', *, *, #348, .F. ) ;
#115 = CARTESIAN_POINT ( 'NONE',  ( -2.750000000000000000, 0.000000000000000000, 282.0000000000000000 ) ) ;
#116 = ADVANCED_BREP_SHAPE_REPRESENTATION ( 'd820', ( #132, #58 ), #374 ) ;
#117 = CARTESIAN_POINT ( 'NONE',  ( 0.000000000000000000, 0.000000000000000000, 7.000000000000000000 ) ) ;
#118 = ORIENTED_EDGE ( 'NONE', *, *, #11, .F. ) ;
#119 = AXIS2_PLACEMENT_3D ( 'NONE', #186, #275, #336 ) ;
#120 = DIRECTION ( 'NONE',  ( 0.000000000000000000, 0.000000000000000000, 1.000000000000000000 ) ) ;
#121 = CARTESIAN_POINT ( 'NONE',  ( 0.000000000000000000, 0.000000000000000000, 0.000000000000000000 ) ) ;
#122 = CLOSED_SHELL ( 'NONE', ( #166, #293, #204, #127, #155, #95, #19, #359, #112, #39, #220 ) ) ;
#123 = EDGE_CURVE ( 'NONE', #145, #211, #105, .T. ) ;
#124 = VECTOR ( 'NONE', #319, 1000.000000000000000 ) ;
#125 = ORIENTED_EDGE ( 'NONE', *, *, #326, .F. ) ;
#126 = PERSON ( 'NEURÈENÝ', 'NEURÈENÝ', 'NEURÈENÝ', ('NEURÈENÝ'), ('NEURÈENÝ'), ('NEURÈENÝ') ) ;
#127 = ADVANCED_FACE ( 'NONE', ( #71 ), #311, .T. ) ;
#128 = AXIS2_PLACEMENT_3D ( 'NONE', #156, #337, #23 ) ;
#129 = AXIS2_PLACEMENT_3D ( 'NONE', #215, #82, #259 ) ;
#130 = CARTESIAN_POINT ( 'NONE',  ( 0.000000000000000000, 0.000000000000000000, 282.0000000000000000 ) ) ;
#131 = LOCAL_TIME ( 17, 1, 2.000000000000000000, #143 ) ;
#132 = MANIFOLD_SOLID_BREP ( 'Odebrat vysunutím3', #122 ) ;
#133 = FACE_OUTER_BOUND ( 'NONE', #88, .T. ) ;
#134 = PERSON_AND_ORGANIZATION ( #126, #368 ) ;
#135 = ORIENTED_EDGE ( 'NONE', *, *, #264, .T. ) ;
#136 = DATE_AND_TIME ( #276, #198 ) ;
#137 = APPROVAL_PERSON_ORGANIZATION ( #151, #372, #373 ) ;
#138 = CARTESIAN_POINT ( 'NONE',  ( 6.000000000000000888, 7.347880794884120722E-16, 282.0000000000000000 ) ) ;
#139 = CALENDAR_DATE ( 2022, 8, 7 ) ;
#140 = APPROVAL ( #351, 'NEURÈENÝ' ) ;
#141 = DIRECTION ( 'NONE',  ( -0.000000000000000000, -0.000000000000000000, -1.000000000000000000 ) ) ;
#142 = ORIENTED_EDGE ( 'NONE', *, *, #284, .T. ) ;
#143 = COORDINATED_UNIVERSAL_TIME_OFFSET ( 1, 0, .AHEAD. ) ;
#144 = DIRECTION ( 'NONE',  ( 1.000000000000000000, 0.000000000000000000, 0.000000000000000000 ) ) ;
#145 = VERTEX_POINT ( 'NONE', #138 ) ;
#146 = AXIS2_PLACEMENT_3D ( 'NONE', #192, #250, #371 ) ;
#147 = DIRECTION ( 'NONE',  ( 0.000000000000000000, 0.000000000000000000, 1.000000000000000000 ) ) ;
#148 = ORIENTED_EDGE ( 'NONE', *, *, #355, .F. ) ;
#149 = CARTESIAN_POINT ( 'NONE',  ( 0.000000000000000000, 0.000000000000000000, 282.0000000000000000 ) ) ;
#150 = ORIENTED_EDGE ( 'NONE', *, *, #272, .T. ) ;
#151 = PERSON_AND_ORGANIZATION ( #126, #368 ) ;
#152 = EDGE_LOOP ( 'NONE', ( #378, #32, #109, #203 ) ) ;
#153 = AXIS2_PLACEMENT_3D ( 'NONE', #149, #4, #2 ) ;
#154 = DIRECTION ( 'NONE',  ( 0.000000000000000000, 0.000000000000000000, -1.000000000000000000 ) ) ;
#155 = ADVANCED_FACE ( 'NONE', ( #202 ), #309, .T. ) ;
#156 = CARTESIAN_POINT ( 'NONE',  ( 0.000000000000000000, 0.000000000000000000, 7.000000000000000000 ) ) ;
#157 = FACE_OUTER_BOUND ( 'NONE', #369, .T. ) ;
#158 = DIRECTION ( 'NONE',  ( 1.000000000000000000, 0.000000000000000000, 0.000000000000000000 ) ) ;
#159 = FACE_OUTER_BOUND ( 'NONE', #170, .T. ) ;
#160 = CARTESIAN_POINT ( 'NONE',  ( 10.00000000000000000, 1.224646799147353256E-15, 7.000000000000000000 ) ) ;
#161 = ORIENTED_EDGE ( 'NONE', *, *, #377, .T. ) ;
#162 = AXIS2_PLACEMENT_3D ( 'NONE', #93, #68, #267 ) ;
#163 = VERTEX_POINT ( 'NONE', #253 ) ;
#164 = APPROVAL_ROLE ( '' ) ;
#165 = CYLINDRICAL_SURFACE ( 'NONE', #367, 2.750000000000000000 ) ;
#166 = ADVANCED_FACE ( 'NONE', ( #133 ), #107, .F. ) ;
#167 = PERSON_AND_ORGANIZATION ( #126, #368 ) ;
#168 = CARTESIAN_POINT ( 'NONE',  ( 0.000000000000000000, 0.000000000000000000, 282.0000000000000000 ) ) ;
#169 = FACE_OUTER_BOUND ( 'NONE', #289, .T. ) ;
#170 = EDGE_LOOP ( 'NONE', ( #344, #148 ) ) ;
#171 = CC_DESIGN_SECURITY_CLASSIFICATION ( #241, ( #64 ) ) ;
#172 = DATE_AND_TIME ( #252, #16 ) ;
#173 = CC_DESIGN_DATE_AND_TIME_ASSIGNMENT ( #172, #349, ( #241 ) ) ;
#174 = VERTEX_POINT ( 'NONE', #160 ) ;
#175 = DIRECTION ( 'NONE',  ( -1.000000000000000000, 0.000000000000000000, 0.000000000000000000 ) ) ;
#176 = CIRCLE ( 'NONE', #35, 0.5000000000000004441 ) ;
#177 = DIRECTION ( 'NONE',  ( 1.000000000000000000, 0.000000000000000000, 0.000000000000000000 ) ) ;
#178 = DIRECTION ( 'NONE',  ( 0.000000000000000000, 0.000000000000000000, 1.000000000000000000 ) ) ;
#179 = ORIENTED_EDGE ( 'NONE', *, *, #11, .T. ) ;
#180 =( LENGTH_UNIT ( ) NAMED_UNIT ( * ) SI_UNIT ( .MILLI., .METRE. ) );
#181 = CARTESIAN_POINT ( 'NONE',  ( 2.750000000000000000, 3.367778697655221012E-16, 282.0000000000000000 ) ) ;
#182 = UNCERTAINTY_MEASURE_WITH_UNIT (LENGTH_MEASURE( 1.000000000000000082E-05 ), #180, 'distance_accuracy_value', 'NONE');
#183 = CIRCLE ( 'NONE', #14, 6.000000000000000888 ) ;
#184 = AXIS2_PLACEMENT_3D ( 'NONE', #27, #147, #218 ) ;
#185 = APPROVAL ( #282, 'NEURÈENÝ' ) ;
#186 = CARTESIAN_POINT ( 'NONE',  ( -6.500000000000000888, 7.960204194457796463E-16, 7.500000000000007105 ) ) ;
#187 = FACE_BOUND ( 'NONE', #61, .T. ) ;
#188 = DIRECTION ( 'NONE',  ( 1.000000000000000000, 0.000000000000000000, -0.000000000000000000 ) ) ;
#189 = CARTESIAN_POINT ( 'NONE',  ( -10.00000000000000000, 0.000000000000000000, 7.000000000000000000 ) ) ;
#190 = APPROVAL_PERSON_ORGANIZATION ( #167, #140, #164 ) ;
#191 = CC_DESIGN_PERSON_AND_ORGANIZATION_ASSIGNMENT ( #258, #20, ( #64 ) ) ;
#192 = CARTESIAN_POINT ( 'NONE',  ( 0.000000000000000000, 0.000000000000000000, 282.0000000000000000 ) ) ;
#193 = DIRECTION ( 'NONE',  ( 1.000000000000000000, 0.000000000000000000, 0.000000000000000000 ) ) ;
#194 = ORIENTED_EDGE ( 'NONE', *, *, #214, .T. ) ;
#195 = AXIS2_PLACEMENT_3D ( 'NONE', #79, #200, #44 ) ;
#196 = PERSON_AND_ORGANIZATION_ROLE ( 'design_owner' ) ;
#197 = AXIS2_PLACEMENT_3D ( 'NONE', #288, #178, #177 ) ;
#198 = LOCAL_TIME ( 17, 1, 2.000000000000000000, #77 ) ;
#199 = FACE_BOUND ( 'NONE', #257, .T. ) ;
#200 = DIRECTION ( 'NONE',  ( -0.000000000000000000, -0.000000000000000000, -1.000000000000000000 ) ) ;
#201 = APPROVAL_ROLE ( '' ) ;
#202 = FACE_OUTER_BOUND ( 'NONE', #239, .T. ) ;
#203 = ORIENTED_EDGE ( 'NONE', *, *, #264, .F. ) ;
#204 = ADVANCED_FACE ( 'NONE', ( #231 ), #255, .T. ) ;
#205 = VECTOR ( 'NONE', #363, 1000.000000000000000 ) ;
#206 = DIRECTION ( 'NONE',  ( 0.000000000000000000, 0.000000000000000000, 1.000000000000000000 ) ) ;
#207 = AXIS2_PLACEMENT_3D ( 'NONE', #117, #380, #346 ) ;
#208 = VERTEX_POINT ( 'NONE', #278 ) ;
#209 = CALENDAR_DATE ( 2022, 8, 7 ) ;
#210 = LINE ( 'NONE', #28, #244 ) ;
#211 = VERTEX_POINT ( 'NONE', #46 ) ;
#212 = DATE_TIME_ROLE ( 'creation_date' ) ;
#213 = DIRECTION ( 'NONE',  ( 1.000000000000000000, 0.000000000000000000, 0.000000000000000000 ) ) ;
#214 = EDGE_CURVE ( 'NONE', #25, #290, #42, .T. ) ;
#215 = CARTESIAN_POINT ( 'NONE',  ( 0.000000000000000000, 0.000000000000000000, 7.000000000000000000 ) ) ;
#216 = ORIENTED_EDGE ( 'NONE', *, *, #238, .F. ) ;
#217 = AXIS2_PLACEMENT_3D ( 'NONE', #306, #366, #277 ) ;
#218 = DIRECTION ( 'NONE',  ( 1.000000000000000000, 0.000000000000000000, 0.000000000000000000 ) ) ;
#219 = FACE_BOUND ( 'NONE', #94, .T. ) ;
#220 = ADVANCED_FACE ( 'NONE', ( #169 ), #165, .F. ) ;
#221 =( NAMED_UNIT ( * ) SI_UNIT ( $, .STERADIAN. ) SOLID_ANGLE_UNIT ( ) );
#222 = DIRECTION ( 'NONE',  ( 1.000000000000000000, 0.000000000000000000, 0.000000000000000000 ) ) ;
#223 = CARTESIAN_POINT ( 'NONE',  ( 0.000000000000000000, 0.000000000000000000, 282.0000000000000000 ) ) ;
#224 = DIRECTION ( 'NONE',  ( 0.000000000000000000, 0.000000000000000000, 1.000000000000000000 ) ) ;
#225 = DIRECTION ( 'NONE',  ( 1.000000000000000000, 0.000000000000000000, 0.000000000000000000 ) ) ;
#226 = CC_DESIGN_DATE_AND_TIME_ASSIGNMENT ( #26, #212, ( #242 ) ) ;
#227 = LINE ( 'NONE', #189, #55 ) ;
#228 = LOCAL_TIME ( 17, 1, 2.000000000000000000, #379 ) ;
#229 = VERTEX_POINT ( 'NONE', #52 ) ;
#230 = EDGE_CURVE ( 'NONE', #29, #260, #307, .T. ) ;
#231 = FACE_OUTER_BOUND ( 'NONE', #286, .T. ) ;
#232 = PERSON_AND_ORGANIZATION_ROLE ( 'creator' ) ;
#233 = DIRECTION ( 'NONE',  ( 0.000000000000000000, 0.000000000000000000, 1.000000000000000000 ) ) ;
#234 = EDGE_LOOP ( 'NONE', ( #358, #3, #274, #310 ) ) ;
#235 = COORDINATED_UNIVERSAL_TIME_OFFSET ( 1, 0, .AHEAD. ) ;
#236 = PRODUCT_DEFINITION_SHAPE ( 'NONE', 'NONE',  #242 ) ;
#237 = FACE_OUTER_BOUND ( 'NONE', #86, .T. ) ;
#238 = EDGE_CURVE ( 'NONE', #290, #25, #47, .T. ) ;
#239 = EDGE_LOOP ( 'NONE', ( #339, #56, #34, #281 ) ) ;
#240 = ORIENTED_EDGE ( 'NONE', *, *, #341, .T. ) ;
#241 = SECURITY_CLASSIFICATION ( '', '', #283 ) ;
#242 = PRODUCT_DEFINITION ( 'NEZNÁMÝ', '', #64, #37 ) ;
#243 = LINE ( 'NONE', #67, #205 ) ;
#244 = VECTOR ( 'NONE', #108, 1000.000000000000000 ) ;
#245 = PLANE ( 'NONE',  #247 ) ;
#246 = CARTESIAN_POINT ( 'NONE',  ( 0.000000000000000000, 0.000000000000000000, 0.000000000000000000 ) ) ;
#247 = AXIS2_PLACEMENT_3D ( 'NONE', #246, #333, #188 ) ;
#248 =( NAMED_UNIT ( * ) PLANE_ANGLE_UNIT ( ) SI_UNIT ( $, .RADIAN. ) );
#249 = TOROIDAL_SURFACE ( 'NONE', #76, 6.500000000000000888, 0.5000000000000000000 ) ;
#250 = DIRECTION ( 'NONE',  ( 0.000000000000000000, 0.000000000000000000, -1.000000000000000000 ) ) ;
#251 = ORIENTED_EDGE ( 'NONE', *, *, #365, .T. ) ;
#252 = CALENDAR_DATE ( 2022, 8, 7 ) ;
#253 = CARTESIAN_POINT ( 'NONE',  ( 6.500000000000000888, 0.000000000000000000, 7.000000000000002665 ) ) ;
#254 = AXIS2_PLACEMENT_3D ( 'NONE', #223, #361, #17 ) ;
#255 = CYLINDRICAL_SURFACE ( 'NONE', #70, 6.000000000000000888 ) ;
#256 = CC_DESIGN_PERSON_AND_ORGANIZATION_ASSIGNMENT ( #75, #196, ( #381 ) ) ;
#257 = EDGE_LOOP ( 'NONE', ( #216, #40 ) ) ;
#258 = PERSON_AND_ORGANIZATION ( #126, #368 ) ;
#259 = DIRECTION ( 'NONE',  ( 1.000000000000000000, 0.000000000000000000, 0.000000000000000000 ) ) ;
#260 = VERTEX_POINT ( 'NONE', #59 ) ;
#261 = CARTESIAN_POINT ( 'NONE',  ( 0.000000000000000000, 0.000000000000000000, 7.500000000000007105 ) ) ;
#262 = VERTEX_POINT ( 'NONE', #87 ) ;
#263 = ORIENTED_EDGE ( 'NONE', *, *, #41, .T. ) ;
#264 = EDGE_CURVE ( 'NONE', #262, #163, #265, .T. ) ;
#265 = CIRCLE ( 'NONE', #99, 6.500000000000000888 ) ;
#266 = APPROVAL_PERSON_ORGANIZATION ( #110, #185, #201 ) ;
#267 = DIRECTION ( 'NONE',  ( 1.000000000000000000, 0.000000000000000000, 0.000000000000000000 ) ) ;
#268 = DIRECTION ( 'NONE',  ( 0.000000000000000000, 0.000000000000000000, -1.000000000000000000 ) ) ;
#269 = ORIENTED_EDGE ( 'NONE', *, *, #284, .F. ) ;
#270 = CC_DESIGN_PERSON_AND_ORGANIZATION_ASSIGNMENT ( #134, #376, ( #64 ) ) ;
#271 = DIRECTION ( 'NONE',  ( -0.000000000000000000, -0.000000000000000000, -1.000000000000000000 ) ) ;
#272 = EDGE_CURVE ( 'NONE', #174, #51, #295, .T. ) ;
#273 = DIRECTION ( 'NONE',  ( -1.000000000000000000, 0.000000000000000000, 0.000000000000000000 ) ) ;
#274 = ORIENTED_EDGE ( 'NONE', *, *, #355, .T. ) ;
#275 = DIRECTION ( 'NONE',  ( 1.224646799147353207E-16, 1.000000000000000000, -0.000000000000000000 ) ) ;
#276 = CALENDAR_DATE ( 2022, 8, 7 ) ;
#277 = DIRECTION ( 'NONE',  ( -1.000000000000000000, 0.000000000000000000, 0.000000000000000000 ) ) ;
#278 = CARTESIAN_POINT ( 'NONE',  ( 2.750000000000000000, 3.367778697655221012E-16, 0.000000000000000000 ) ) ;
#279 = PERSON_AND_ORGANIZATION ( #126, #368 ) ;
#280 = CARTESIAN_POINT ( 'NONE',  ( 0.000000000000000000, 0.000000000000000000, 282.0000000000000000 ) ) ;
#281 = ORIENTED_EDGE ( 'NONE', *, *, #230, .T. ) ;
#282 = APPROVAL_STATUS ( 'not_yet_approved' ) ;
#283 = SECURITY_CLASSIFICATION_LEVEL ( 'unclassified' ) ;
#284 = EDGE_CURVE ( 'NONE', #5, #320, #210, .T. ) ;
#285 = DIRECTION ( 'NONE',  ( 1.000000000000000000, 0.000000000000000000, 0.000000000000000000 ) ) ;
#286 = EDGE_LOOP ( 'NONE', ( #90, #301, #240, #269 ) ) ;
#287 = AXIS2_PLACEMENT_3D ( 'NONE', #10, #96, #225 ) ;
#288 = CARTESIAN_POINT ( 'NONE',  ( 0.000000000000000000, 0.000000000000000000, 0.000000000000000000 ) ) ;
#289 = EDGE_LOOP ( 'NONE', ( #125, #194, #161, #263 ) ) ;
#290 = VERTEX_POINT ( 'NONE', #115 ) ;
#291 = CARTESIAN_POINT ( 'NONE',  ( 2.750000000000000000, 3.367778697655221012E-16, 282.0000000000000000 ) ) ;
#292 = ORIENTED_EDGE ( 'NONE', *, *, #298, .T. ) ;
#293 = ADVANCED_FACE ( 'NONE', ( #237 ), #249, .F. ) ;
#294 = CARTESIAN_POINT ( 'NONE',  ( -10.00000000000000000, 0.000000000000000000, 7.000000000000000000 ) ) ;
#295 = CIRCLE ( 'NONE', #207, 10.00000000000000000 ) ;
#296 = LINE ( 'NONE', #305, #9 ) ;
#297 = FACE_OUTER_BOUND ( 'NONE', #83, .T. ) ;
#298 = EDGE_CURVE ( 'NONE', #163, #262, #57, .T. ) ;
#299 = CARTESIAN_POINT ( 'NONE',  ( 0.000000000000000000, 0.000000000000000000, 7.500000000000007105 ) ) ;
#300 = DIRECTION ( 'NONE',  ( -0.000000000000000000, -0.000000000000000000, -1.000000000000000000 ) ) ;
#301 = ORIENTED_EDGE ( 'NONE', *, *, #123, .T. ) ;
#302 = EDGE_CURVE ( 'NONE', #51, #174, #350, .T. ) ;
#303 = DIRECTION ( 'NONE',  ( -0.000000000000000000, -0.000000000000000000, -1.000000000000000000 ) ) ;
#304 = ORIENTED_EDGE ( 'NONE', *, *, #298, .F. ) ;
#305 = CARTESIAN_POINT ( 'NONE',  ( -2.750000000000000000, 0.000000000000000000, 282.0000000000000000 ) ) ;
#306 = CARTESIAN_POINT ( 'NONE',  ( 0.000000000000000000, 0.000000000000000000, 7.000000000000000000 ) ) ;
#307 = CIRCLE ( 'NONE', #197, 10.00000000000000000 ) ;
#308 = CYLINDRICAL_SURFACE ( 'NONE', #254, 6.000000000000000888 ) ;
#309 = CYLINDRICAL_SURFACE ( 'NONE', #217, 10.00000000000000000 ) ;
#310 = ORIENTED_EDGE ( 'NONE', *, *, #30, .F. ) ;
#311 = CYLINDRICAL_SURFACE ( 'NONE', #195, 10.00000000000000000 ) ;
#312 = CALENDAR_DATE ( 2022, 8, 7 ) ;
#313 = ORIENTED_EDGE ( 'NONE', *, *, #348, .T. ) ;
#314 = AXIS2_PLACEMENT_3D ( 'NONE', #121, #271, #12 ) ;
#315 = APPROVAL_DATE_TIME ( #136, #372 ) ;
#316 = DIRECTION ( 'NONE',  ( 0.000000000000000000, 0.000000000000000000, 1.000000000000000000 ) ) ;
#317 = ORIENTED_EDGE ( 'NONE', *, *, #62, .T. ) ;
#318 = PERSON_AND_ORGANIZATION_ROLE ( 'classification_officer' ) ;
#319 = DIRECTION ( 'NONE',  ( 0.000000000000000000, 0.000000000000000000, -1.000000000000000000 ) ) ;
#320 = VERTEX_POINT ( 'NONE', #323 ) ;
#321 = DIRECTION ( 'NONE',  ( 1.000000000000000000, 0.000000000000000000, 0.000000000000000000 ) ) ;
#322 = AXIS2_PLACEMENT_3D ( 'NONE', #33, #206, #144 ) ;
#323 = CARTESIAN_POINT ( 'NONE',  ( -6.000000000000000888, 0.000000000000000000, 7.500000000000007105 ) ) ;
#324 = LINE ( 'NONE', #291, #124 ) ;
#325 = ORIENTED_EDGE ( 'NONE', *, *, #334, .F. ) ;
#326 = EDGE_CURVE ( 'NONE', #25, #208, #324, .T. ) ;
#327 = APPLICATION_PROTOCOL_DEFINITION ( 'international standard', 'config_control_design', 1994, #103 ) ;
#328 = DIRECTION ( 'NONE',  ( 0.000000000000000000, -1.000000000000000000, 0.000000000000000000 ) ) ;
#329 = CIRCLE ( 'NONE', #287, 6.000000000000000888 ) ;
#330 = CIRCLE ( 'NONE', #162, 10.00000000000000000 ) ;
#331 = CARTESIAN_POINT ( 'NONE',  ( -6.000000000000000888, 0.000000000000000000, 282.0000000000000000 ) ) ;
#332 = CARTESIAN_POINT ( 'NONE',  ( 0.000000000000000000, 0.000000000000000000, 0.000000000000000000 ) ) ;
#333 = DIRECTION ( 'NONE',  ( 0.000000000000000000, 0.000000000000000000, 1.000000000000000000 ) ) ;
#334 = EDGE_CURVE ( 'NONE', #5, #145, #15, .T. ) ;
#335 = CC_DESIGN_APPROVAL ( #185, ( #241 ) ) ;
#336 = DIRECTION ( 'NONE',  ( -1.000000000000000000, 1.224646799147351482E-16, 0.000000000000000000 ) ) ;
#337 = DIRECTION ( 'NONE',  ( 0.000000000000000000, 0.000000000000000000, 1.000000000000000000 ) ) ;
#338 = DIRECTION ( 'NONE',  ( -0.000000000000000000, -0.000000000000000000, -1.000000000000000000 ) ) ;
#339 = ORIENTED_EDGE ( 'NONE', *, *, #84, .F. ) ;
#340 = APPROVAL_DATE_TIME ( #81, #185 ) ;
#341 = EDGE_CURVE ( 'NONE', #211, #320, #183, .T. ) ;
#342 = DIRECTION ( 'NONE',  ( 1.000000000000000000, 0.000000000000000000, -0.000000000000000000 ) ) ;
#343 = APPROVAL_DATE_TIME ( #48, #140 ) ;
#344 = ORIENTED_EDGE ( 'NONE', *, *, #230, .F. ) ;
#345 = SHAPE_DEFINITION_REPRESENTATION ( #236, #116 ) ;
#346 = DIRECTION ( 'NONE',  ( 1.000000000000000000, 0.000000000000000000, 0.000000000000000000 ) ) ;
#347 = AXIS2_PLACEMENT_3D ( 'NONE', #21, #18, #342 ) ;
#348 = EDGE_CURVE ( 'NONE', #208, #229, #63, .T. ) ;
#349 = DATE_TIME_ROLE ( 'classification_date' ) ;
#350 = CIRCLE ( 'NONE', #184, 10.00000000000000000 ) ;
#351 = APPROVAL_STATUS ( 'not_yet_approved' ) ;
#352 = CARTESIAN_POINT ( 'NONE',  ( 0.000000000000000000, 0.000000000000000000, 7.500000000000007105 ) ) ;
#353 = ORIENTED_EDGE ( 'NONE', *, *, #334, .T. ) ;
#354 = ORIENTED_EDGE ( 'NONE', *, *, #326, .T. ) ;
#355 = EDGE_CURVE ( 'NONE', #260, #29, #330, .T. ) ;
#356 = CARTESIAN_POINT ( 'NONE',  ( 0.000000000000000000, 0.000000000000000000, 7.000000000000000000 ) ) ;
#357 = CC_DESIGN_APPROVAL ( #372, ( #242 ) ) ;
#358 = ORIENTED_EDGE ( 'NONE', *, *, #272, .F. ) ;
#359 = ADVANCED_FACE ( 'NONE', ( #157 ), #308, .T. ) ;
#360 = AXIS2_PLACEMENT_3D ( 'NONE', #299, #224, #158 ) ;
#361 = DIRECTION ( 'NONE',  ( -0.000000000000000000, -0.000000000000000000, -1.000000000000000000 ) ) ;
#362 = AXIS2_PLACEMENT_3D ( 'NONE', #130, #233, #43 ) ;
#363 = DIRECTION ( 'NONE',  ( -0.000000000000000000, -0.000000000000000000, -1.000000000000000000 ) ) ;
#364 = AXIS2_PLACEMENT_3D ( 'NONE', #7, #120, #222 ) ;
#365 = EDGE_CURVE ( 'NONE', #320, #262, #66, .T. ) ;
#366 = DIRECTION ( 'NONE',  ( -0.000000000000000000, -0.000000000000000000, -1.000000000000000000 ) ) ;
#367 = AXIS2_PLACEMENT_3D ( 'NONE', #280, #31, #175 ) ;
#368 = ORGANIZATION ( 'NEURÈENÝ', 'NEURÈENÝ', '' ) ;
#369 = EDGE_LOOP ( 'NONE', ( #80, #325, #142, #179 ) ) ;
#370 = DIRECTION ( 'NONE',  ( 0.000000000000000000, 0.000000000000000000, 1.000000000000000000 ) ) ;
#371 = DIRECTION ( 'NONE',  ( -1.000000000000000000, 0.000000000000000000, 0.000000000000000000 ) ) ;
#372 = APPROVAL ( #6, 'NEURÈENÝ' ) ;
#373 = APPROVAL_ROLE ( '' ) ;
#374 =( GEOMETRIC_REPRESENTATION_CONTEXT ( 3 ) GLOBAL_UNCERTAINTY_ASSIGNED_CONTEXT ( ( #182 ) ) GLOBAL_UNIT_ASSIGNED_CONTEXT ( ( #180, #248, #221 ) ) REPRESENTATION_CONTEXT ( 'NONE', 'WORKASPACE' ) );
#375 = CARTESIAN_POINT ( 'NONE',  ( 6.000000000000000888, 7.347880794884120722E-16, 282.0000000000000000 ) ) ;
#376 = PERSON_AND_ORGANIZATION_ROLE ( 'design_supplier' ) ;
#377 = EDGE_CURVE ( 'NONE', #290, #229, #296, .T. ) ;
#378 = ORIENTED_EDGE ( 'NONE', *, *, #365, .F. ) ;
#379 = COORDINATED_UNIVERSAL_TIME_OFFSET ( 1, 0, .AHEAD. ) ;
#380 = DIRECTION ( 'NONE',  ( 0.000000000000000000, 0.000000000000000000, 1.000000000000000000 ) ) ;
#381 = PRODUCT ( 'd820', 'd820', '', ( #101 ) ) ;
ENDSEC;
END-ISO-10303-21;
