ISO-10303-21;
HEADER;
FILE_DESCRIPTION (( 'STEP AP203' ),
    '1' );
FILE_NAME ('1b14.STEP',
    '2022-07-08T15:01:11',
    ( '' ),
    ( '' ),
    'SwSTEP 2.0',
    'SolidWorks 2019',
    '' );
FILE_SCHEMA (( 'CONFIG_CONTROL_DESIGN' ));
ENDSEC;

DATA;
#1 = DIRECTION ( 'NONE',  ( 1.000000000000000000, 0.000000000000000000, 0.000000000000000000 ) ) ;
#2 = ORIENTED_EDGE ( 'NONE', *, *, #224, .T. ) ;
#3 = CARTESIAN_POINT ( 'NONE',  ( 6.000000000000000888, 7.347880794884120722E-16, 7.500000000000007105 ) ) ;
#4 = DIRECTION ( 'NONE',  ( -0.000000000000000000, -0.000000000000000000, -1.000000000000000000 ) ) ;
#5 = ADVANCED_FACE ( 'NONE', ( #228 ), #114, .F. ) ;
#6 = ORIENTED_EDGE ( 'NONE', *, *, #17, .T. ) ;
#7 = CIRCLE ( 'NONE', #309, 2.750000000000000000 ) ;
#8 = DIRECTION ( 'NONE',  ( -1.000000000000000000, 0.000000000000000000, 0.000000000000000000 ) ) ;
#9 = ORIENTED_EDGE ( 'NONE', *, *, #145, .T. ) ;
#10 = DATE_TIME_ROLE ( 'classification_date' ) ;
#11 = CIRCLE ( 'NONE', #335, 6.000000000000000888 ) ;
#12 = DIRECTION ( 'NONE',  ( 1.000000000000000000, 0.000000000000000000, 0.000000000000000000 ) ) ;
#13 = UNCERTAINTY_MEASURE_WITH_UNIT (LENGTH_MEASURE( 1.000000000000000082E-05 ), #247, 'distance_accuracy_value', 'NONE');
#14 = ORIENTED_EDGE ( 'NONE', *, *, #110, .T. ) ;
#15 = CARTESIAN_POINT ( 'NONE',  ( 10.00000000000000000, 1.224646799147353256E-15, 7.000000000000000000 ) ) ;
#16 = DIRECTION ( 'NONE',  ( 0.000000000000000000, 0.000000000000000000, 1.000000000000000000 ) ) ;
#17 = EDGE_CURVE ( 'NONE', #198, #215, #248, .T. ) ;
#18 = CIRCLE ( 'NONE', #180, 10.00000000000000000 ) ;
#19 = CARTESIAN_POINT ( 'NONE',  ( -6.500000000000000888, 7.960204194457796463E-16, 7.000000000000002665 ) ) ;
#20 = CC_DESIGN_PERSON_AND_ORGANIZATION_ASSIGNMENT ( #310, #276, ( #135 ) ) ;
#21 = VECTOR ( 'NONE', #64, 1000.000000000000000 ) ;
#22 = DIRECTION ( 'NONE',  ( 0.000000000000000000, 0.000000000000000000, 1.000000000000000000 ) ) ;
#23 = EDGE_LOOP ( 'NONE', ( #2, #44 ) ) ;
#24 = EDGE_CURVE ( 'NONE', #75, #125, #7, .T. ) ;
#25 = PERSON_AND_ORGANIZATION ( #183, #256 ) ;
#26 = CARTESIAN_POINT ( 'NONE',  ( 0.000000000000000000, 0.000000000000000000, 7.500000000000007105 ) ) ;
#27 = PERSON_AND_ORGANIZATION_ROLE ( 'design_supplier' ) ;
#28 = CARTESIAN_POINT ( 'NONE',  ( 0.000000000000000000, 0.000000000000000000, 7.000000000000000000 ) ) ;
#29 = CC_DESIGN_DATE_AND_TIME_ASSIGNMENT ( #305, #59, ( #135 ) ) ;
#30 = CALENDAR_DATE ( 2022, 8, 7 ) ;
#31 = AXIS2_PLACEMENT_3D ( 'NONE', #28, #123, #34 ) ;
#32 = DIRECTION ( 'NONE',  ( 0.000000000000000000, 0.000000000000000000, 1.000000000000000000 ) ) ;
#33 = DATE_AND_TIME ( #285, #132 ) ;
#34 = DIRECTION ( 'NONE',  ( 1.000000000000000000, 0.000000000000000000, 0.000000000000000000 ) ) ;
#35 = ORIENTED_EDGE ( 'NONE', *, *, #134, .T. ) ;
#36 = CARTESIAN_POINT ( 'NONE',  ( 0.000000000000000000, 0.000000000000000000, 7.500000000000007105 ) ) ;
#37 = EDGE_LOOP ( 'NONE', ( #295, #328, #218, #318 ) ) ;
#38 = CC_DESIGN_APPROVAL ( #263, ( #102 ) ) ;
#39 = EDGE_CURVE ( 'NONE', #187, #221, #281, .T. ) ;
#40 = LINE ( 'NONE', #153, #254 ) ;
#41 = VECTOR ( 'NONE', #163, 1000.000000000000000 ) ;
#42 = EDGE_LOOP ( 'NONE', ( #182, #158, #362, #360 ) ) ;
#43 = DIRECTION ( 'NONE',  ( -0.000000000000000000, -0.000000000000000000, -1.000000000000000000 ) ) ;
#44 = ORIENTED_EDGE ( 'NONE', *, *, #214, .T. ) ;
#45 = CARTESIAN_POINT ( 'NONE',  ( 6.500000000000000888, 0.000000000000000000, 7.000000000000002665 ) ) ;
#46 = CARTESIAN_POINT ( 'NONE',  ( -10.00000000000000000, 0.000000000000000000, 7.000000000000000000 ) ) ;
#47 = ORIENTED_EDGE ( 'NONE', *, *, #48, .T. ) ;
#48 = EDGE_CURVE ( 'NONE', #215, #198, #173, .T. ) ;
#49 = DIRECTION ( 'NONE',  ( 1.000000000000000000, 0.000000000000000000, -0.000000000000000000 ) ) ;
#50 = DIRECTION ( 'NONE',  ( 0.000000000000000000, 0.000000000000000000, 1.000000000000000000 ) ) ;
#51 = AXIS2_PLACEMENT_3D ( 'NONE', #286, #57, #87 ) ;
#52 = AXIS2_PLACEMENT_3D ( 'NONE', #143, #55, #307 ) ;
#53 = EDGE_LOOP ( 'NONE', ( #106, #380 ) ) ;
#54 = PRODUCT_RELATED_PRODUCT_CATEGORY ( 'detail', '', ( #115 ) ) ;
#55 = DIRECTION ( 'NONE',  ( 0.000000000000000000, 0.000000000000000000, 1.000000000000000000 ) ) ;
#56 = COORDINATED_UNIVERSAL_TIME_OFFSET ( 1, 0, .AHEAD. ) ;
#57 = DIRECTION ( 'NONE',  ( 0.000000000000000000, 0.000000000000000000, 1.000000000000000000 ) ) ;
#58 = PRODUCT_DEFINITION_SHAPE ( 'NONE', 'NONE',  #135 ) ;
#59 = DATE_TIME_ROLE ( 'creation_date' ) ;
#60 = DIRECTION ( 'NONE',  ( 0.000000000000000000, 0.000000000000000000, 1.000000000000000000 ) ) ;
#61 = APPROVAL_DATE_TIME ( #33, #341 ) ;
#62 = DIRECTION ( 'NONE',  ( -0.000000000000000000, -0.000000000000000000, -1.000000000000000000 ) ) ;
#63 = CIRCLE ( 'NONE', #343, 0.5000000000000004441 ) ;
#64 = DIRECTION ( 'NONE',  ( -0.000000000000000000, -0.000000000000000000, -1.000000000000000000 ) ) ;
#65 = APPROVAL_DATE_TIME ( #357, #263 ) ;
#66 = LINE ( 'NONE', #126, #225 ) ;
#67 = CYLINDRICAL_SURFACE ( 'NONE', #193, 6.000000000000000888 ) ;
#68 = EDGE_LOOP ( 'NONE', ( #213, #267, #354, #138 ) ) ;
#69 = LOCAL_TIME ( 17, 1, 11.00000000000000000, #86 ) ;
#70 = CARTESIAN_POINT ( 'NONE',  ( -6.000000000000000888, 0.000000000000000000, 257.0000000000000000 ) ) ;
#71 = EDGE_CURVE ( 'NONE', #349, #274, #74, .T. ) ;
#72 = CARTESIAN_POINT ( 'NONE',  ( -6.000000000000000888, 0.000000000000000000, 7.500000000000007105 ) ) ;
#73 = EDGE_LOOP ( 'NONE', ( #331, #312, #14, #6 ) ) ;
#74 = CIRCLE ( 'NONE', #92, 10.00000000000000000 ) ;
#75 = VERTEX_POINT ( 'NONE', #346 ) ;
#76 = DIRECTION ( 'NONE',  ( 1.000000000000000000, 0.000000000000000000, -0.000000000000000000 ) ) ;
#77 = APPLICATION_CONTEXT ( 'configuration controlled 3d designs of mechanical parts and assemblies' ) ;
#78 = ORIENTED_EDGE ( 'NONE', *, *, #24, .F. ) ;
#79 =( NAMED_UNIT ( * ) PLANE_ANGLE_UNIT ( ) SI_UNIT ( $, .RADIAN. ) );
#80 = CIRCLE ( 'NONE', #107, 10.00000000000000000 ) ;
#81 = APPROVAL_PERSON_ORGANIZATION ( #25, #90, #282 ) ;
#82 = FACE_OUTER_BOUND ( 'NONE', #73, .T. ) ;
#83 = CC_DESIGN_PERSON_AND_ORGANIZATION_ASSIGNMENT ( #177, #175, ( #226 ) ) ;
#84 = PERSON_AND_ORGANIZATION ( #183, #256 ) ;
#85 = CARTESIAN_POINT ( 'NONE',  ( 0.000000000000000000, 0.000000000000000000, 0.000000000000000000 ) ) ;
#86 = COORDINATED_UNIVERSAL_TIME_OFFSET ( 1, 0, .AHEAD. ) ;
#87 = DIRECTION ( 'NONE',  ( 1.000000000000000000, 0.000000000000000000, -0.000000000000000000 ) ) ;
#88 = AXIS2_PLACEMENT_3D ( 'NONE', #196, #334, #169 ) ;
#89 = LINE ( 'NONE', #179, #236 ) ;
#90 = APPROVAL ( #339, 'NEURÈENÝ' ) ;
#91 = DIRECTION ( 'NONE',  ( 0.000000000000000000, 0.000000000000000000, -1.000000000000000000 ) ) ;
#92 = AXIS2_PLACEMENT_3D ( 'NONE', #206, #231, #121 ) ;
#93 = APPLICATION_PROTOCOL_DEFINITION ( 'international standard', 'config_control_design', 1994, #370 ) ;
#94 = DIRECTION ( 'NONE',  ( -0.000000000000000000, -0.000000000000000000, -1.000000000000000000 ) ) ;
#95 = ORIENTED_EDGE ( 'NONE', *, *, #214, .F. ) ;
#96 = ORIENTED_EDGE ( 'NONE', *, *, #17, .F. ) ;
#97 = DIRECTION ( 'NONE',  ( -1.000000000000000000, 1.224646799147351482E-16, 0.000000000000000000 ) ) ;
#98 = ORIENTED_EDGE ( 'NONE', *, *, #39, .F. ) ;
#99 = DIRECTION ( 'NONE',  ( 1.224646799147353207E-16, 1.000000000000000000, -0.000000000000000000 ) ) ;
#100 = ORIENTED_EDGE ( 'NONE', *, *, #216, .F. ) ;
#101 = ADVANCED_FACE ( 'NONE', ( #233 ), #211, .T. ) ;
#102 = SECURITY_CLASSIFICATION ( '', '', #378 ) ;
#103 = CIRCLE ( 'NONE', #88, 0.5000000000000004441 ) ;
#104 = CARTESIAN_POINT ( 'NONE',  ( 0.000000000000000000, 0.000000000000000000, 7.000000000000000000 ) ) ;
#105 = DESIGN_CONTEXT ( 'detailed design', #77, 'design' ) ;
#106 = ORIENTED_EDGE ( 'NONE', *, *, #358, .F. ) ;
#107 = AXIS2_PLACEMENT_3D ( 'NONE', #131, #111, #223 ) ;
#108 = CC_DESIGN_DATE_AND_TIME_ASSIGNMENT ( #352, #10, ( #102 ) ) ;
#109 = PLANE ( 'NONE',  #246 ) ;
#110 = EDGE_CURVE ( 'NONE', #125, #198, #89, .T. ) ;
#111 = DIRECTION ( 'NONE',  ( 0.000000000000000000, 0.000000000000000000, 1.000000000000000000 ) ) ;
#112 = AXIS2_PLACEMENT_3D ( 'NONE', #336, #230, #338 ) ;
#113 = EDGE_LOOP ( 'NONE', ( #303, #302, #260, #35 ) ) ;
#114 = CYLINDRICAL_SURFACE ( 'NONE', #112, 2.750000000000000000 ) ;
#115 = PRODUCT ( '1b14', '1b14', '', ( #119 ) ) ;
#116 = COORDINATED_UNIVERSAL_TIME_OFFSET ( 1, 0, .AHEAD. ) ;
#117 = FACE_OUTER_BOUND ( 'NONE', #298, .T. ) ;
#118 = CIRCLE ( 'NONE', #374, 6.000000000000000888 ) ;
#119 = MECHANICAL_CONTEXT ( 'NONE', #370, 'mechanical' ) ;
#120 = DIRECTION ( 'NONE',  ( -0.000000000000000000, -0.000000000000000000, -1.000000000000000000 ) ) ;
#121 = DIRECTION ( 'NONE',  ( 1.000000000000000000, 0.000000000000000000, 0.000000000000000000 ) ) ;
#122 = AXIS2_PLACEMENT_3D ( 'NONE', #144, #32, #308 ) ;
#123 = DIRECTION ( 'NONE',  ( -0.000000000000000000, -0.000000000000000000, -1.000000000000000000 ) ) ;
#124 = FACE_OUTER_BOUND ( 'NONE', #42, .T. ) ;
#125 = VERTEX_POINT ( 'NONE', #283 ) ;
#126 = CARTESIAN_POINT ( 'NONE',  ( 2.750000000000000000, 3.367778697655221012E-16, 257.0000000000000000 ) ) ;
#127 = EDGE_CURVE ( 'NONE', #251, #221, #273, .T. ) ;
#128 = ORIENTED_EDGE ( 'NONE', *, *, #110, .F. ) ;
#129 = CARTESIAN_POINT ( 'NONE',  ( 0.000000000000000000, 0.000000000000000000, 7.000000000000000000 ) ) ;
#130 = CIRCLE ( 'NONE', #31, 6.500000000000000888 ) ;
#131 = CARTESIAN_POINT ( 'NONE',  ( 0.000000000000000000, 0.000000000000000000, 7.000000000000000000 ) ) ;
#132 = LOCAL_TIME ( 17, 1, 11.00000000000000000, #56 ) ;
#133 = CYLINDRICAL_SURFACE ( 'NONE', #241, 2.750000000000000000 ) ;
#134 = EDGE_CURVE ( 'NONE', #221, #251, #219, .T. ) ;
#135 = PRODUCT_DEFINITION ( 'NEZNÁMÝ', '', #226, #105 ) ;
#136 = DIRECTION ( 'NONE',  ( 0.000000000000000000, 0.000000000000000000, -1.000000000000000000 ) ) ;
#137 = AXIS2_PLACEMENT_3D ( 'NONE', #141, #202, #235 ) ;
#138 = ORIENTED_EDGE ( 'NONE', *, *, #157, .F. ) ;
#139 = APPROVAL_DATE_TIME ( #375, #90 ) ;
#140 = ADVANCED_FACE ( 'NONE', ( #147 ), #171, .F. ) ;
#141 = CARTESIAN_POINT ( 'NONE',  ( 0.000000000000000000, 0.000000000000000000, 257.0000000000000000 ) ) ;
#142 = PERSON_AND_ORGANIZATION_ROLE ( 'classification_officer' ) ;
#143 = CARTESIAN_POINT ( 'NONE',  ( 0.000000000000000000, 0.000000000000000000, 0.000000000000000000 ) ) ;
#144 = CARTESIAN_POINT ( 'NONE',  ( 0.000000000000000000, 0.000000000000000000, 7.500000000000007105 ) ) ;
#145 = EDGE_CURVE ( 'NONE', #212, #320, #240, .T. ) ;
#146 = PERSON_AND_ORGANIZATION ( #183, #256 ) ;
#147 = FACE_OUTER_BOUND ( 'NONE', #68, .T. ) ;
#148 = ADVANCED_FACE ( 'NONE', ( #208, #315 ), #340, .T. ) ;
#149 = ORIENTED_EDGE ( 'NONE', *, *, #345, .F. ) ;
#150 = CARTESIAN_POINT ( 'NONE',  ( 0.000000000000000000, 0.000000000000000000, 257.0000000000000000 ) ) ;
#151 = ORIENTED_EDGE ( 'NONE', *, *, #216, .T. ) ;
#152 = APPROVAL_ROLE ( '' ) ;
#153 = CARTESIAN_POINT ( 'NONE',  ( 10.00000000000000000, 1.224646799147353256E-15, 7.000000000000000000 ) ) ;
#154 = LOCAL_TIME ( 17, 1, 11.00000000000000000, #381 ) ;
#155 = VERTEX_POINT ( 'NONE', #278 ) ;
#156 = CARTESIAN_POINT ( 'NONE',  ( 0.000000000000000000, 0.000000000000000000, 257.0000000000000000 ) ) ;
#157 = EDGE_CURVE ( 'NONE', #320, #212, #130, .T. ) ;
#158 = ORIENTED_EDGE ( 'NONE', *, *, #162, .F. ) ;
#159 = EDGE_LOOP ( 'NONE', ( #96, #332 ) ) ;
#160 = CC_DESIGN_APPROVAL ( #90, ( #135 ) ) ;
#161 = DIRECTION ( 'NONE',  ( 1.000000000000000000, 0.000000000000000000, 0.000000000000000000 ) ) ;
#162 = EDGE_CURVE ( 'NONE', #250, #209, #18, .T. ) ;
#163 = DIRECTION ( 'NONE',  ( -0.000000000000000000, -0.000000000000000000, -1.000000000000000000 ) ) ;
#164 = EDGE_LOOP ( 'NONE', ( #100, #78 ) ) ;
#165 = AXIS2_PLACEMENT_3D ( 'NONE', #104, #262, #296 ) ;
#166 = CARTESIAN_POINT ( 'NONE',  ( 10.00000000000000000, 1.224646799147353256E-15, 0.000000000000000000 ) ) ;
#167 = ADVANCED_FACE ( 'NONE', ( #117 ), #67, .T. ) ;
#168 = CIRCLE ( 'NONE', #313, 10.00000000000000000 ) ;
#169 = DIRECTION ( 'NONE',  ( 0.000000000000000000, 0.000000000000000000, -1.000000000000000000 ) ) ;
#170 = MANIFOLD_SOLID_BREP ( 'Odebrat vysunutím3', #279 ) ;
#171 = TOROIDAL_SURFACE ( 'NONE', #195, 6.500000000000000888, 0.5000000000000000000 ) ;
#172 = LINE ( 'NONE', #368, #41 ) ;
#173 = CIRCLE ( 'NONE', #366, 2.750000000000000000 ) ;
#174 = CARTESIAN_POINT ( 'NONE',  ( 0.000000000000000000, 0.000000000000000000, 0.000000000000000000 ) ) ;
#175 = PERSON_AND_ORGANIZATION_ROLE ( 'creator' ) ;
#176 = DIRECTION ( 'NONE',  ( 1.000000000000000000, 0.000000000000000000, 0.000000000000000000 ) ) ;
#177 = PERSON_AND_ORGANIZATION ( #183, #256 ) ;
#178 = AXIS2_PLACEMENT_3D ( 'NONE', #85, #120, #311 ) ;
#179 = CARTESIAN_POINT ( 'NONE',  ( -2.750000000000000000, 0.000000000000000000, 257.0000000000000000 ) ) ;
#180 = AXIS2_PLACEMENT_3D ( 'NONE', #348, #253, #372 ) ;
#181 = PERSON_AND_ORGANIZATION ( #183, #256 ) ;
#182 = ORIENTED_EDGE ( 'NONE', *, *, #244, .F. ) ;
#183 = PERSON ( 'NEURÈENÝ', 'NEURÈENÝ', 'NEURÈENÝ', ('NEURÈENÝ'), ('NEURÈENÝ'), ('NEURÈENÝ') ) ;
#184 = FACE_OUTER_BOUND ( 'NONE', #37, .T. ) ;
#185 = EDGE_LOOP ( 'NONE', ( #288, #190 ) ) ;
#186 = CYLINDRICAL_SURFACE ( 'NONE', #165, 10.00000000000000000 ) ;
#187 = VERTEX_POINT ( 'NONE', #70 ) ;
#188 = CARTESIAN_POINT ( 'NONE',  ( 0.000000000000000000, 0.000000000000000000, 257.0000000000000000 ) ) ;
#189 = CC_DESIGN_PERSON_AND_ORGANIZATION_ASSIGNMENT ( #84, #142, ( #102 ) ) ;
#190 = ORIENTED_EDGE ( 'NONE', *, *, #371, .T. ) ;
#191 = EDGE_LOOP ( 'NONE', ( #292, #369, #266, #149 ) ) ;
#192 = CARTESIAN_POINT ( 'NONE',  ( 0.000000000000000000, 0.000000000000000000, 7.000000000000000000 ) ) ;
#193 = AXIS2_PLACEMENT_3D ( 'NONE', #261, #264, #8 ) ;
#194 = DIRECTION ( 'NONE',  ( -1.000000000000000000, 0.000000000000000000, 0.000000000000000000 ) ) ;
#195 = AXIS2_PLACEMENT_3D ( 'NONE', #275, #252, #379 ) ;
#196 = CARTESIAN_POINT ( 'NONE',  ( 6.500000000000000888, 0.000000000000000000, 7.500000000000007105 ) ) ;
#197 = ORIENTED_EDGE ( 'NONE', *, *, #280, .T. ) ;
#198 = VERTEX_POINT ( 'NONE', #242 ) ;
#199 = CC_DESIGN_PERSON_AND_ORGANIZATION_ASSIGNMENT ( #234, #314, ( #115 ) ) ;
#200 = COORDINATED_UNIVERSAL_TIME_OFFSET ( 1, 0, .AHEAD. ) ;
#201 = CC_DESIGN_APPROVAL ( #341, ( #226 ) ) ;
#202 = DIRECTION ( 'NONE',  ( -0.000000000000000000, -0.000000000000000000, -1.000000000000000000 ) ) ;
#203 = AXIS2_PLACEMENT_3D ( 'NONE', #129, #43, #359 ) ;
#204 = EDGE_CURVE ( 'NONE', #221, #320, #63, .T. ) ;
#205 = ADVANCED_BREP_SHAPE_REPRESENTATION ( '1b14', ( #170, #52 ), #376 ) ;
#206 = CARTESIAN_POINT ( 'NONE',  ( 0.000000000000000000, 0.000000000000000000, 0.000000000000000000 ) ) ;
#207 = APPROVAL_STATUS ( 'not_yet_approved' ) ;
#208 = FACE_BOUND ( 'NONE', #164, .T. ) ;
#209 = VERTEX_POINT ( 'NONE', #15 ) ;
#210 = CALENDAR_DATE ( 2022, 8, 7 ) ;
#211 = CYLINDRICAL_SURFACE ( 'NONE', #137, 6.000000000000000888 ) ;
#212 = VERTEX_POINT ( 'NONE', #45 ) ;
#213 = ORIENTED_EDGE ( 'NONE', *, *, #204, .F. ) ;
#214 = EDGE_CURVE ( 'NONE', #155, #187, #11, .T. ) ;
#215 = VERTEX_POINT ( 'NONE', #353 ) ;
#216 = EDGE_CURVE ( 'NONE', #125, #75, #322, .T. ) ;
#217 = CARTESIAN_POINT ( 'NONE',  ( -10.00000000000000000, 0.000000000000000000, 0.000000000000000000 ) ) ;
#218 = ORIENTED_EDGE ( 'NONE', *, *, #145, .F. ) ;
#219 = CIRCLE ( 'NONE', #330, 6.000000000000000888 ) ;
#220 = CARTESIAN_POINT ( 'NONE',  ( 0.000000000000000000, 0.000000000000000000, 0.000000000000000000 ) ) ;
#221 = VERTEX_POINT ( 'NONE', #72 ) ;
#222 = ADVANCED_FACE ( 'NONE', ( #317 ), #186, .T. ) ;
#223 = DIRECTION ( 'NONE',  ( 1.000000000000000000, 0.000000000000000000, 0.000000000000000000 ) ) ;
#224 = EDGE_CURVE ( 'NONE', #187, #155, #118, .T. ) ;
#225 = VECTOR ( 'NONE', #361, 1000.000000000000000 ) ;
#226 = PRODUCT_DEFINITION_FORMATION_WITH_SPECIFIED_SOURCE ( 'LIBOVOLNÝ', '', #115, .NOT_KNOWN. ) ;
#227 = FACE_BOUND ( 'NONE', #259, .T. ) ;
#228 = FACE_OUTER_BOUND ( 'NONE', #268, .T. ) ;
#229 = ADVANCED_FACE ( 'NONE', ( #184 ), #265, .F. ) ;
#230 = DIRECTION ( 'NONE',  ( 0.000000000000000000, 0.000000000000000000, -1.000000000000000000 ) ) ;
#231 = DIRECTION ( 'NONE',  ( 0.000000000000000000, 0.000000000000000000, 1.000000000000000000 ) ) ;
#232 = EDGE_CURVE ( 'NONE', #75, #215, #66, .T. ) ;
#233 = FACE_OUTER_BOUND ( 'NONE', #113, .T. ) ;
#234 = PERSON_AND_ORGANIZATION ( #183, #256 ) ;
#235 = DIRECTION ( 'NONE',  ( -1.000000000000000000, 0.000000000000000000, 0.000000000000000000 ) ) ;
#236 = VECTOR ( 'NONE', #91, 1000.000000000000000 ) ;
#237 = ORIENTED_EDGE ( 'NONE', *, *, #157, .T. ) ;
#238 = FACE_BOUND ( 'NONE', #159, .T. ) ;
#239 = SHAPE_DEFINITION_REPRESENTATION ( #58, #205 ) ;
#240 = CIRCLE ( 'NONE', #284, 6.500000000000000888 ) ;
#241 = AXIS2_PLACEMENT_3D ( 'NONE', #300, #136, #194 ) ;
#242 = CARTESIAN_POINT ( 'NONE',  ( -2.750000000000000000, 0.000000000000000000, 0.000000000000000000 ) ) ;
#243 = DIRECTION ( 'NONE',  ( 0.000000000000000000, 0.000000000000000000, 1.000000000000000000 ) ) ;
#244 = EDGE_CURVE ( 'NONE', #209, #349, #40, .T. ) ;
#245 = CC_DESIGN_SECURITY_CLASSIFICATION ( #102, ( #226 ) ) ;
#246 = AXIS2_PLACEMENT_3D ( 'NONE', #192, #50, #49 ) ;
#247 =( LENGTH_UNIT ( ) NAMED_UNIT ( * ) SI_UNIT ( .MILLI., .METRE. ) );
#248 = CIRCLE ( 'NONE', #178, 2.750000000000000000 ) ;
#249 =( NAMED_UNIT ( * ) SI_UNIT ( $, .STERADIAN. ) SOLID_ANGLE_UNIT ( ) );
#250 = VERTEX_POINT ( 'NONE', #46 ) ;
#251 = VERTEX_POINT ( 'NONE', #3 ) ;
#252 = DIRECTION ( 'NONE',  ( 0.000000000000000000, 0.000000000000000000, 1.000000000000000000 ) ) ;
#253 = DIRECTION ( 'NONE',  ( 0.000000000000000000, 0.000000000000000000, 1.000000000000000000 ) ) ;
#254 = VECTOR ( 'NONE', #4, 1000.000000000000000 ) ;
#255 = CALENDAR_DATE ( 2022, 8, 7 ) ;
#256 = ORGANIZATION ( 'NEURÈENÝ', 'NEURÈENÝ', '' ) ;
#257 = APPROVAL_ROLE ( '' ) ;
#258 = DIRECTION ( 'NONE',  ( 0.000000000000000000, 0.000000000000000000, 1.000000000000000000 ) ) ;
#259 = EDGE_LOOP ( 'NONE', ( #9, #237 ) ) ;
#260 = ORIENTED_EDGE ( 'NONE', *, *, #39, .T. ) ;
#261 = CARTESIAN_POINT ( 'NONE',  ( 0.000000000000000000, 0.000000000000000000, 257.0000000000000000 ) ) ;
#262 = DIRECTION ( 'NONE',  ( -0.000000000000000000, -0.000000000000000000, -1.000000000000000000 ) ) ;
#263 = APPROVAL ( #321, 'NEURÈENÝ' ) ;
#264 = DIRECTION ( 'NONE',  ( -0.000000000000000000, -0.000000000000000000, -1.000000000000000000 ) ) ;
#265 = TOROIDAL_SURFACE ( 'NONE', #324, 6.500000000000000888, 0.5000000000000000000 ) ;
#266 = ORIENTED_EDGE ( 'NONE', *, *, #71, .T. ) ;
#267 = ORIENTED_EDGE ( 'NONE', *, *, #127, .F. ) ;
#268 = EDGE_LOOP ( 'NONE', ( #151, #316, #47, #128 ) ) ;
#269 = DIRECTION ( 'NONE',  ( -0.000000000000000000, -0.000000000000000000, -1.000000000000000000 ) ) ;
#270 = APPROVAL_PERSON_ORGANIZATION ( #181, #341, #257 ) ;
#271 = ADVANCED_FACE ( 'NONE', ( #124 ), #293, .T. ) ;
#272 = FACE_OUTER_BOUND ( 'NONE', #185, .T. ) ;
#273 = CIRCLE ( 'NONE', #122, 6.000000000000000888 ) ;
#274 = VERTEX_POINT ( 'NONE', #217 ) ;
#275 = CARTESIAN_POINT ( 'NONE',  ( 0.000000000000000000, 0.000000000000000000, 7.500000000000007105 ) ) ;
#276 = PERSON_AND_ORGANIZATION_ROLE ( 'creator' ) ;
#277 = ADVANCED_FACE ( 'NONE', ( #238, #351 ), #301, .F. ) ;
#278 = CARTESIAN_POINT ( 'NONE',  ( 6.000000000000000888, 7.347880794884120722E-16, 257.0000000000000000 ) ) ;
#279 = CLOSED_SHELL ( 'NONE', ( #5, #229, #167, #222, #271, #287, #277, #101, #148, #140, #304 ) ) ;
#280 = EDGE_CURVE ( 'NONE', #155, #251, #172, .T. ) ;
#281 = LINE ( 'NONE', #344, #21 ) ;
#282 = APPROVAL_ROLE ( '' ) ;
#283 = CARTESIAN_POINT ( 'NONE',  ( -2.750000000000000000, 0.000000000000000000, 257.0000000000000000 ) ) ;
#284 = AXIS2_PLACEMENT_3D ( 'NONE', #347, #94, #176 ) ;
#285 = CALENDAR_DATE ( 2022, 8, 7 ) ;
#286 = CARTESIAN_POINT ( 'NONE',  ( 0.000000000000000000, 0.000000000000000000, 257.0000000000000000 ) ) ;
#287 = ADVANCED_FACE ( 'NONE', ( #227, #272 ), #109, .T. ) ;
#288 = ORIENTED_EDGE ( 'NONE', *, *, #162, .T. ) ;
#289 = CARTESIAN_POINT ( 'NONE',  ( -6.500000000000000888, 7.960204194457796463E-16, 7.500000000000007105 ) ) ;
#290 = DIRECTION ( 'NONE',  ( 1.000000000000000000, 0.000000000000000000, 0.000000000000000000 ) ) ;
#291 = LOCAL_TIME ( 17, 1, 11.00000000000000000, #200 ) ;
#292 = ORIENTED_EDGE ( 'NONE', *, *, #371, .F. ) ;
#293 = CYLINDRICAL_SURFACE ( 'NONE', #203, 10.00000000000000000 ) ;
#294 = DIRECTION ( 'NONE',  ( 0.000000000000000000, 0.000000000000000000, 1.000000000000000000 ) ) ;
#295 = ORIENTED_EDGE ( 'NONE', *, *, #134, .F. ) ;
#296 = DIRECTION ( 'NONE',  ( -1.000000000000000000, 0.000000000000000000, 0.000000000000000000 ) ) ;
#297 = APPROVAL_PERSON_ORGANIZATION ( #350, #263, #152 ) ;
#298 = EDGE_LOOP ( 'NONE', ( #95, #197, #325, #98 ) ) ;
#299 = CARTESIAN_POINT ( 'NONE',  ( 0.000000000000000000, 0.000000000000000000, 0.000000000000000000 ) ) ;
#300 = CARTESIAN_POINT ( 'NONE',  ( 0.000000000000000000, 0.000000000000000000, 257.0000000000000000 ) ) ;
#301 = PLANE ( 'NONE',  #355 ) ;
#302 = ORIENTED_EDGE ( 'NONE', *, *, #224, .F. ) ;
#303 = ORIENTED_EDGE ( 'NONE', *, *, #280, .F. ) ;
#304 = ADVANCED_FACE ( 'NONE', ( #82 ), #133, .F. ) ;
#305 = DATE_AND_TIME ( #30, #291 ) ;
#306 = DIRECTION ( 'NONE',  ( 1.000000000000000000, 0.000000000000000000, 0.000000000000000000 ) ) ;
#307 = DIRECTION ( 'NONE',  ( 1.000000000000000000, 0.000000000000000000, 0.000000000000000000 ) ) ;
#308 = DIRECTION ( 'NONE',  ( 1.000000000000000000, 0.000000000000000000, 0.000000000000000000 ) ) ;
#309 = AXIS2_PLACEMENT_3D ( 'NONE', #150, #258, #1 ) ;
#310 = PERSON_AND_ORGANIZATION ( #183, #256 ) ;
#311 = DIRECTION ( 'NONE',  ( 1.000000000000000000, 0.000000000000000000, 0.000000000000000000 ) ) ;
#312 = ORIENTED_EDGE ( 'NONE', *, *, #24, .T. ) ;
#313 = AXIS2_PLACEMENT_3D ( 'NONE', #220, #16, #364 ) ;
#314 = PERSON_AND_ORGANIZATION_ROLE ( 'design_owner' ) ;
#315 = FACE_OUTER_BOUND ( 'NONE', #23, .T. ) ;
#316 = ORIENTED_EDGE ( 'NONE', *, *, #232, .T. ) ;
#317 = FACE_OUTER_BOUND ( 'NONE', #191, .T. ) ;
#318 = ORIENTED_EDGE ( 'NONE', *, *, #373, .F. ) ;
#319 = CARTESIAN_POINT ( 'NONE',  ( 0.000000000000000000, 0.000000000000000000, 257.0000000000000000 ) ) ;
#320 = VERTEX_POINT ( 'NONE', #19 ) ;
#321 = APPROVAL_STATUS ( 'not_yet_approved' ) ;
#322 = CIRCLE ( 'NONE', #356, 2.750000000000000000 ) ;
#323 = DIRECTION ( 'NONE',  ( 0.000000000000000000, 0.000000000000000000, 1.000000000000000000 ) ) ;
#324 = AXIS2_PLACEMENT_3D ( 'NONE', #36, #323, #290 ) ;
#325 = ORIENTED_EDGE ( 'NONE', *, *, #127, .T. ) ;
#326 = CC_DESIGN_PERSON_AND_ORGANIZATION_ASSIGNMENT ( #146, #27, ( #226 ) ) ;
#327 = DIRECTION ( 'NONE',  ( 0.000000000000000000, 0.000000000000000000, 1.000000000000000000 ) ) ;
#328 = ORIENTED_EDGE ( 'NONE', *, *, #204, .T. ) ;
#329 = DIRECTION ( 'NONE',  ( 1.000000000000000000, 0.000000000000000000, 0.000000000000000000 ) ) ;
#330 = AXIS2_PLACEMENT_3D ( 'NONE', #26, #60, #306 ) ;
#331 = ORIENTED_EDGE ( 'NONE', *, *, #232, .F. ) ;
#332 = ORIENTED_EDGE ( 'NONE', *, *, #48, .F. ) ;
#333 = LINE ( 'NONE', #365, #363 ) ;
#334 = DIRECTION ( 'NONE',  ( 0.000000000000000000, -1.000000000000000000, 0.000000000000000000 ) ) ;
#335 = AXIS2_PLACEMENT_3D ( 'NONE', #188, #243, #161 ) ;
#336 = CARTESIAN_POINT ( 'NONE',  ( 0.000000000000000000, 0.000000000000000000, 257.0000000000000000 ) ) ;
#337 = APPLICATION_PROTOCOL_DEFINITION ( 'international standard', 'config_control_design', 1994, #77 ) ;
#338 = DIRECTION ( 'NONE',  ( -1.000000000000000000, 0.000000000000000000, 0.000000000000000000 ) ) ;
#339 = APPROVAL_STATUS ( 'not_yet_approved' ) ;
#340 = PLANE ( 'NONE',  #51 ) ;
#341 = APPROVAL ( #207, 'NEURÈENÝ' ) ;
#342 = CALENDAR_DATE ( 2022, 8, 7 ) ;
#343 = AXIS2_PLACEMENT_3D ( 'NONE', #289, #99, #97 ) ;
#344 = CARTESIAN_POINT ( 'NONE',  ( -6.000000000000000888, 0.000000000000000000, 257.0000000000000000 ) ) ;
#345 = EDGE_CURVE ( 'NONE', #250, #274, #333, .T. ) ;
#346 = CARTESIAN_POINT ( 'NONE',  ( 2.750000000000000000, 3.367778697655221012E-16, 257.0000000000000000 ) ) ;
#347 = CARTESIAN_POINT ( 'NONE',  ( 0.000000000000000000, 0.000000000000000000, 7.000000000000000000 ) ) ;
#348 = CARTESIAN_POINT ( 'NONE',  ( 0.000000000000000000, 0.000000000000000000, 7.000000000000000000 ) ) ;
#349 = VERTEX_POINT ( 'NONE', #166 ) ;
#350 = PERSON_AND_ORGANIZATION ( #183, #256 ) ;
#351 = FACE_OUTER_BOUND ( 'NONE', #53, .T. ) ;
#352 = DATE_AND_TIME ( #342, #367 ) ;
#353 = CARTESIAN_POINT ( 'NONE',  ( 2.750000000000000000, 3.367778697655221012E-16, 0.000000000000000000 ) ) ;
#354 = ORIENTED_EDGE ( 'NONE', *, *, #373, .T. ) ;
#355 = AXIS2_PLACEMENT_3D ( 'NONE', #299, #22, #76 ) ;
#356 = AXIS2_PLACEMENT_3D ( 'NONE', #156, #327, #12 ) ;
#357 = DATE_AND_TIME ( #210, #154 ) ;
#358 = EDGE_CURVE ( 'NONE', #274, #349, #168, .T. ) ;
#359 = DIRECTION ( 'NONE',  ( -1.000000000000000000, 0.000000000000000000, 0.000000000000000000 ) ) ;
#360 = ORIENTED_EDGE ( 'NONE', *, *, #358, .T. ) ;
#361 = DIRECTION ( 'NONE',  ( 0.000000000000000000, 0.000000000000000000, -1.000000000000000000 ) ) ;
#362 = ORIENTED_EDGE ( 'NONE', *, *, #345, .T. ) ;
#363 = VECTOR ( 'NONE', #269, 1000.000000000000000 ) ;
#364 = DIRECTION ( 'NONE',  ( 1.000000000000000000, 0.000000000000000000, 0.000000000000000000 ) ) ;
#365 = CARTESIAN_POINT ( 'NONE',  ( -10.00000000000000000, 0.000000000000000000, 7.000000000000000000 ) ) ;
#366 = AXIS2_PLACEMENT_3D ( 'NONE', #174, #62, #377 ) ;
#367 = LOCAL_TIME ( 17, 1, 11.00000000000000000, #116 ) ;
#368 = CARTESIAN_POINT ( 'NONE',  ( 6.000000000000000888, 7.347880794884120722E-16, 257.0000000000000000 ) ) ;
#369 = ORIENTED_EDGE ( 'NONE', *, *, #244, .T. ) ;
#370 = APPLICATION_CONTEXT ( 'configuration controlled 3d designs of mechanical parts and assemblies' ) ;
#371 = EDGE_CURVE ( 'NONE', #209, #250, #80, .T. ) ;
#372 = DIRECTION ( 'NONE',  ( 1.000000000000000000, 0.000000000000000000, 0.000000000000000000 ) ) ;
#373 = EDGE_CURVE ( 'NONE', #251, #212, #103, .T. ) ;
#374 = AXIS2_PLACEMENT_3D ( 'NONE', #319, #294, #329 ) ;
#375 = DATE_AND_TIME ( #255, #69 ) ;
#376 =( GEOMETRIC_REPRESENTATION_CONTEXT ( 3 ) GLOBAL_UNCERTAINTY_ASSIGNED_CONTEXT ( ( #13 ) ) GLOBAL_UNIT_ASSIGNED_CONTEXT ( ( #247, #79, #249 ) ) REPRESENTATION_CONTEXT ( 'NONE', 'WORKASPACE' ) );
#377 = DIRECTION ( 'NONE',  ( 1.000000000000000000, 0.000000000000000000, 0.000000000000000000 ) ) ;
#378 = SECURITY_CLASSIFICATION_LEVEL ( 'unclassified' ) ;
#379 = DIRECTION ( 'NONE',  ( 1.000000000000000000, 0.000000000000000000, 0.000000000000000000 ) ) ;
#380 = ORIENTED_EDGE ( 'NONE', *, *, #71, .F. ) ;
#381 = COORDINATED_UNIVERSAL_TIME_OFFSET ( 1, 0, .AHEAD. ) ;
ENDSEC;
END-ISO-10303-21;
