ISO-10303-21;
HEADER;
FILE_DESCRIPTION (( 'STEP AP203' ),
    '1' );
FILE_NAME ('cc36.STEP',
    '2022-07-08T15:10:43',
    ( '' ),
    ( '' ),
    'SwSTEP 2.0',
    'SolidWorks 2019',
    '' );
FILE_SCHEMA (( 'CONFIG_CONTROL_DESIGN' ));
ENDSEC;

DATA;
#1 = LINE ( 'NONE', #174, #156 ) ;
#2 = CC_DESIGN_PERSON_AND_ORGANIZATION_ASSIGNMENT ( #139, #3, ( #193 ) ) ;
#3 = PERSON_AND_ORGANIZATION_ROLE ( 'design_supplier' ) ;
#4 = AXIS2_PLACEMENT_3D ( 'NONE', #212, #267, #89 ) ;
#5 = ORIENTED_EDGE ( 'NONE', *, *, #155, .F. ) ;
#6 = CARTESIAN_POINT ( 'NONE',  ( 0.000000000000000000, 0.000000000000000000, 0.000000000000000000 ) ) ;
#7 = DIRECTION ( 'NONE',  ( -0.000000000000000000, -0.000000000000000000, -1.000000000000000000 ) ) ;
#8 = FACE_OUTER_BOUND ( 'NONE', #272, .T. ) ;
#9 = CIRCLE ( 'NONE', #62, 0.5000000000000004441 ) ;
#10 = PLANE ( 'NONE',  #302 ) ;
#11 = DIRECTION ( 'NONE',  ( -1.000000000000000000, 0.000000000000000000, 0.000000000000000000 ) ) ;
#12 = ADVANCED_FACE ( 'NONE', ( #53, #285 ), #165, .T. ) ;
#13 = CARTESIAN_POINT ( 'NONE',  ( 0.000000000000000000, 0.000000000000000000, 7.499999999999951150 ) ) ;
#14 = EDGE_LOOP ( 'NONE', ( #5, #222, #123, #205 ) ) ;
#15 = LOCAL_TIME ( 17, 10, 43.00000000000000000, #327 ) ;
#16 = MANIFOLD_SOLID_BREP ( 'Odebrat vysunutím3', #331 ) ;
#17 = CARTESIAN_POINT ( 'NONE',  ( 10.00000000000000000, 1.224646799147353256E-15, 7.000000000000000000 ) ) ;
#18 = ORIENTED_EDGE ( 'NONE', *, *, #244, .T. ) ;
#19 = EDGE_CURVE ( 'NONE', #321, #145, #101, .T. ) ;
#20 = AXIS2_PLACEMENT_3D ( 'NONE', #379, #131, #373 ) ;
#21 = DIRECTION ( 'NONE',  ( -0.000000000000000000, -0.000000000000000000, -1.000000000000000000 ) ) ;
#22 = DIRECTION ( 'NONE',  ( 0.000000000000000000, 0.000000000000000000, 1.000000000000000000 ) ) ;
#23 = APPROVAL_ROLE ( '' ) ;
#24 = COORDINATED_UNIVERSAL_TIME_OFFSET ( 1, 0, .AHEAD. ) ;
#25 = EDGE_LOOP ( 'NONE', ( #169, #264, #259, #326 ) ) ;
#26 = DATE_TIME_ROLE ( 'classification_date' ) ;
#27 = AXIS2_PLACEMENT_3D ( 'NONE', #307, #360, #11 ) ;
#28 = CC_DESIGN_APPROVAL ( #141, ( #193 ) ) ;
#29 = DIRECTION ( 'NONE',  ( 0.000000000000000000, 0.000000000000000000, 1.000000000000000000 ) ) ;
#30 = APPROVAL_STATUS ( 'not_yet_approved' ) ;
#31 = ADVANCED_FACE ( 'NONE', ( #85 ), #370, .F. ) ;
#32 = APPROVAL_DATE_TIME ( #146, #141 ) ;
#33 = EDGE_CURVE ( 'NONE', #164, #265, #50, .T. ) ;
#34 = DIRECTION ( 'NONE',  ( 1.000000000000000000, 0.000000000000000000, 0.000000000000000000 ) ) ;
#35 = CIRCLE ( 'NONE', #376, 10.00000000000000000 ) ;
#36 = APPROVAL_PERSON_ORGANIZATION ( #115, #338, #23 ) ;
#37 = LINE ( 'NONE', #69, #318 ) ;
#38 = EDGE_CURVE ( 'NONE', #145, #315, #1, .T. ) ;
#39 = ORIENTED_EDGE ( 'NONE', *, *, #238, .F. ) ;
#40 = CARTESIAN_POINT ( 'NONE',  ( 0.000000000000000000, 0.000000000000000000, 807.0000000000000000 ) ) ;
#41 = APPROVAL_STATUS ( 'not_yet_approved' ) ;
#42 = CARTESIAN_POINT ( 'NONE',  ( 0.000000000000000000, 0.000000000000000000, 0.000000000000000000 ) ) ;
#43 = ORIENTED_EDGE ( 'NONE', *, *, #52, .F. ) ;
#44 = EDGE_CURVE ( 'NONE', #172, #105, #345, .T. ) ;
#45 = PERSON_AND_ORGANIZATION ( #256, #241 ) ;
#46 = CARTESIAN_POINT ( 'NONE',  ( 10.00000000000000000, 1.224646799147353256E-15, 0.000000000000000000 ) ) ;
#47 = CARTESIAN_POINT ( 'NONE',  ( 6.000000000000000888, 7.347880794884120722E-16, 807.0000000000000000 ) ) ;
#48 = CARTESIAN_POINT ( 'NONE',  ( 2.500000000000000000, 3.061616997868383141E-16, 807.0000000000000000 ) ) ;
#49 = ORIENTED_EDGE ( 'NONE', *, *, #215, .F. ) ;
#50 = CIRCLE ( 'NONE', #160, 10.00000000000000000 ) ;
#51 = ORIENTED_EDGE ( 'NONE', *, *, #251, .T. ) ;
#52 = EDGE_CURVE ( 'NONE', #293, #236, #268, .T. ) ;
#53 = FACE_BOUND ( 'NONE', #239, .T. ) ;
#54 = CARTESIAN_POINT ( 'NONE',  ( -10.00000000000000000, 0.000000000000000000, 7.000000000000000000 ) ) ;
#55 = ORIENTED_EDGE ( 'NONE', *, *, #215, .T. ) ;
#56 = VERTEX_POINT ( 'NONE', #299 ) ;
#57 = EDGE_CURVE ( 'NONE', #265, #164, #35, .T. ) ;
#58 = APPROVAL_DATE_TIME ( #86, #338 ) ;
#59 = DATE_AND_TIME ( #135, #167 ) ;
#60 = CALENDAR_DATE ( 2022, 8, 7 ) ;
#61 = APPROVAL_STATUS ( 'not_yet_approved' ) ;
#62 = AXIS2_PLACEMENT_3D ( 'NONE', #248, #367, #218 ) ;
#63 = EDGE_CURVE ( 'NONE', #236, #355, #232, .T. ) ;
#64 = CIRCLE ( 'NONE', #143, 2.500000000000000000 ) ;
#65 = VERTEX_POINT ( 'NONE', #359 ) ;
#66 = PERSON_AND_ORGANIZATION ( #256, #241 ) ;
#67 = CARTESIAN_POINT ( 'NONE',  ( 0.000000000000000000, 0.000000000000000000, 7.499999999999951150 ) ) ;
#68 = ADVANCED_BREP_SHAPE_REPRESENTATION ( 'cc36', ( #16, #4 ), #130 ) ;
#69 = CARTESIAN_POINT ( 'NONE',  ( -10.00000000000000000, 0.000000000000000000, 7.000000000000000000 ) ) ;
#70 = DIRECTION ( 'NONE',  ( 1.000000000000000000, 0.000000000000000000, 0.000000000000000000 ) ) ;
#71 = ORIENTED_EDGE ( 'NONE', *, *, #63, .F. ) ;
#72 = CYLINDRICAL_SURFACE ( 'NONE', #225, 6.000000000000000888 ) ;
#73 = DIRECTION ( 'NONE',  ( 0.000000000000000000, 0.000000000000000000, -1.000000000000000000 ) ) ;
#74 = FACE_OUTER_BOUND ( 'NONE', #25, .T. ) ;
#75 = DIRECTION ( 'NONE',  ( -0.000000000000000000, -0.000000000000000000, -1.000000000000000000 ) ) ;
#76 = FACE_OUTER_BOUND ( 'NONE', #217, .T. ) ;
#77 = TOROIDAL_SURFACE ( 'NONE', #20, 6.500000000000000888, 0.5000000000000000000 ) ;
#78 = LINE ( 'NONE', #17, #274 ) ;
#79 = ORIENTED_EDGE ( 'NONE', *, *, #57, .F. ) ;
#80 = DIRECTION ( 'NONE',  ( 1.000000000000000000, 0.000000000000000000, 0.000000000000000000 ) ) ;
#81 = ADVANCED_FACE ( 'NONE', ( #312 ), #96, .T. ) ;
#82 = ORIENTED_EDGE ( 'NONE', *, *, #262, .F. ) ;
#83 = ORIENTED_EDGE ( 'NONE', *, *, #182, .F. ) ;
#84 = DIRECTION ( 'NONE',  ( 0.000000000000000000, 0.000000000000000000, 1.000000000000000000 ) ) ;
#85 = FACE_OUTER_BOUND ( 'NONE', #226, .T. ) ;
#86 = DATE_AND_TIME ( #94, #220 ) ;
#87 = ORIENTED_EDGE ( 'NONE', *, *, #252, .F. ) ;
#88 = UNCERTAINTY_MEASURE_WITH_UNIT (LENGTH_MEASURE( 1.000000000000000082E-05 ), #351, 'distance_accuracy_value', 'NONE');
#89 = DIRECTION ( 'NONE',  ( 1.000000000000000000, 0.000000000000000000, 0.000000000000000000 ) ) ;
#90 = APPLICATION_PROTOCOL_DEFINITION ( 'international standard', 'config_control_design', 1994, #197 ) ;
#91 = PRODUCT ( 'cc36', 'cc36', '', ( #237 ) ) ;
#92 = SECURITY_CLASSIFICATION ( '', '', #113 ) ;
#93 = CARTESIAN_POINT ( 'NONE',  ( 0.000000000000000000, 0.000000000000000000, 7.000000000000000000 ) ) ;
#94 = CALENDAR_DATE ( 2022, 8, 7 ) ;
#95 = CYLINDRICAL_SURFACE ( 'NONE', #269, 2.500000000000000000 ) ;
#96 = CYLINDRICAL_SURFACE ( 'NONE', #27, 10.00000000000000000 ) ;
#97 = VECTOR ( 'NONE', #333, 1000.000000000000000 ) ;
#98 = ORIENTED_EDGE ( 'NONE', *, *, #363, .F. ) ;
#99 = DIRECTION ( 'NONE',  ( 0.000000000000000000, 0.000000000000000000, 1.000000000000000000 ) ) ;
#100 = DIRECTION ( 'NONE',  ( -0.000000000000000000, -0.000000000000000000, -1.000000000000000000 ) ) ;
#101 = CIRCLE ( 'NONE', #340, 2.500000000000000000 ) ;
#102 = ADVANCED_FACE ( 'NONE', ( #8 ), #253, .T. ) ;
#103 = CC_DESIGN_APPROVAL ( #178, ( #92 ) ) ;
#104 = CARTESIAN_POINT ( 'NONE',  ( 0.000000000000000000, 0.000000000000000000, 0.000000000000000000 ) ) ;
#105 = VERTEX_POINT ( 'NONE', #46 ) ;
#106 = DIRECTION ( 'NONE',  ( -0.000000000000000000, -0.000000000000000000, -1.000000000000000000 ) ) ;
#107 = DIRECTION ( 'NONE',  ( -1.000000000000000000, 0.000000000000000000, 0.000000000000000000 ) ) ;
#108 = ORIENTED_EDGE ( 'NONE', *, *, #171, .F. ) ;
#109 = CARTESIAN_POINT ( 'NONE',  ( -6.000000000000000888, 0.000000000000000000, 7.499999999999951150 ) ) ;
#110 = PERSON_AND_ORGANIZATION ( #256, #241 ) ;
#111 = ORIENTED_EDGE ( 'NONE', *, *, #33, .F. ) ;
#112 = CIRCLE ( 'NONE', #297, 10.00000000000000000 ) ;
#113 = SECURITY_CLASSIFICATION_LEVEL ( 'unclassified' ) ;
#114 = ADVANCED_FACE ( 'NONE', ( #305, #158 ), #10, .F. ) ;
#115 = PERSON_AND_ORGANIZATION ( #256, #241 ) ;
#116 = DIRECTION ( 'NONE',  ( 1.000000000000000000, 0.000000000000000000, 0.000000000000000000 ) ) ;
#117 = DIRECTION ( 'NONE',  ( 0.000000000000000000, 0.000000000000000000, 1.000000000000000000 ) ) ;
#118 = AXIS2_PLACEMENT_3D ( 'NONE', #322, #229, #107 ) ;
#119 = EDGE_CURVE ( 'NONE', #260, #293, #352, .T. ) ;
#120 = FACE_OUTER_BOUND ( 'NONE', #230, .T. ) ;
#121 = CARTESIAN_POINT ( 'NONE',  ( 0.000000000000000000, 0.000000000000000000, 807.0000000000000000 ) ) ;
#122 = CIRCLE ( 'NONE', #161, 6.500000000000000888 ) ;
#123 = ORIENTED_EDGE ( 'NONE', *, *, #38, .T. ) ;
#124 = ADVANCED_FACE ( 'NONE', ( #74 ), #95, .F. ) ;
#125 = CC_DESIGN_DATE_AND_TIME_ASSIGNMENT ( #173, #26, ( #92 ) ) ;
#126 = LINE ( 'NONE', #188, #334 ) ;
#127 = FACE_BOUND ( 'NONE', #196, .T. ) ;
#128 = CARTESIAN_POINT ( 'NONE',  ( 0.000000000000000000, 0.000000000000000000, 7.000000000000000000 ) ) ;
#129 = AXIS2_PLACEMENT_3D ( 'NONE', #121, #7, #364 ) ;
#130 =( GEOMETRIC_REPRESENTATION_CONTEXT ( 3 ) GLOBAL_UNCERTAINTY_ASSIGNED_CONTEXT ( ( #88 ) ) GLOBAL_UNIT_ASSIGNED_CONTEXT ( ( #351, #207, #208 ) ) REPRESENTATION_CONTEXT ( 'NONE', 'WORKASPACE' ) );
#131 = DIRECTION ( 'NONE',  ( 0.000000000000000000, 0.000000000000000000, 1.000000000000000000 ) ) ;
#132 = ORIENTED_EDGE ( 'NONE', *, *, #137, .F. ) ;
#133 = DIRECTION ( 'NONE',  ( 1.000000000000000000, 0.000000000000000000, -0.000000000000000000 ) ) ;
#134 = ORIENTED_EDGE ( 'NONE', *, *, #238, .T. ) ;
#135 = CALENDAR_DATE ( 2022, 8, 7 ) ;
#136 = ORIENTED_EDGE ( 'NONE', *, *, #33, .T. ) ;
#137 = EDGE_CURVE ( 'NONE', #315, #65, #249, .T. ) ;
#138 = ORIENTED_EDGE ( 'NONE', *, *, #119, .F. ) ;
#139 = PERSON_AND_ORGANIZATION ( #256, #241 ) ;
#140 = DIRECTION ( 'NONE',  ( 0.000000000000000000, 0.000000000000000000, 1.000000000000000000 ) ) ;
#141 = APPROVAL ( #30, 'NEURÈENÝ' ) ;
#142 = AXIS2_PLACEMENT_3D ( 'NONE', #213, #185, #219 ) ;
#143 = AXIS2_PLACEMENT_3D ( 'NONE', #104, #75, #316 ) ;
#144 = DIRECTION ( 'NONE',  ( -0.000000000000000000, -0.000000000000000000, -1.000000000000000000 ) ) ;
#145 = VERTEX_POINT ( 'NONE', #246 ) ;
#146 = DATE_AND_TIME ( #170, #378 ) ;
#147 = PERSON_AND_ORGANIZATION ( #256, #241 ) ;
#148 = DIRECTION ( 'NONE',  ( 0.000000000000000000, 0.000000000000000000, 1.000000000000000000 ) ) ;
#149 = AXIS2_PLACEMENT_3D ( 'NONE', #374, #283, #344 ) ;
#150 = CARTESIAN_POINT ( 'NONE',  ( 0.000000000000000000, 0.000000000000000000, 807.0000000000000000 ) ) ;
#151 = ORIENTED_EDGE ( 'NONE', *, *, #189, .F. ) ;
#152 = SHAPE_DEFINITION_REPRESENTATION ( #300, #68 ) ;
#153 = FACE_OUTER_BOUND ( 'NONE', #195, .T. ) ;
#154 = ORIENTED_EDGE ( 'NONE', *, *, #119, .T. ) ;
#155 = EDGE_CURVE ( 'NONE', #321, #65, #126, .T. ) ;
#156 = VECTOR ( 'NONE', #295, 1000.000000000000000 ) ;
#157 = APPROVAL_ROLE ( '' ) ;
#158 = FACE_OUTER_BOUND ( 'NONE', #266, .T. ) ;
#159 = CARTESIAN_POINT ( 'NONE',  ( 0.000000000000000000, 0.000000000000000000, 7.000000000000000000 ) ) ;
#160 = AXIS2_PLACEMENT_3D ( 'NONE', #324, #325, #116 ) ;
#161 = AXIS2_PLACEMENT_3D ( 'NONE', #258, #144, #270 ) ;
#162 = CYLINDRICAL_SURFACE ( 'NONE', #279, 10.00000000000000000 ) ;
#163 = DIRECTION ( 'NONE',  ( 1.000000000000000000, 0.000000000000000000, -0.000000000000000000 ) ) ;
#164 = VERTEX_POINT ( 'NONE', #280 ) ;
#165 = PLANE ( 'NONE',  #186 ) ;
#166 = AXIS2_PLACEMENT_3D ( 'NONE', #211, #29, #34 ) ;
#167 = LOCAL_TIME ( 17, 10, 43.00000000000000000, #168 ) ;
#168 = COORDINATED_UNIVERSAL_TIME_OFFSET ( 1, 0, .AHEAD. ) ;
#169 = ORIENTED_EDGE ( 'NONE', *, *, #224, .T. ) ;
#170 = CALENDAR_DATE ( 2022, 8, 7 ) ;
#171 = EDGE_CURVE ( 'NONE', #260, #355, #187, .T. ) ;
#172 = VERTEX_POINT ( 'NONE', #183 ) ;
#173 = DATE_AND_TIME ( #60, #15 ) ;
#174 = CARTESIAN_POINT ( 'NONE',  ( -2.500000000000000000, 0.000000000000000000, 807.0000000000000000 ) ) ;
#175 = AXIS2_PLACEMENT_3D ( 'NONE', #6, #140, #209 ) ;
#176 = DATE_TIME_ROLE ( 'creation_date' ) ;
#177 = DIRECTION ( 'NONE',  ( -0.000000000000000000, -0.000000000000000000, -1.000000000000000000 ) ) ;
#178 = APPROVAL ( #41, 'NEURÈENÝ' ) ;
#179 = PERSON_AND_ORGANIZATION ( #256, #241 ) ;
#180 = AXIS2_PLACEMENT_3D ( 'NONE', #337, #275, #70 ) ;
#181 = COORDINATED_UNIVERSAL_TIME_OFFSET ( 1, 0, .AHEAD. ) ;
#182 = EDGE_CURVE ( 'NONE', #265, #172, #37, .T. ) ;
#183 = CARTESIAN_POINT ( 'NONE',  ( -10.00000000000000000, 0.000000000000000000, 0.000000000000000000 ) ) ;
#184 = ADVANCED_FACE ( 'NONE', ( #153 ), #72, .T. ) ;
#185 = DIRECTION ( 'NONE',  ( -0.000000000000000000, -0.000000000000000000, -1.000000000000000000 ) ) ;
#186 = AXIS2_PLACEMENT_3D ( 'NONE', #292, #22, #163 ) ;
#187 = LINE ( 'NONE', #47, #97 ) ;
#188 = CARTESIAN_POINT ( 'NONE',  ( 2.500000000000000000, 3.061616997868383141E-16, 807.0000000000000000 ) ) ;
#189 = EDGE_CURVE ( 'NONE', #355, #56, #9, .T. ) ;
#190 = FACE_OUTER_BOUND ( 'NONE', #14, .T. ) ;
#191 = ORIENTED_EDGE ( 'NONE', *, *, #63, .T. ) ;
#192 = EDGE_LOOP ( 'NONE', ( #132, #87 ) ) ;
#193 = PRODUCT_DEFINITION_FORMATION_WITH_SPECIFIED_SOURCE ( 'LIBOVOLNÝ', '', #91, .NOT_KNOWN. ) ;
#194 = DIRECTION ( 'NONE',  ( 1.000000000000000000, 0.000000000000000000, 0.000000000000000000 ) ) ;
#195 = EDGE_LOOP ( 'NONE', ( #138, #368, #51, #43 ) ) ;
#196 = EDGE_LOOP ( 'NONE', ( #242, #55 ) ) ;
#197 = APPLICATION_CONTEXT ( 'configuration controlled 3d designs of mechanical parts and assemblies' ) ;
#198 = CARTESIAN_POINT ( 'NONE',  ( -6.000000000000000888, 0.000000000000000000, 807.0000000000000000 ) ) ;
#199 = ORIENTED_EDGE ( 'NONE', *, *, #52, .T. ) ;
#200 = ADVANCED_FACE ( 'NONE', ( #127, #120 ), #336, .T. ) ;
#201 = ORIENTED_EDGE ( 'NONE', *, *, #57, .T. ) ;
#202 = CARTESIAN_POINT ( 'NONE',  ( 6.000000000000000888, 7.347880794884120722E-16, 807.0000000000000000 ) ) ;
#203 = VECTOR ( 'NONE', #177, 1000.000000000000000 ) ;
#204 = CIRCLE ( 'NONE', #303, 6.000000000000000888 ) ;
#205 = ORIENTED_EDGE ( 'NONE', *, *, #137, .T. ) ;
#206 = ADVANCED_FACE ( 'NONE', ( #286 ), #77, .F. ) ;
#207 =( NAMED_UNIT ( * ) PLANE_ANGLE_UNIT ( ) SI_UNIT ( $, .RADIAN. ) );
#208 =( NAMED_UNIT ( * ) SI_UNIT ( $, .STERADIAN. ) SOLID_ANGLE_UNIT ( ) );
#209 = DIRECTION ( 'NONE',  ( 1.000000000000000000, 0.000000000000000000, 0.000000000000000000 ) ) ;
#210 = PERSON_AND_ORGANIZATION_ROLE ( 'design_owner' ) ;
#211 = CARTESIAN_POINT ( 'NONE',  ( 0.000000000000000000, 0.000000000000000000, 7.499999999999951150 ) ) ;
#212 = CARTESIAN_POINT ( 'NONE',  ( 0.000000000000000000, 0.000000000000000000, 0.000000000000000000 ) ) ;
#213 = CARTESIAN_POINT ( 'NONE',  ( 0.000000000000000000, 0.000000000000000000, 0.000000000000000000 ) ) ;
#214 = CC_DESIGN_APPROVAL ( #338, ( #257 ) ) ;
#215 = EDGE_CURVE ( 'NONE', #308, #56, #291, .T. ) ;
#216 = DIRECTION ( 'NONE',  ( 1.000000000000000000, 0.000000000000000000, -0.000000000000000000 ) ) ;
#217 = EDGE_LOOP ( 'NONE', ( #111, #18, #348, #83 ) ) ;
#218 = DIRECTION ( 'NONE',  ( 0.000000000000000000, 0.000000000000000000, -1.000000000000000000 ) ) ;
#219 = DIRECTION ( 'NONE',  ( 1.000000000000000000, 0.000000000000000000, 0.000000000000000000 ) ) ;
#220 = LOCAL_TIME ( 17, 10, 43.00000000000000000, #24 ) ;
#221 = CARTESIAN_POINT ( 'NONE',  ( -2.500000000000000000, 0.000000000000000000, 0.000000000000000000 ) ) ;
#222 = ORIENTED_EDGE ( 'NONE', *, *, #19, .T. ) ;
#223 = ADVANCED_FACE ( 'NONE', ( #190 ), #288, .F. ) ;
#224 = EDGE_CURVE ( 'NONE', #145, #321, #356, .T. ) ;
#225 = AXIS2_PLACEMENT_3D ( 'NONE', #150, #276, #282 ) ;
#226 = EDGE_LOOP ( 'NONE', ( #39, #365, #375, #49 ) ) ;
#227 = CIRCLE ( 'NONE', #362, 0.5000000000000004441 ) ;
#228 = DIRECTION ( 'NONE',  ( 1.224646799147353207E-16, 1.000000000000000000, -0.000000000000000000 ) ) ;
#229 = DIRECTION ( 'NONE',  ( 0.000000000000000000, 0.000000000000000000, -1.000000000000000000 ) ) ;
#230 = EDGE_LOOP ( 'NONE', ( #201, #136 ) ) ;
#231 = APPROVAL_ROLE ( '' ) ;
#232 = CIRCLE ( 'NONE', #254, 6.000000000000000888 ) ;
#233 = EDGE_LOOP ( 'NONE', ( #306, #79, #313, #361 ) ) ;
#234 = DESIGN_CONTEXT ( 'detailed design', #287, 'design' ) ;
#235 = PERSON_AND_ORGANIZATION ( #256, #241 ) ;
#236 = VERTEX_POINT ( 'NONE', #109 ) ;
#237 = MECHANICAL_CONTEXT ( 'NONE', #197, 'mechanical' ) ;
#238 = EDGE_CURVE ( 'NONE', #236, #308, #227, .T. ) ;
#239 = EDGE_LOOP ( 'NONE', ( #358, #296 ) ) ;
#240 = PERSON_AND_ORGANIZATION_ROLE ( 'creator' ) ;
#241 = ORGANIZATION ( 'NEURÈENÝ', 'NEURÈENÝ', '' ) ;
#242 = ORIENTED_EDGE ( 'NONE', *, *, #363, .T. ) ;
#243 = DIRECTION ( 'NONE',  ( 1.000000000000000000, 0.000000000000000000, 0.000000000000000000 ) ) ;
#244 = EDGE_CURVE ( 'NONE', #164, #105, #78, .T. ) ;
#245 = EDGE_LOOP ( 'NONE', ( #71, #134, #98, #151 ) ) ;
#246 = CARTESIAN_POINT ( 'NONE',  ( -2.500000000000000000, 0.000000000000000000, 807.0000000000000000 ) ) ;
#247 = CC_DESIGN_PERSON_AND_ORGANIZATION_ASSIGNMENT ( #235, #353, ( #92 ) ) ;
#248 = CARTESIAN_POINT ( 'NONE',  ( 6.500000000000000888, 0.000000000000000000, 7.499999999999951150 ) ) ;
#249 = CIRCLE ( 'NONE', #142, 2.500000000000000000 ) ;
#250 = DIRECTION ( 'NONE',  ( -1.000000000000000000, 0.000000000000000000, 0.000000000000000000 ) ) ;
#251 = EDGE_CURVE ( 'NONE', #355, #236, #204, .T. ) ;
#252 = EDGE_CURVE ( 'NONE', #65, #315, #64, .T. ) ;
#253 = CYLINDRICAL_SURFACE ( 'NONE', #129, 6.000000000000000888 ) ;
#254 = AXIS2_PLACEMENT_3D ( 'NONE', #67, #148, #273 ) ;
#255 = DIRECTION ( 'NONE',  ( -1.000000000000000000, 0.000000000000000000, 0.000000000000000000 ) ) ;
#256 = PERSON ( 'NEURÈENÝ', 'NEURÈENÝ', 'NEURÈENÝ', ('NEURÈENÝ'), ('NEURÈENÝ'), ('NEURÈENÝ') ) ;
#257 = PRODUCT_DEFINITION ( 'NEZNÁMÝ', '', #193, #234 ) ;
#258 = CARTESIAN_POINT ( 'NONE',  ( 0.000000000000000000, 0.000000000000000000, 7.000000000000000000 ) ) ;
#259 = ORIENTED_EDGE ( 'NONE', *, *, #252, .T. ) ;
#260 = VERTEX_POINT ( 'NONE', #202 ) ;
#261 = APPROVAL_PERSON_ORGANIZATION ( #110, #141, #231 ) ;
#262 = EDGE_CURVE ( 'NONE', #105, #172, #112, .T. ) ;
#263 = DIRECTION ( 'NONE',  ( 1.000000000000000000, 0.000000000000000000, 0.000000000000000000 ) ) ;
#264 = ORIENTED_EDGE ( 'NONE', *, *, #155, .T. ) ;
#265 = VERTEX_POINT ( 'NONE', #54 ) ;
#266 = EDGE_LOOP ( 'NONE', ( #317, #82 ) ) ;
#267 = DIRECTION ( 'NONE',  ( 0.000000000000000000, 0.000000000000000000, 1.000000000000000000 ) ) ;
#268 = LINE ( 'NONE', #271, #203 ) ;
#269 = AXIS2_PLACEMENT_3D ( 'NONE', #40, #73, #250 ) ;
#270 = DIRECTION ( 'NONE',  ( 1.000000000000000000, 0.000000000000000000, 0.000000000000000000 ) ) ;
#271 = CARTESIAN_POINT ( 'NONE',  ( -6.000000000000000888, 0.000000000000000000, 807.0000000000000000 ) ) ;
#272 = EDGE_LOOP ( 'NONE', ( #108, #329, #199, #191 ) ) ;
#273 = DIRECTION ( 'NONE',  ( 1.000000000000000000, 0.000000000000000000, 0.000000000000000000 ) ) ;
#274 = VECTOR ( 'NONE', #371, 1000.000000000000000 ) ;
#275 = DIRECTION ( 'NONE',  ( 0.000000000000000000, 0.000000000000000000, 1.000000000000000000 ) ) ;
#276 = DIRECTION ( 'NONE',  ( -0.000000000000000000, -0.000000000000000000, -1.000000000000000000 ) ) ;
#277 = CARTESIAN_POINT ( 'NONE',  ( 0.000000000000000000, 0.000000000000000000, 7.000000000000000000 ) ) ;
#278 = AXIS2_PLACEMENT_3D ( 'NONE', #277, #99, #133 ) ;
#279 = AXIS2_PLACEMENT_3D ( 'NONE', #128, #21, #255 ) ;
#280 = CARTESIAN_POINT ( 'NONE',  ( 10.00000000000000000, 1.224646799147353256E-15, 7.000000000000000000 ) ) ;
#281 = APPROVAL_DATE_TIME ( #339, #178 ) ;
#282 = DIRECTION ( 'NONE',  ( -1.000000000000000000, 0.000000000000000000, 0.000000000000000000 ) ) ;
#283 = DIRECTION ( 'NONE',  ( 0.000000000000000000, 0.000000000000000000, 1.000000000000000000 ) ) ;
#284 = CARTESIAN_POINT ( 'NONE',  ( 6.000000000000000888, 7.347880794884120722E-16, 7.499999999999951150 ) ) ;
#285 = FACE_OUTER_BOUND ( 'NONE', #372, .T. ) ;
#286 = FACE_OUTER_BOUND ( 'NONE', #245, .T. ) ;
#287 = APPLICATION_CONTEXT ( 'configuration controlled 3d designs of mechanical parts and assemblies' ) ;
#288 = CYLINDRICAL_SURFACE ( 'NONE', #118, 2.500000000000000000 ) ;
#289 = DIRECTION ( 'NONE',  ( 1.000000000000000000, 0.000000000000000000, 0.000000000000000000 ) ) ;
#290 = ORIENTED_EDGE ( 'NONE', *, *, #366, .T. ) ;
#291 = CIRCLE ( 'NONE', #335, 6.500000000000000888 ) ;
#292 = CARTESIAN_POINT ( 'NONE',  ( 0.000000000000000000, 0.000000000000000000, 807.0000000000000000 ) ) ;
#293 = VERTEX_POINT ( 'NONE', #198 ) ;
#294 = PERSON_AND_ORGANIZATION_ROLE ( 'creator' ) ;
#295 = DIRECTION ( 'NONE',  ( 0.000000000000000000, 0.000000000000000000, -1.000000000000000000 ) ) ;
#296 = ORIENTED_EDGE ( 'NONE', *, *, #19, .F. ) ;
#297 = AXIS2_PLACEMENT_3D ( 'NONE', #319, #84, #80 ) ;
#298 = PRODUCT_RELATED_PRODUCT_CATEGORY ( 'detail', '', ( #91 ) ) ;
#299 = CARTESIAN_POINT ( 'NONE',  ( 6.500000000000000888, 0.000000000000000000, 6.999999999999975131 ) ) ;
#300 = PRODUCT_DEFINITION_SHAPE ( 'NONE', 'NONE',  #257 ) ;
#301 = COORDINATED_UNIVERSAL_TIME_OFFSET ( 1, 0, .AHEAD. ) ;
#302 = AXIS2_PLACEMENT_3D ( 'NONE', #42, #342, #216 ) ;
#303 = AXIS2_PLACEMENT_3D ( 'NONE', #13, #349, #194 ) ;
#304 = CALENDAR_DATE ( 2022, 8, 7 ) ;
#305 = FACE_BOUND ( 'NONE', #192, .T. ) ;
#306 = ORIENTED_EDGE ( 'NONE', *, *, #244, .F. ) ;
#307 = CARTESIAN_POINT ( 'NONE',  ( 0.000000000000000000, 0.000000000000000000, 7.000000000000000000 ) ) ;
#308 = VERTEX_POINT ( 'NONE', #323 ) ;
#309 = ADVANCED_FACE ( 'NONE', ( #76 ), #162, .T. ) ;
#310 = CC_DESIGN_PERSON_AND_ORGANIZATION_ASSIGNMENT ( #147, #294, ( #193 ) ) ;
#311 = APPROVAL_PERSON_ORGANIZATION ( #45, #178, #157 ) ;
#312 = FACE_OUTER_BOUND ( 'NONE', #233, .T. ) ;
#313 = ORIENTED_EDGE ( 'NONE', *, *, #182, .T. ) ;
#314 = DIRECTION ( 'NONE',  ( 0.000000000000000000, 0.000000000000000000, -1.000000000000000000 ) ) ;
#315 = VERTEX_POINT ( 'NONE', #221 ) ;
#316 = DIRECTION ( 'NONE',  ( 1.000000000000000000, 0.000000000000000000, 0.000000000000000000 ) ) ;
#317 = ORIENTED_EDGE ( 'NONE', *, *, #44, .F. ) ;
#318 = VECTOR ( 'NONE', #100, 1000.000000000000000 ) ;
#319 = CARTESIAN_POINT ( 'NONE',  ( 0.000000000000000000, 0.000000000000000000, 0.000000000000000000 ) ) ;
#320 = AXIS2_PLACEMENT_3D ( 'NONE', #354, #117, #381 ) ;
#321 = VERTEX_POINT ( 'NONE', #48 ) ;
#322 = CARTESIAN_POINT ( 'NONE',  ( 0.000000000000000000, 0.000000000000000000, 807.0000000000000000 ) ) ;
#323 = CARTESIAN_POINT ( 'NONE',  ( -6.500000000000000888, 7.960204194457796463E-16, 6.999999999999975131 ) ) ;
#324 = CARTESIAN_POINT ( 'NONE',  ( 0.000000000000000000, 0.000000000000000000, 7.000000000000000000 ) ) ;
#325 = DIRECTION ( 'NONE',  ( 0.000000000000000000, 0.000000000000000000, 1.000000000000000000 ) ) ;
#326 = ORIENTED_EDGE ( 'NONE', *, *, #38, .F. ) ;
#327 = COORDINATED_UNIVERSAL_TIME_OFFSET ( 1, 0, .AHEAD. ) ;
#328 = CC_DESIGN_DATE_AND_TIME_ASSIGNMENT ( #59, #176, ( #257 ) ) ;
#329 = ORIENTED_EDGE ( 'NONE', *, *, #366, .F. ) ;
#330 = APPLICATION_PROTOCOL_DEFINITION ( 'international standard', 'config_control_design', 1994, #287 ) ;
#331 = CLOSED_SHELL ( 'NONE', ( #124, #206, #184, #309, #81, #200, #114, #102, #12, #31, #223 ) ) ;
#332 = DIRECTION ( 'NONE',  ( 0.000000000000000000, 0.000000000000000000, 1.000000000000000000 ) ) ;
#333 = DIRECTION ( 'NONE',  ( -0.000000000000000000, -0.000000000000000000, -1.000000000000000000 ) ) ;
#334 = VECTOR ( 'NONE', #314, 1000.000000000000000 ) ;
#335 = AXIS2_PLACEMENT_3D ( 'NONE', #159, #106, #263 ) ;
#336 = PLANE ( 'NONE',  #278 ) ;
#337 = CARTESIAN_POINT ( 'NONE',  ( 0.000000000000000000, 0.000000000000000000, 807.0000000000000000 ) ) ;
#338 = APPROVAL ( #61, 'NEURÈENÝ' ) ;
#339 = DATE_AND_TIME ( #304, #357 ) ;
#340 = AXIS2_PLACEMENT_3D ( 'NONE', #380, #350, #289 ) ;
#341 = CIRCLE ( 'NONE', #320, 6.000000000000000888 ) ;
#342 = DIRECTION ( 'NONE',  ( 0.000000000000000000, 0.000000000000000000, 1.000000000000000000 ) ) ;
#343 = CC_DESIGN_PERSON_AND_ORGANIZATION_ASSIGNMENT ( #179, #240, ( #257 ) ) ;
#344 = DIRECTION ( 'NONE',  ( 1.000000000000000000, 0.000000000000000000, 0.000000000000000000 ) ) ;
#345 = CIRCLE ( 'NONE', #175, 10.00000000000000000 ) ;
#346 = CC_DESIGN_SECURITY_CLASSIFICATION ( #92, ( #193 ) ) ;
#347 = DIRECTION ( 'NONE',  ( -1.000000000000000000, 1.224646799147351482E-16, 0.000000000000000000 ) ) ;
#348 = ORIENTED_EDGE ( 'NONE', *, *, #262, .T. ) ;
#349 = DIRECTION ( 'NONE',  ( 0.000000000000000000, 0.000000000000000000, 1.000000000000000000 ) ) ;
#350 = DIRECTION ( 'NONE',  ( 0.000000000000000000, 0.000000000000000000, 1.000000000000000000 ) ) ;
#351 =( LENGTH_UNIT ( ) NAMED_UNIT ( * ) SI_UNIT ( .MILLI., .METRE. ) );
#352 = CIRCLE ( 'NONE', #180, 6.000000000000000888 ) ;
#353 = PERSON_AND_ORGANIZATION_ROLE ( 'classification_officer' ) ;
#354 = CARTESIAN_POINT ( 'NONE',  ( 0.000000000000000000, 0.000000000000000000, 807.0000000000000000 ) ) ;
#355 = VERTEX_POINT ( 'NONE', #284 ) ;
#356 = CIRCLE ( 'NONE', #149, 2.500000000000000000 ) ;
#357 = LOCAL_TIME ( 17, 10, 43.00000000000000000, #181 ) ;
#358 = ORIENTED_EDGE ( 'NONE', *, *, #224, .F. ) ;
#359 = CARTESIAN_POINT ( 'NONE',  ( 2.500000000000000000, 3.061616997868383141E-16, 0.000000000000000000 ) ) ;
#360 = DIRECTION ( 'NONE',  ( -0.000000000000000000, -0.000000000000000000, -1.000000000000000000 ) ) ;
#361 = ORIENTED_EDGE ( 'NONE', *, *, #44, .T. ) ;
#362 = AXIS2_PLACEMENT_3D ( 'NONE', #377, #228, #347 ) ;
#363 = EDGE_CURVE ( 'NONE', #56, #308, #122, .T. ) ;
#364 = DIRECTION ( 'NONE',  ( -1.000000000000000000, 0.000000000000000000, 0.000000000000000000 ) ) ;
#365 = ORIENTED_EDGE ( 'NONE', *, *, #251, .F. ) ;
#366 = EDGE_CURVE ( 'NONE', #293, #260, #341, .T. ) ;
#367 = DIRECTION ( 'NONE',  ( 0.000000000000000000, -1.000000000000000000, 0.000000000000000000 ) ) ;
#368 = ORIENTED_EDGE ( 'NONE', *, *, #171, .T. ) ;
#369 = CC_DESIGN_PERSON_AND_ORGANIZATION_ASSIGNMENT ( #66, #210, ( #91 ) ) ;
#370 = TOROIDAL_SURFACE ( 'NONE', #166, 6.500000000000000888, 0.5000000000000000000 ) ;
#371 = DIRECTION ( 'NONE',  ( -0.000000000000000000, -0.000000000000000000, -1.000000000000000000 ) ) ;
#372 = EDGE_LOOP ( 'NONE', ( #290, #154 ) ) ;
#373 = DIRECTION ( 'NONE',  ( 1.000000000000000000, 0.000000000000000000, 0.000000000000000000 ) ) ;
#374 = CARTESIAN_POINT ( 'NONE',  ( 0.000000000000000000, 0.000000000000000000, 807.0000000000000000 ) ) ;
#375 = ORIENTED_EDGE ( 'NONE', *, *, #189, .T. ) ;
#376 = AXIS2_PLACEMENT_3D ( 'NONE', #93, #332, #243 ) ;
#377 = CARTESIAN_POINT ( 'NONE',  ( -6.500000000000000888, 7.960204194457796463E-16, 7.499999999999951150 ) ) ;
#378 = LOCAL_TIME ( 17, 10, 43.00000000000000000, #301 ) ;
#379 = CARTESIAN_POINT ( 'NONE',  ( 0.000000000000000000, 0.000000000000000000, 7.499999999999951150 ) ) ;
#380 = CARTESIAN_POINT ( 'NONE',  ( 0.000000000000000000, 0.000000000000000000, 807.0000000000000000 ) ) ;
#381 = DIRECTION ( 'NONE',  ( 1.000000000000000000, 0.000000000000000000, 0.000000000000000000 ) ) ;
ENDSEC;
END-ISO-10303-21;
