ISO-10303-21;
HEADER;
FILE_DESCRIPTION (( 'STEP AP203' ),
    '1' );
FILE_NAME ('961f.STEP',
    '2022-07-08T14:31:01',
    ( '' ),
    ( '' ),
    'SwSTEP 2.0',
    'SolidWorks 2019',
    '' );
FILE_SCHEMA (( 'CONFIG_CONTROL_DESIGN' ));
ENDSEC;

DATA;
#1 = CARTESIAN_POINT ( 'NONE',  ( 0.000000000000000000, 0.000000000000000000, 232.0000000000000000 ) ) ;
#2 = ORIENTED_EDGE ( 'NONE', *, *, #192, .T. ) ;
#3 = AXIS2_PLACEMENT_3D ( 'NONE', #280, #338, #225 ) ;
#4 = VERTEX_POINT ( 'NONE', #215 ) ;
#5 = FACE_OUTER_BOUND ( 'NONE', #157, .T. ) ;
#6 = DIRECTION ( 'NONE',  ( 1.000000000000000000, 0.000000000000000000, 0.000000000000000000 ) ) ;
#7 = ORIENTED_EDGE ( 'NONE', *, *, #92, .F. ) ;
#8 = CARTESIAN_POINT ( 'NONE',  ( 0.000000000000000000, 0.000000000000000000, 7.000000000000000000 ) ) ;
#9 = EDGE_LOOP ( 'NONE', ( #38, #31 ) ) ;
#10 = PERSON_AND_ORGANIZATION ( #62, #321 ) ;
#11 = CIRCLE ( 'NONE', #325, 4.250000000000000000 ) ;
#12 = ORIENTED_EDGE ( 'NONE', *, *, #202, .T. ) ;
#13 = COORDINATED_UNIVERSAL_TIME_OFFSET ( 1, 0, .AHEAD. ) ;
#14 = VERTEX_POINT ( 'NONE', #43 ) ;
#15 = COORDINATED_UNIVERSAL_TIME_OFFSET ( 1, 0, .AHEAD. ) ;
#16 = CARTESIAN_POINT ( 'NONE',  ( 4.250000000000000000, 5.204748896376249713E-16, 232.0000000000000000 ) ) ;
#17 = SHAPE_DEFINITION_REPRESENTATION ( #175, #221 ) ;
#18 = DIRECTION ( 'NONE',  ( 1.000000000000000000, 0.000000000000000000, -0.000000000000000000 ) ) ;
#19 = CC_DESIGN_APPROVAL ( #101, ( #161 ) ) ;
#20 = PERSON_AND_ORGANIZATION ( #62, #321 ) ;
#21 = EDGE_CURVE ( 'NONE', #162, #326, #163, .T. ) ;
#22 = PLANE ( 'NONE',  #315 ) ;
#23 = LINE ( 'NONE', #16, #133 ) ;
#24 = DIRECTION ( 'NONE',  ( 1.224646799147353207E-16, 1.000000000000000000, -0.000000000000000000 ) ) ;
#25 = DIRECTION ( 'NONE',  ( -0.000000000000000000, -0.000000000000000000, -1.000000000000000000 ) ) ;
#26 = ADVANCED_FACE ( 'NONE', ( #5 ), #362, .T. ) ;
#27 = DIRECTION ( 'NONE',  ( 1.000000000000000000, 0.000000000000000000, 0.000000000000000000 ) ) ;
#28 = ORIENTED_EDGE ( 'NONE', *, *, #264, .F. ) ;
#29 = CYLINDRICAL_SURFACE ( 'NONE', #125, 10.00000000000000000 ) ;
#30 = APPROVAL_PERSON_ORGANIZATION ( #304, #160, #368 ) ;
#31 = ORIENTED_EDGE ( 'NONE', *, *, #370, .T. ) ;
#32 = VERTEX_POINT ( 'NONE', #246 ) ;
#33 = ADVANCED_FACE ( 'NONE', ( #121 ), #244, .T. ) ;
#34 = CIRCLE ( 'NONE', #42, 4.250000000000000000 ) ;
#35 = ORIENTED_EDGE ( 'NONE', *, *, #339, .T. ) ;
#36 = CARTESIAN_POINT ( 'NONE',  ( 6.700000000000001066, 0.000000000000000000, 7.000000000000006217 ) ) ;
#37 = ADVANCED_FACE ( 'NONE', ( #155 ), #257, .F. ) ;
#38 = ORIENTED_EDGE ( 'NONE', *, *, #84, .T. ) ;
#39 = CALENDAR_DATE ( 2022, 8, 7 ) ;
#40 = ORIENTED_EDGE ( 'NONE', *, *, #339, .F. ) ;
#41 = PERSON_AND_ORGANIZATION ( #62, #321 ) ;
#42 = AXIS2_PLACEMENT_3D ( 'NONE', #1, #113, #154 ) ;
#43 = CARTESIAN_POINT ( 'NONE',  ( -6.700000000000001066, 8.205133554287267548E-16, 7.000000000000006217 ) ) ;
#44 = PERSON_AND_ORGANIZATION ( #62, #321 ) ;
#45 = ORIENTED_EDGE ( 'NONE', *, *, #92, .T. ) ;
#46 = DATE_AND_TIME ( #189, #205 ) ;
#47 = DIRECTION ( 'NONE',  ( 0.000000000000000000, 0.000000000000000000, 1.000000000000000000 ) ) ;
#48 = CARTESIAN_POINT ( 'NONE',  ( -6.700000000000001066, 8.205133554287267548E-16, 7.700000000000012612 ) ) ;
#49 = AXIS2_PLACEMENT_3D ( 'NONE', #197, #169, #74 ) ;
#50 = FACE_OUTER_BOUND ( 'NONE', #206, .T. ) ;
#51 = VECTOR ( 'NONE', #53, 1000.000000000000000 ) ;
#52 = DIRECTION ( 'NONE',  ( 0.000000000000000000, 0.000000000000000000, 1.000000000000000000 ) ) ;
#53 = DIRECTION ( 'NONE',  ( -0.000000000000000000, -0.000000000000000000, -1.000000000000000000 ) ) ;
#54 = CC_DESIGN_APPROVAL ( #160, ( #336 ) ) ;
#55 = DIRECTION ( 'NONE',  ( -1.000000000000000000, 0.000000000000000000, 0.000000000000000000 ) ) ;
#56 = DIRECTION ( 'NONE',  ( -0.000000000000000000, -0.000000000000000000, -1.000000000000000000 ) ) ;
#57 = ORIENTED_EDGE ( 'NONE', *, *, #281, .T. ) ;
#58 = ORIENTED_EDGE ( 'NONE', *, *, #370, .F. ) ;
#59 = CC_DESIGN_DATE_AND_TIME_ASSIGNMENT ( #224, #75, ( #170 ) ) ;
#60 = ADVANCED_FACE ( 'NONE', ( #94, #210 ), #364, .T. ) ;
#61 = AXIS2_PLACEMENT_3D ( 'NONE', #48, #24, #230 ) ;
#62 = PERSON ( 'NEURÈENÝ', 'NEURÈENÝ', 'NEURÈENÝ', ('NEURÈENÝ'), ('NEURÈENÝ'), ('NEURÈENÝ') ) ;
#63 = ORIENTED_EDGE ( 'NONE', *, *, #334, .T. ) ;
#64 = AXIS2_PLACEMENT_3D ( 'NONE', #296, #358, #93 ) ;
#65 = ORIENTED_EDGE ( 'NONE', *, *, #126, .T. ) ;
#66 = EDGE_LOOP ( 'NONE', ( #159, #90, #335, #35 ) ) ;
#67 = MANIFOLD_SOLID_BREP ( 'Odebrat vysunutím3', #307 ) ;
#68 = EDGE_LOOP ( 'NONE', ( #58, #96, #174, #323 ) ) ;
#69 = PERSON_AND_ORGANIZATION_ROLE ( 'creator' ) ;
#70 = CIRCLE ( 'NONE', #218, 4.250000000000000000 ) ;
#71 = LOCAL_TIME ( 16, 31, 1.000000000000000000, #275 ) ;
#72 = VERTEX_POINT ( 'NONE', #102 ) ;
#73 = DATE_TIME_ROLE ( 'classification_date' ) ;
#74 = DIRECTION ( 'NONE',  ( 1.000000000000000000, 0.000000000000000000, 0.000000000000000000 ) ) ;
#75 = DATE_TIME_ROLE ( 'creation_date' ) ;
#76 = DIRECTION ( 'NONE',  ( 0.000000000000000000, 0.000000000000000000, -1.000000000000000000 ) ) ;
#77 = DIRECTION ( 'NONE',  ( 1.000000000000000000, 0.000000000000000000, 0.000000000000000000 ) ) ;
#78 = AXIS2_PLACEMENT_3D ( 'NONE', #222, #47, #341 ) ;
#79 = CYLINDRICAL_SURFACE ( 'NONE', #342, 4.250000000000000000 ) ;
#80 = CARTESIAN_POINT ( 'NONE',  ( 10.00000000000000000, 1.224646799147353256E-15, 7.000000000000000000 ) ) ;
#81 = CARTESIAN_POINT ( 'NONE',  ( -4.250000000000000000, 0.000000000000000000, 0.000000000000000000 ) ) ;
#82 = AXIS2_PLACEMENT_3D ( 'NONE', #363, #333, #130 ) ;
#83 = ORIENTED_EDGE ( 'NONE', *, *, #126, .F. ) ;
#84 = EDGE_CURVE ( 'NONE', #291, #162, #116, .T. ) ;
#85 = ORIENTED_EDGE ( 'NONE', *, *, #104, .T. ) ;
#86 = ORIENTED_EDGE ( 'NONE', *, *, #104, .F. ) ;
#87 = EDGE_LOOP ( 'NONE', ( #292, #306, #183, #7 ) ) ;
#88 = CIRCLE ( 'NONE', #273, 6.700000000000001066 ) ;
#89 = DIRECTION ( 'NONE',  ( 0.000000000000000000, 0.000000000000000000, -1.000000000000000000 ) ) ;
#90 = ORIENTED_EDGE ( 'NONE', *, *, #271, .T. ) ;
#91 = CIRCLE ( 'NONE', #3, 6.000000000000000888 ) ;
#92 = EDGE_CURVE ( 'NONE', #4, #188, #112, .T. ) ;
#93 = DIRECTION ( 'NONE',  ( 1.000000000000000000, 0.000000000000000000, 0.000000000000000000 ) ) ;
#94 = FACE_BOUND ( 'NONE', #269, .T. ) ;
#95 = DIRECTION ( 'NONE',  ( -0.000000000000000000, -0.000000000000000000, -1.000000000000000000 ) ) ;
#96 = ORIENTED_EDGE ( 'NONE', *, *, #21, .T. ) ;
#97 = PERSON_AND_ORGANIZATION ( #62, #321 ) ;
#98 = CARTESIAN_POINT ( 'NONE',  ( 0.000000000000000000, 0.000000000000000000, 232.0000000000000000 ) ) ;
#99 = AXIS2_PLACEMENT_3D ( 'NONE', #238, #274, #128 ) ;
#100 = PERSON_AND_ORGANIZATION ( #62, #321 ) ;
#101 = APPROVAL ( #182, 'NEURÈENÝ' ) ;
#102 = CARTESIAN_POINT ( 'NONE',  ( 10.00000000000000000, 1.224646799147353256E-15, 7.000000000000000000 ) ) ;
#103 = APPROVAL_DATE_TIME ( #216, #160 ) ;
#104 = EDGE_CURVE ( 'NONE', #217, #14, #168, .T. ) ;
#105 = CYLINDRICAL_SURFACE ( 'NONE', #153, 4.250000000000000000 ) ;
#106 = EDGE_CURVE ( 'NONE', #326, #217, #91, .T. ) ;
#107 = PERSON_AND_ORGANIZATION_ROLE ( 'classification_officer' ) ;
#108 = CARTESIAN_POINT ( 'NONE',  ( 0.000000000000000000, 0.000000000000000000, 7.000000000000000000 ) ) ;
#109 = DIRECTION ( 'NONE',  ( 0.000000000000000000, 0.000000000000000000, 1.000000000000000000 ) ) ;
#110 = LOCAL_TIME ( 16, 31, 1.000000000000000000, #15 ) ;
#111 = EDGE_CURVE ( 'NONE', #265, #14, #263, .T. ) ;
#112 = LINE ( 'NONE', #284, #51 ) ;
#113 = DIRECTION ( 'NONE',  ( 0.000000000000000000, 0.000000000000000000, 1.000000000000000000 ) ) ;
#114 = DIRECTION ( 'NONE',  ( 1.000000000000000000, 0.000000000000000000, 0.000000000000000000 ) ) ;
#115 = CIRCLE ( 'NONE', #316, 0.7000000000000000666 ) ;
#116 = CIRCLE ( 'NONE', #129, 6.000000000000000888 ) ;
#117 = EDGE_LOOP ( 'NONE', ( #40, #207 ) ) ;
#118 = AXIS2_PLACEMENT_3D ( 'NONE', #317, #56, #55 ) ;
#119 = EDGE_LOOP ( 'NONE', ( #148, #357, #45, #261 ) ) ;
#120 = DIRECTION ( 'NONE',  ( 0.000000000000000000, 0.000000000000000000, -1.000000000000000000 ) ) ;
#121 = FACE_OUTER_BOUND ( 'NONE', #119, .T. ) ;
#122 = AXIS2_PLACEMENT_3D ( 'NONE', #377, #109, #375 ) ;
#123 = EDGE_CURVE ( 'NONE', #4, #72, #366, .T. ) ;
#124 = EDGE_LOOP ( 'NONE', ( #350, #347 ) ) ;
#125 = AXIS2_PLACEMENT_3D ( 'NONE', #8, #25, #145 ) ;
#126 = EDGE_CURVE ( 'NONE', #267, #151, #70, .T. ) ;
#127 = PERSON_AND_ORGANIZATION_ROLE ( 'design_owner' ) ;
#128 = DIRECTION ( 'NONE',  ( -1.000000000000000000, 0.000000000000000000, 0.000000000000000000 ) ) ;
#129 = AXIS2_PLACEMENT_3D ( 'NONE', #140, #278, #252 ) ;
#130 = DIRECTION ( 'NONE',  ( 1.000000000000000000, 0.000000000000000000, 0.000000000000000000 ) ) ;
#131 = CARTESIAN_POINT ( 'NONE',  ( 4.250000000000000000, 5.204748896376249713E-16, 232.0000000000000000 ) ) ;
#132 = SECURITY_CLASSIFICATION_LEVEL ( 'unclassified' ) ;
#133 = VECTOR ( 'NONE', #249, 1000.000000000000000 ) ;
#134 = DIRECTION ( 'NONE',  ( 1.000000000000000000, 0.000000000000000000, 0.000000000000000000 ) ) ;
#135 = COORDINATED_UNIVERSAL_TIME_OFFSET ( 1, 0, .AHEAD. ) ;
#136 = CARTESIAN_POINT ( 'NONE',  ( 0.000000000000000000, 0.000000000000000000, 232.0000000000000000 ) ) ;
#137 = DESIGN_CONTEXT ( 'detailed design', #223, 'design' ) ;
#138 = CARTESIAN_POINT ( 'NONE',  ( -6.000000000000000888, 0.000000000000000000, 7.700000000000012612 ) ) ;
#139 = PRODUCT_RELATED_PRODUCT_CATEGORY ( 'detail', '', ( #300 ) ) ;
#140 = CARTESIAN_POINT ( 'NONE',  ( 0.000000000000000000, 0.000000000000000000, 232.0000000000000000 ) ) ;
#141 = AXIS2_PLACEMENT_3D ( 'NONE', #360, #203, #6 ) ;
#142 = CARTESIAN_POINT ( 'NONE',  ( -6.000000000000000888, 0.000000000000000000, 232.0000000000000000 ) ) ;
#143 = CARTESIAN_POINT ( 'NONE',  ( 6.000000000000000888, 7.347880794884120722E-16, 7.700000000000012612 ) ) ;
#144 = ORIENTED_EDGE ( 'NONE', *, *, #232, .T. ) ;
#145 = DIRECTION ( 'NONE',  ( -1.000000000000000000, 0.000000000000000000, 0.000000000000000000 ) ) ;
#146 = AXIS2_PLACEMENT_3D ( 'NONE', #194, #248, #369 ) ;
#147 = CC_DESIGN_PERSON_AND_ORGANIZATION_ASSIGNMENT ( #97, #127, ( #300 ) ) ;
#148 = ORIENTED_EDGE ( 'NONE', *, *, #187, .F. ) ;
#149 = AXIS2_PLACEMENT_3D ( 'NONE', #98, #184, #301 ) ;
#150 = AXIS2_PLACEMENT_3D ( 'NONE', #313, #254, #77 ) ;
#151 = VERTEX_POINT ( 'NONE', #131 ) ;
#152 = ORIENTED_EDGE ( 'NONE', *, *, #264, .T. ) ;
#153 = AXIS2_PLACEMENT_3D ( 'NONE', #251, #195, #312 ) ;
#154 = DIRECTION ( 'NONE',  ( 1.000000000000000000, 0.000000000000000000, 0.000000000000000000 ) ) ;
#155 = FACE_OUTER_BOUND ( 'NONE', #234, .T. ) ;
#156 = ADVANCED_FACE ( 'NONE', ( #343, #310 ), #22, .T. ) ;
#157 = EDGE_LOOP ( 'NONE', ( #213, #181, #57, #367 ) ) ;
#158 = DATE_AND_TIME ( #39, #71 ) ;
#159 = ORIENTED_EDGE ( 'NONE', *, *, #192, .F. ) ;
#160 = APPROVAL ( #373, 'NEURÈENÝ' ) ;
#161 = SECURITY_CLASSIFICATION ( '', '', #132 ) ;
#162 = VERTEX_POINT ( 'NONE', #374 ) ;
#163 = LINE ( 'NONE', #241, #235 ) ;
#164 = EDGE_CURVE ( 'NONE', #217, #326, #259, .T. ) ;
#165 = CARTESIAN_POINT ( 'NONE',  ( 0.000000000000000000, 0.000000000000000000, 0.000000000000000000 ) ) ;
#166 = CARTESIAN_POINT ( 'NONE',  ( -10.00000000000000000, 0.000000000000000000, 0.000000000000000000 ) ) ;
#167 = FACE_BOUND ( 'NONE', #117, .T. ) ;
#168 = CIRCLE ( 'NONE', #61, 0.7000000000000000666 ) ;
#169 = DIRECTION ( 'NONE',  ( 0.000000000000000000, 0.000000000000000000, 1.000000000000000000 ) ) ;
#170 = PRODUCT_DEFINITION ( 'NEZNÁMÝ', '', #336, #137 ) ;
#171 = DIRECTION ( 'NONE',  ( 0.000000000000000000, 0.000000000000000000, 1.000000000000000000 ) ) ;
#172 = TOROIDAL_SURFACE ( 'NONE', #253, 6.700000000000001066, 0.6999999999999999556 ) ;
#173 = CARTESIAN_POINT ( 'NONE',  ( 6.700000000000001066, 0.000000000000000000, 7.700000000000012612 ) ) ;
#174 = ORIENTED_EDGE ( 'NONE', *, *, #106, .T. ) ;
#175 = PRODUCT_DEFINITION_SHAPE ( 'NONE', 'NONE',  #170 ) ;
#176 = VERTEX_POINT ( 'NONE', #345 ) ;
#177 = CC_DESIGN_PERSON_AND_ORGANIZATION_ASSIGNMENT ( #100, #186, ( #170 ) ) ;
#178 = DIRECTION ( 'NONE',  ( -0.000000000000000000, -0.000000000000000000, -1.000000000000000000 ) ) ;
#179 = CC_DESIGN_SECURITY_CLASSIFICATION ( #161, ( #336 ) ) ;
#180 = FACE_OUTER_BOUND ( 'NONE', #87, .T. ) ;
#181 = ORIENTED_EDGE ( 'NONE', *, *, #84, .F. ) ;
#182 = APPROVAL_STATUS ( 'not_yet_approved' ) ;
#183 = ORIENTED_EDGE ( 'NONE', *, *, #305, .T. ) ;
#184 = DIRECTION ( 'NONE',  ( 0.000000000000000000, 0.000000000000000000, 1.000000000000000000 ) ) ;
#185 = AXIS2_PLACEMENT_3D ( 'NONE', #199, #328, #266 ) ;
#186 = PERSON_AND_ORGANIZATION_ROLE ( 'creator' ) ;
#187 = EDGE_CURVE ( 'NONE', #72, #176, #190, .T. ) ;
#188 = VERTEX_POINT ( 'NONE', #166 ) ;
#189 = CALENDAR_DATE ( 2022, 8, 7 ) ;
#190 = LINE ( 'NONE', #80, #242 ) ;
#191 = FACE_OUTER_BOUND ( 'NONE', #297, .T. ) ;
#192 = EDGE_CURVE ( 'NONE', #151, #32, #23, .T. ) ;
#193 = VECTOR ( 'NONE', #95, 1000.000000000000000 ) ;
#194 = CARTESIAN_POINT ( 'NONE',  ( 0.000000000000000000, 0.000000000000000000, 7.000000000000000000 ) ) ;
#195 = DIRECTION ( 'NONE',  ( 0.000000000000000000, 0.000000000000000000, -1.000000000000000000 ) ) ;
#196 = CC_DESIGN_PERSON_AND_ORGANIZATION_ASSIGNMENT ( #41, #107, ( #161 ) ) ;
#197 = CARTESIAN_POINT ( 'NONE',  ( 0.000000000000000000, 0.000000000000000000, 7.700000000000012612 ) ) ;
#198 = ADVANCED_FACE ( 'NONE', ( #227 ), #79, .F. ) ;
#199 = CARTESIAN_POINT ( 'NONE',  ( 0.000000000000000000, 0.000000000000000000, 0.000000000000000000 ) ) ;
#200 = CC_DESIGN_APPROVAL ( #319, ( #170 ) ) ;
#201 = APPLICATION_CONTEXT ( 'configuration controlled 3d designs of mechanical parts and assemblies' ) ;
#202 = EDGE_CURVE ( 'NONE', #72, #4, #381, .T. ) ;
#203 = DIRECTION ( 'NONE',  ( -0.000000000000000000, -0.000000000000000000, -1.000000000000000000 ) ) ;
#204 = ORIENTED_EDGE ( 'NONE', *, *, #123, .T. ) ;
#205 = LOCAL_TIME ( 16, 31, 1.000000000000000000, #13 ) ;
#206 = EDGE_LOOP ( 'NONE', ( #352, #85, #320, #28 ) ) ;
#207 = ORIENTED_EDGE ( 'NONE', *, *, #232, .F. ) ;
#208 = CARTESIAN_POINT ( 'NONE',  ( -4.250000000000000000, 0.000000000000000000, 232.0000000000000000 ) ) ;
#209 = CARTESIAN_POINT ( 'NONE',  ( 0.000000000000000000, 0.000000000000000000, 7.700000000000012612 ) ) ;
#210 = FACE_OUTER_BOUND ( 'NONE', #9, .T. ) ;
#211 = CIRCLE ( 'NONE', #64, 6.000000000000000888 ) ;
#212 = ADVANCED_FACE ( 'NONE', ( #191 ), #105, .F. ) ;
#213 = ORIENTED_EDGE ( 'NONE', *, *, #21, .F. ) ;
#214 = DATE_AND_TIME ( #337, #376 ) ;
#215 = CARTESIAN_POINT ( 'NONE',  ( -10.00000000000000000, 0.000000000000000000, 7.000000000000000000 ) ) ;
#216 = DATE_AND_TIME ( #298, #110 ) ;
#217 = VERTEX_POINT ( 'NONE', #138 ) ;
#218 = AXIS2_PLACEMENT_3D ( 'NONE', #276, #52, #340 ) ;
#219 = CIRCLE ( 'NONE', #141, 4.250000000000000000 ) ;
#220 = PERSON_AND_ORGANIZATION_ROLE ( 'design_supplier' ) ;
#221 = ADVANCED_BREP_SHAPE_REPRESENTATION ( '961f', ( #67, #82 ), #361 ) ;
#222 = CARTESIAN_POINT ( 'NONE',  ( 0.000000000000000000, 0.000000000000000000, 0.000000000000000000 ) ) ;
#223 = APPLICATION_CONTEXT ( 'configuration controlled 3d designs of mechanical parts and assemblies' ) ;
#224 = DATE_AND_TIME ( #243, #311 ) ;
#225 = DIRECTION ( 'NONE',  ( 1.000000000000000000, 0.000000000000000000, 0.000000000000000000 ) ) ;
#226 = APPROVAL_STATUS ( 'not_yet_approved' ) ;
#227 = FACE_OUTER_BOUND ( 'NONE', #66, .T. ) ;
#228 = CIRCLE ( 'NONE', #78, 10.00000000000000000 ) ;
#229 = EDGE_CURVE ( 'NONE', #188, #176, #228, .T. ) ;
#230 = DIRECTION ( 'NONE',  ( -1.000000000000000000, 1.224646799147353454E-16, 0.000000000000000000 ) ) ;
#231 = DIRECTION ( 'NONE',  ( 0.000000000000000000, 0.000000000000000000, 1.000000000000000000 ) ) ;
#232 = EDGE_CURVE ( 'NONE', #32, #332, #11, .T. ) ;
#233 =( LENGTH_UNIT ( ) NAMED_UNIT ( * ) SI_UNIT ( .MILLI., .METRE. ) );
#234 = EDGE_LOOP ( 'NONE', ( #86, #295, #152, #293 ) ) ;
#235 = VECTOR ( 'NONE', #178, 1000.000000000000000 ) ;
#236 = ADVANCED_FACE ( 'NONE', ( #50 ), #172, .F. ) ;
#237 = ORIENTED_EDGE ( 'NONE', *, *, #271, .F. ) ;
#238 = CARTESIAN_POINT ( 'NONE',  ( 0.000000000000000000, 0.000000000000000000, 7.000000000000000000 ) ) ;
#239 = LINE ( 'NONE', #142, #193 ) ;
#240 = DIRECTION ( 'NONE',  ( 0.000000000000000000, 0.000000000000000000, 1.000000000000000000 ) ) ;
#241 = CARTESIAN_POINT ( 'NONE',  ( 6.000000000000000888, 7.347880794884120722E-16, 232.0000000000000000 ) ) ;
#242 = VECTOR ( 'NONE', #308, 1000.000000000000000 ) ;
#243 = CALENDAR_DATE ( 2022, 8, 7 ) ;
#244 = CYLINDRICAL_SURFACE ( 'NONE', #99, 10.00000000000000000 ) ;
#245 = APPROVAL_ROLE ( '' ) ;
#246 = CARTESIAN_POINT ( 'NONE',  ( 4.250000000000000000, 5.204748896376249713E-16, 0.000000000000000000 ) ) ;
#247 = MECHANICAL_CONTEXT ( 'NONE', #201, 'mechanical' ) ;
#248 = DIRECTION ( 'NONE',  ( 0.000000000000000000, 0.000000000000000000, 1.000000000000000000 ) ) ;
#249 = DIRECTION ( 'NONE',  ( 0.000000000000000000, 0.000000000000000000, -1.000000000000000000 ) ) ;
#250 = PERSON_AND_ORGANIZATION ( #62, #321 ) ;
#251 = CARTESIAN_POINT ( 'NONE',  ( 0.000000000000000000, 0.000000000000000000, 232.0000000000000000 ) ) ;
#252 = DIRECTION ( 'NONE',  ( 1.000000000000000000, 0.000000000000000000, 0.000000000000000000 ) ) ;
#253 = AXIS2_PLACEMENT_3D ( 'NONE', #282, #285, #256 ) ;
#254 = DIRECTION ( 'NONE',  ( -0.000000000000000000, -0.000000000000000000, -1.000000000000000000 ) ) ;
#255 = ADVANCED_FACE ( 'NONE', ( #167, #294 ), #260, .F. ) ;
#256 = DIRECTION ( 'NONE',  ( 1.000000000000000000, 0.000000000000000000, 0.000000000000000000 ) ) ;
#257 = TOROIDAL_SURFACE ( 'NONE', #283, 6.700000000000001066, 0.6999999999999999556 ) ;
#258 = CARTESIAN_POINT ( 'NONE',  ( -4.250000000000000000, 0.000000000000000000, 232.0000000000000000 ) ) ;
#259 = CIRCLE ( 'NONE', #49, 6.000000000000000888 ) ;
#260 = PLANE ( 'NONE',  #185 ) ;
#261 = ORIENTED_EDGE ( 'NONE', *, *, #229, .T. ) ;
#262 = CC_DESIGN_PERSON_AND_ORGANIZATION_ASSIGNMENT ( #44, #220, ( #336 ) ) ;
#263 = CIRCLE ( 'NONE', #150, 6.700000000000001066 ) ;
#264 = EDGE_CURVE ( 'NONE', #326, #265, #115, .T. ) ;
#265 = VERTEX_POINT ( 'NONE', #36 ) ;
#266 = DIRECTION ( 'NONE',  ( 1.000000000000000000, 0.000000000000000000, -0.000000000000000000 ) ) ;
#267 = VERTEX_POINT ( 'NONE', #258 ) ;
#268 = APPLICATION_PROTOCOL_DEFINITION ( 'international standard', 'config_control_design', 1994, #201 ) ;
#269 = EDGE_LOOP ( 'NONE', ( #83, #237 ) ) ;
#270 = COORDINATED_UNIVERSAL_TIME_OFFSET ( 1, 0, .AHEAD. ) ;
#271 = EDGE_CURVE ( 'NONE', #151, #267, #34, .T. ) ;
#272 = CARTESIAN_POINT ( 'NONE',  ( 0.000000000000000000, 0.000000000000000000, 232.0000000000000000 ) ) ;
#273 = AXIS2_PLACEMENT_3D ( 'NONE', #322, #379, #114 ) ;
#274 = DIRECTION ( 'NONE',  ( -0.000000000000000000, -0.000000000000000000, -1.000000000000000000 ) ) ;
#275 = COORDINATED_UNIVERSAL_TIME_OFFSET ( 1, 0, .AHEAD. ) ;
#276 = CARTESIAN_POINT ( 'NONE',  ( 0.000000000000000000, 0.000000000000000000, 232.0000000000000000 ) ) ;
#277 = APPROVAL_DATE_TIME ( #46, #101 ) ;
#278 = DIRECTION ( 'NONE',  ( 0.000000000000000000, 0.000000000000000000, 1.000000000000000000 ) ) ;
#279 = APPLICATION_PROTOCOL_DEFINITION ( 'international standard', 'config_control_design', 1994, #223 ) ;
#280 = CARTESIAN_POINT ( 'NONE',  ( 0.000000000000000000, 0.000000000000000000, 7.700000000000012612 ) ) ;
#281 = EDGE_CURVE ( 'NONE', #291, #217, #239, .T. ) ;
#282 = CARTESIAN_POINT ( 'NONE',  ( 0.000000000000000000, 0.000000000000000000, 7.700000000000012612 ) ) ;
#283 = AXIS2_PLACEMENT_3D ( 'NONE', #209, #240, #359 ) ;
#284 = CARTESIAN_POINT ( 'NONE',  ( -10.00000000000000000, 0.000000000000000000, 7.000000000000000000 ) ) ;
#285 = DIRECTION ( 'NONE',  ( 0.000000000000000000, 0.000000000000000000, 1.000000000000000000 ) ) ;
#286 = DIRECTION ( 'NONE',  ( 0.000000000000000000, -1.000000000000000000, 0.000000000000000000 ) ) ;
#287 = FACE_OUTER_BOUND ( 'NONE', #68, .T. ) ;
#288 = ORIENTED_EDGE ( 'NONE', *, *, #290, .F. ) ;
#289 = AXIS2_PLACEMENT_3D ( 'NONE', #378, #171, #27 ) ;
#290 = EDGE_CURVE ( 'NONE', #267, #332, #318, .T. ) ;
#291 = VERTEX_POINT ( 'NONE', #346 ) ;
#292 = ORIENTED_EDGE ( 'NONE', *, *, #202, .F. ) ;
#293 = ORIENTED_EDGE ( 'NONE', *, *, #334, .F. ) ;
#294 = FACE_OUTER_BOUND ( 'NONE', #124, .T. ) ;
#295 = ORIENTED_EDGE ( 'NONE', *, *, #106, .F. ) ;
#296 = CARTESIAN_POINT ( 'NONE',  ( 0.000000000000000000, 0.000000000000000000, 232.0000000000000000 ) ) ;
#297 = EDGE_LOOP ( 'NONE', ( #65, #2, #144, #288 ) ) ;
#298 = CALENDAR_DATE ( 2022, 8, 7 ) ;
#299 = DIRECTION ( 'NONE',  ( -1.000000000000000000, 0.000000000000000000, 0.000000000000000000 ) ) ;
#300 = PRODUCT ( '961f', '961f', '', ( #247 ) ) ;
#301 = DIRECTION ( 'NONE',  ( 1.000000000000000000, 0.000000000000000000, -0.000000000000000000 ) ) ;
#302 = CIRCLE ( 'NONE', #289, 10.00000000000000000 ) ;
#303 = CC_DESIGN_DATE_AND_TIME_ASSIGNMENT ( #214, #73, ( #161 ) ) ;
#304 = PERSON_AND_ORGANIZATION ( #62, #321 ) ;
#305 = EDGE_CURVE ( 'NONE', #176, #188, #302, .T. ) ;
#306 = ORIENTED_EDGE ( 'NONE', *, *, #187, .T. ) ;
#307 = CLOSED_SHELL ( 'NONE', ( #212, #236, #351, #327, #33, #156, #255, #26, #60, #37, #198 ) ) ;
#308 = DIRECTION ( 'NONE',  ( -0.000000000000000000, -0.000000000000000000, -1.000000000000000000 ) ) ;
#309 = APPROVAL_ROLE ( '' ) ;
#310 = FACE_OUTER_BOUND ( 'NONE', #353, .T. ) ;
#311 = LOCAL_TIME ( 16, 31, 1.000000000000000000, #270 ) ;
#312 = DIRECTION ( 'NONE',  ( -1.000000000000000000, 0.000000000000000000, 0.000000000000000000 ) ) ;
#313 = CARTESIAN_POINT ( 'NONE',  ( 0.000000000000000000, 0.000000000000000000, 7.000000000000000000 ) ) ;
#314 = DIRECTION ( 'NONE',  ( -1.000000000000000000, 0.000000000000000000, 0.000000000000000000 ) ) ;
#315 = AXIS2_PLACEMENT_3D ( 'NONE', #108, #231, #18 ) ;
#316 = AXIS2_PLACEMENT_3D ( 'NONE', #173, #286, #89 ) ;
#317 = CARTESIAN_POINT ( 'NONE',  ( 0.000000000000000000, 0.000000000000000000, 232.0000000000000000 ) ) ;
#318 = LINE ( 'NONE', #208, #354 ) ;
#319 = APPROVAL ( #226, 'NEURÈENÝ' ) ;
#320 = ORIENTED_EDGE ( 'NONE', *, *, #111, .F. ) ;
#321 = ORGANIZATION ( 'NEURÈENÝ', 'NEURÈENÝ', '' ) ;
#322 = CARTESIAN_POINT ( 'NONE',  ( 0.000000000000000000, 0.000000000000000000, 7.000000000000000000 ) ) ;
#323 = ORIENTED_EDGE ( 'NONE', *, *, #281, .F. ) ;
#324 = CYLINDRICAL_SURFACE ( 'NONE', #118, 6.000000000000000888 ) ;
#325 = AXIS2_PLACEMENT_3D ( 'NONE', #165, #372, #134 ) ;
#326 = VERTEX_POINT ( 'NONE', #143 ) ;
#327 = ADVANCED_FACE ( 'NONE', ( #180 ), #29, .T. ) ;
#328 = DIRECTION ( 'NONE',  ( 0.000000000000000000, 0.000000000000000000, 1.000000000000000000 ) ) ;
#329 = DIRECTION ( 'NONE',  ( -0.000000000000000000, -0.000000000000000000, -1.000000000000000000 ) ) ;
#330 = AXIS2_PLACEMENT_3D ( 'NONE', #272, #329, #299 ) ;
#331 = CC_DESIGN_PERSON_AND_ORGANIZATION_ASSIGNMENT ( #10, #69, ( #336 ) ) ;
#332 = VERTEX_POINT ( 'NONE', #81 ) ;
#333 = DIRECTION ( 'NONE',  ( 0.000000000000000000, 0.000000000000000000, 1.000000000000000000 ) ) ;
#334 = EDGE_CURVE ( 'NONE', #14, #265, #88, .T. ) ;
#335 = ORIENTED_EDGE ( 'NONE', *, *, #290, .T. ) ;
#336 = PRODUCT_DEFINITION_FORMATION_WITH_SPECIFIED_SOURCE ( 'LIBOVOLNÝ', '', #300, .NOT_KNOWN. ) ;
#337 = CALENDAR_DATE ( 2022, 8, 7 ) ;
#338 = DIRECTION ( 'NONE',  ( 0.000000000000000000, 0.000000000000000000, 1.000000000000000000 ) ) ;
#339 = EDGE_CURVE ( 'NONE', #332, #32, #219, .T. ) ;
#340 = DIRECTION ( 'NONE',  ( 1.000000000000000000, 0.000000000000000000, 0.000000000000000000 ) ) ;
#341 = DIRECTION ( 'NONE',  ( 1.000000000000000000, 0.000000000000000000, 0.000000000000000000 ) ) ;
#342 = AXIS2_PLACEMENT_3D ( 'NONE', #136, #76, #314 ) ;
#343 = FACE_BOUND ( 'NONE', #355, .T. ) ;
#344 = UNCERTAINTY_MEASURE_WITH_UNIT (LENGTH_MEASURE( 1.000000000000000082E-05 ), #233, 'distance_accuracy_value', 'NONE');
#345 = CARTESIAN_POINT ( 'NONE',  ( 10.00000000000000000, 1.224646799147353256E-15, 0.000000000000000000 ) ) ;
#346 = CARTESIAN_POINT ( 'NONE',  ( -6.000000000000000888, 0.000000000000000000, 232.0000000000000000 ) ) ;
#347 = ORIENTED_EDGE ( 'NONE', *, *, #305, .F. ) ;
#348 = APPROVAL_PERSON_ORGANIZATION ( #20, #319, #245 ) ;
#349 =( NAMED_UNIT ( * ) PLANE_ANGLE_UNIT ( ) SI_UNIT ( $, .RADIAN. ) );
#350 = ORIENTED_EDGE ( 'NONE', *, *, #229, .F. ) ;
#351 = ADVANCED_FACE ( 'NONE', ( #287 ), #324, .T. ) ;
#352 = ORIENTED_EDGE ( 'NONE', *, *, #164, .F. ) ;
#353 = EDGE_LOOP ( 'NONE', ( #204, #12 ) ) ;
#354 = VECTOR ( 'NONE', #120, 1000.000000000000000 ) ;
#355 = EDGE_LOOP ( 'NONE', ( #380, #63 ) ) ;
#356 =( NAMED_UNIT ( * ) SI_UNIT ( $, .STERADIAN. ) SOLID_ANGLE_UNIT ( ) );
#357 = ORIENTED_EDGE ( 'NONE', *, *, #123, .F. ) ;
#358 = DIRECTION ( 'NONE',  ( 0.000000000000000000, 0.000000000000000000, 1.000000000000000000 ) ) ;
#359 = DIRECTION ( 'NONE',  ( 1.000000000000000000, 0.000000000000000000, 0.000000000000000000 ) ) ;
#360 = CARTESIAN_POINT ( 'NONE',  ( 0.000000000000000000, 0.000000000000000000, 0.000000000000000000 ) ) ;
#361 =( GEOMETRIC_REPRESENTATION_CONTEXT ( 3 ) GLOBAL_UNCERTAINTY_ASSIGNED_CONTEXT ( ( #344 ) ) GLOBAL_UNIT_ASSIGNED_CONTEXT ( ( #233, #349, #356 ) ) REPRESENTATION_CONTEXT ( 'NONE', 'WORKASPACE' ) );
#362 = CYLINDRICAL_SURFACE ( 'NONE', #330, 6.000000000000000888 ) ;
#363 = CARTESIAN_POINT ( 'NONE',  ( 0.000000000000000000, 0.000000000000000000, 0.000000000000000000 ) ) ;
#364 = PLANE ( 'NONE',  #149 ) ;
#365 = APPROVAL_DATE_TIME ( #158, #319 ) ;
#366 = CIRCLE ( 'NONE', #122, 10.00000000000000000 ) ;
#367 = ORIENTED_EDGE ( 'NONE', *, *, #164, .T. ) ;
#368 = APPROVAL_ROLE ( '' ) ;
#369 = DIRECTION ( 'NONE',  ( 1.000000000000000000, 0.000000000000000000, 0.000000000000000000 ) ) ;
#370 = EDGE_CURVE ( 'NONE', #162, #291, #211, .T. ) ;
#371 = APPROVAL_PERSON_ORGANIZATION ( #250, #101, #309 ) ;
#372 = DIRECTION ( 'NONE',  ( -0.000000000000000000, -0.000000000000000000, -1.000000000000000000 ) ) ;
#373 = APPROVAL_STATUS ( 'not_yet_approved' ) ;
#374 = CARTESIAN_POINT ( 'NONE',  ( 6.000000000000000888, 7.347880794884120722E-16, 232.0000000000000000 ) ) ;
#375 = DIRECTION ( 'NONE',  ( 1.000000000000000000, 0.000000000000000000, 0.000000000000000000 ) ) ;
#376 = LOCAL_TIME ( 16, 31, 1.000000000000000000, #135 ) ;
#377 = CARTESIAN_POINT ( 'NONE',  ( 0.000000000000000000, 0.000000000000000000, 7.000000000000000000 ) ) ;
#378 = CARTESIAN_POINT ( 'NONE',  ( 0.000000000000000000, 0.000000000000000000, 0.000000000000000000 ) ) ;
#379 = DIRECTION ( 'NONE',  ( -0.000000000000000000, -0.000000000000000000, -1.000000000000000000 ) ) ;
#380 = ORIENTED_EDGE ( 'NONE', *, *, #111, .T. ) ;
#381 = CIRCLE ( 'NONE', #146, 10.00000000000000000 ) ;
ENDSEC;
END-ISO-10303-21;
