ISO-10303-21;
HEADER;
FILE_DESCRIPTION (( 'STEP AP203' ),
    '1' );
FILE_NAME ('0978.STEP',
    '2022-07-08T14:55:12',
    ( '' ),
    ( '' ),
    'SwSTEP 2.0',
    'SolidWorks 2019',
    '' );
FILE_SCHEMA (( 'CONFIG_CONTROL_DESIGN' ));
ENDSEC;

DATA;
#1 = VERTEX_POINT ( 'NONE', #138 ) ;
#2 = FACE_OUTER_BOUND ( 'NONE', #357, .T. ) ;
#3 = EDGE_CURVE ( 'NONE', #155, #148, #129, .T. ) ;
#4 = VERTEX_POINT ( 'NONE', #234 ) ;
#5 = DIRECTION ( 'NONE',  ( -0.000000000000000000, -0.000000000000000000, -1.000000000000000000 ) ) ;
#6 = CC_DESIGN_SECURITY_CLASSIFICATION ( #365, ( #269 ) ) ;
#7 = CC_DESIGN_PERSON_AND_ORGANIZATION_ASSIGNMENT ( #211, #100, ( #269 ) ) ;
#8 = FACE_OUTER_BOUND ( 'NONE', #381, .T. ) ;
#9 = CIRCLE ( 'NONE', #91, 3.000000000000000444 ) ;
#10 = ADVANCED_FACE ( 'NONE', ( #260 ), #199, .T. ) ;
#11 = ORIENTED_EDGE ( 'NONE', *, *, #227, .T. ) ;
#12 = CC_DESIGN_PERSON_AND_ORGANIZATION_ASSIGNMENT ( #56, #152, ( #365 ) ) ;
#13 = AXIS2_PLACEMENT_3D ( 'NONE', #342, #110, #363 ) ;
#14 = AXIS2_PLACEMENT_3D ( 'NONE', #236, #23, #46 ) ;
#15 = CARTESIAN_POINT ( 'NONE',  ( 0.000000000000000000, 0.000000000000000000, 7.000000000000000000 ) ) ;
#16 = VERTEX_POINT ( 'NONE', #113 ) ;
#17 = ORIENTED_EDGE ( 'NONE', *, *, #277, .F. ) ;
#18 = ADVANCED_FACE ( 'NONE', ( #146 ), #315, .F. ) ;
#19 = DIRECTION ( 'NONE',  ( 1.000000000000000000, 0.000000000000000000, 0.000000000000000000 ) ) ;
#20 = DIRECTION ( 'NONE',  ( -0.000000000000000000, -0.000000000000000000, -1.000000000000000000 ) ) ;
#21 = CIRCLE ( 'NONE', #53, 10.00000000000000000 ) ;
#22 = FACE_OUTER_BOUND ( 'NONE', #73, .T. ) ;
#23 = DIRECTION ( 'NONE',  ( 0.000000000000000000, 0.000000000000000000, 1.000000000000000000 ) ) ;
#24 = DATE_TIME_ROLE ( 'creation_date' ) ;
#25 = ADVANCED_FACE ( 'NONE', ( #207, #268 ), #246, .T. ) ;
#26 = DATE_AND_TIME ( #117, #371 ) ;
#27 = CC_DESIGN_APPROVAL ( #223, ( #269 ) ) ;
#28 = ORIENTED_EDGE ( 'NONE', *, *, #221, .F. ) ;
#29 = APPROVAL_STATUS ( 'not_yet_approved' ) ;
#30 = ORIENTED_EDGE ( 'NONE', *, *, #266, .F. ) ;
#31 = MECHANICAL_CONTEXT ( 'NONE', #244, 'mechanical' ) ;
#32 = DIRECTION ( 'NONE',  ( 0.000000000000000000, 0.000000000000000000, 1.000000000000000000 ) ) ;
#33 = ORIENTED_EDGE ( 'NONE', *, *, #217, .F. ) ;
#34 = EDGE_LOOP ( 'NONE', ( #178, #63 ) ) ;
#35 = DIRECTION ( 'NONE',  ( -0.000000000000000000, -0.000000000000000000, -1.000000000000000000 ) ) ;
#36 = CARTESIAN_POINT ( 'NONE',  ( 6.000000000000000888, 7.347880794884120722E-16, 82.00000000000000000 ) ) ;
#37 = ADVANCED_BREP_SHAPE_REPRESENTATION ( '0978', ( #372, #166 ), #76 ) ;
#38 = CARTESIAN_POINT ( 'NONE',  ( -6.000000000000000888, 0.000000000000000000, 82.00000000000000000 ) ) ;
#39 = AXIS2_PLACEMENT_3D ( 'NONE', #328, #222, #108 ) ;
#40 = ORIENTED_EDGE ( 'NONE', *, *, #67, .F. ) ;
#41 = DIRECTION ( 'NONE',  ( -1.000000000000000000, 0.000000000000000000, 0.000000000000000000 ) ) ;
#42 = CIRCLE ( 'NONE', #184, 6.000000000000000888 ) ;
#43 = VERTEX_POINT ( 'NONE', #346 ) ;
#44 = CARTESIAN_POINT ( 'NONE',  ( 0.000000000000000000, 0.000000000000000000, 82.00000000000000000 ) ) ;
#45 = ORIENTED_EDGE ( 'NONE', *, *, #203, .F. ) ;
#46 = DIRECTION ( 'NONE',  ( 1.000000000000000000, 0.000000000000000000, 0.000000000000000000 ) ) ;
#47 = AXIS2_PLACEMENT_3D ( 'NONE', #259, #229, #257 ) ;
#48 = UNCERTAINTY_MEASURE_WITH_UNIT (LENGTH_MEASURE( 1.000000000000000082E-05 ), #87, 'distance_accuracy_value', 'NONE');
#49 = CLOSED_SHELL ( 'NONE', ( #18, #286, #10, #107, #209, #194, #239, #200, #25, #86, #238 ) ) ;
#50 = EDGE_CURVE ( 'NONE', #275, #4, #42, .T. ) ;
#51 = CARTESIAN_POINT ( 'NONE',  ( -10.00000000000000000, 0.000000000000000000, 7.000000000000000000 ) ) ;
#52 = CARTESIAN_POINT ( 'NONE',  ( 0.000000000000000000, 0.000000000000000000, 0.000000000000000000 ) ) ;
#53 = AXIS2_PLACEMENT_3D ( 'NONE', #52, #140, #169 ) ;
#54 = EDGE_CURVE ( 'NONE', #354, #164, #9, .T. ) ;
#55 = CARTESIAN_POINT ( 'NONE',  ( 0.000000000000000000, 0.000000000000000000, 0.000000000000000000 ) ) ;
#56 = PERSON_AND_ORGANIZATION ( #183, #332 ) ;
#57 = PRODUCT ( '0978', '0978', '', ( #31 ) ) ;
#58 = CARTESIAN_POINT ( 'NONE',  ( 0.000000000000000000, 0.000000000000000000, 0.000000000000000000 ) ) ;
#59 = PERSON_AND_ORGANIZATION_ROLE ( 'creator' ) ;
#60 = CIRCLE ( 'NONE', #161, 6.500000000000000888 ) ;
#61 = AXIS2_PLACEMENT_3D ( 'NONE', #368, #81, #88 ) ;
#62 =( NAMED_UNIT ( * ) SI_UNIT ( $, .STERADIAN. ) SOLID_ANGLE_UNIT ( ) );
#63 = ORIENTED_EDGE ( 'NONE', *, *, #50, .T. ) ;
#64 = CC_DESIGN_PERSON_AND_ORGANIZATION_ASSIGNMENT ( #118, #345, ( #57 ) ) ;
#65 = COORDINATED_UNIVERSAL_TIME_OFFSET ( 1, 0, .AHEAD. ) ;
#66 = VERTEX_POINT ( 'NONE', #373 ) ;
#67 = EDGE_CURVE ( 'NONE', #164, #230, #154, .T. ) ;
#68 = DIRECTION ( 'NONE',  ( 1.000000000000000000, 0.000000000000000000, 0.000000000000000000 ) ) ;
#69 = DIRECTION ( 'NONE',  ( 1.000000000000000000, 0.000000000000000000, 0.000000000000000000 ) ) ;
#70 = APPROVAL ( #96, 'NEURÈENÝ' ) ;
#71 = ORIENTED_EDGE ( 'NONE', *, *, #3, .T. ) ;
#72 = DIRECTION ( 'NONE',  ( 0.000000000000000000, 0.000000000000000000, 1.000000000000000000 ) ) ;
#73 = EDGE_LOOP ( 'NONE', ( #196, #298 ) ) ;
#74 = CARTESIAN_POINT ( 'NONE',  ( -6.000000000000000888, 0.000000000000000000, 7.499999999999992895 ) ) ;
#75 = EDGE_CURVE ( 'NONE', #148, #1, #176, .T. ) ;
#76 =( GEOMETRIC_REPRESENTATION_CONTEXT ( 3 ) GLOBAL_UNCERTAINTY_ASSIGNED_CONTEXT ( ( #48 ) ) GLOBAL_UNIT_ASSIGNED_CONTEXT ( ( #87, #375, #62 ) ) REPRESENTATION_CONTEXT ( 'NONE', 'WORKASPACE' ) );
#77 = EDGE_LOOP ( 'NONE', ( #202, #279, #324, #167 ) ) ;
#78 = EDGE_LOOP ( 'NONE', ( #325, #190, #123, #171 ) ) ;
#79 = PRODUCT_DEFINITION ( 'NEZNÁMÝ', '', #269, #204 ) ;
#80 = DIRECTION ( 'NONE',  ( -0.000000000000000000, -0.000000000000000000, -1.000000000000000000 ) ) ;
#81 = DIRECTION ( 'NONE',  ( 0.000000000000000000, 0.000000000000000000, -1.000000000000000000 ) ) ;
#82 = DIRECTION ( 'NONE',  ( 1.000000000000000000, 0.000000000000000000, 0.000000000000000000 ) ) ;
#83 = CC_DESIGN_APPROVAL ( #303, ( #365 ) ) ;
#84 = DIRECTION ( 'NONE',  ( 0.000000000000000000, 0.000000000000000000, 1.000000000000000000 ) ) ;
#85 = DIRECTION ( 'NONE',  ( 0.000000000000000000, 0.000000000000000000, 1.000000000000000000 ) ) ;
#86 = ADVANCED_FACE ( 'NONE', ( #379 ), #157, .F. ) ;
#87 =( LENGTH_UNIT ( ) NAMED_UNIT ( * ) SI_UNIT ( .MILLI., .METRE. ) );
#88 = DIRECTION ( 'NONE',  ( -1.000000000000000000, 0.000000000000000000, 0.000000000000000000 ) ) ;
#89 = CIRCLE ( 'NONE', #13, 10.00000000000000000 ) ;
#90 = APPROVAL_DATE_TIME ( #240, #303 ) ;
#91 = AXIS2_PLACEMENT_3D ( 'NONE', #93, #317, #215 ) ;
#92 = PERSON_AND_ORGANIZATION ( #183, #332 ) ;
#93 = CARTESIAN_POINT ( 'NONE',  ( 0.000000000000000000, 0.000000000000000000, 82.00000000000000000 ) ) ;
#94 = ORIENTED_EDGE ( 'NONE', *, *, #225, .F. ) ;
#95 = EDGE_CURVE ( 'NONE', #329, #224, #248, .T. ) ;
#96 = APPROVAL_STATUS ( 'not_yet_approved' ) ;
#97 = ORIENTED_EDGE ( 'NONE', *, *, #264, .F. ) ;
#98 = AXIS2_PLACEMENT_3D ( 'NONE', #250, #333, #195 ) ;
#99 = VECTOR ( 'NONE', #162, 1000.000000000000000 ) ;
#100 = PERSON_AND_ORGANIZATION_ROLE ( 'creator' ) ;
#101 = AXIS2_PLACEMENT_3D ( 'NONE', #212, #72, #356 ) ;
#102 = COORDINATED_UNIVERSAL_TIME_OFFSET ( 1, 0, .AHEAD. ) ;
#103 = DIRECTION ( 'NONE',  ( 1.000000000000000000, 0.000000000000000000, 0.000000000000000000 ) ) ;
#104 = DIRECTION ( 'NONE',  ( -0.000000000000000000, -0.000000000000000000, -1.000000000000000000 ) ) ;
#105 = FACE_OUTER_BOUND ( 'NONE', #235, .T. ) ;
#106 = LINE ( 'NONE', #38, #262 ) ;
#107 = ADVANCED_FACE ( 'NONE', ( #105 ), #226, .T. ) ;
#108 = DIRECTION ( 'NONE',  ( -1.000000000000000000, 1.224646799147351482E-16, 0.000000000000000000 ) ) ;
#109 = ORIENTED_EDGE ( 'NONE', *, *, #54, .F. ) ;
#110 = DIRECTION ( 'NONE',  ( 0.000000000000000000, 0.000000000000000000, 1.000000000000000000 ) ) ;
#111 = CARTESIAN_POINT ( 'NONE',  ( 0.000000000000000000, 0.000000000000000000, 7.499999999999992895 ) ) ;
#112 = CARTESIAN_POINT ( 'NONE',  ( 6.000000000000000888, 7.347880794884120722E-16, 82.00000000000000000 ) ) ;
#113 = CARTESIAN_POINT ( 'NONE',  ( -10.00000000000000000, 0.000000000000000000, 7.000000000000000000 ) ) ;
#114 = CARTESIAN_POINT ( 'NONE',  ( -3.000000000000000444, 0.000000000000000000, 0.000000000000000000 ) ) ;
#115 = APPROVAL_ROLE ( '' ) ;
#116 = AXIS2_PLACEMENT_3D ( 'NONE', #232, #198, #265 ) ;
#117 = CALENDAR_DATE ( 2022, 8, 7 ) ;
#118 = PERSON_AND_ORGANIZATION ( #183, #332 ) ;
#119 = EDGE_LOOP ( 'NONE', ( #45, #109 ) ) ;
#120 = DIRECTION ( 'NONE',  ( 0.000000000000000000, 0.000000000000000000, 1.000000000000000000 ) ) ;
#121 = AXIS2_PLACEMENT_3D ( 'NONE', #111, #310, #82 ) ;
#122 = DATE_TIME_ROLE ( 'classification_date' ) ;
#123 = ORIENTED_EDGE ( 'NONE', *, *, #75, .T. ) ;
#124 = DIRECTION ( 'NONE',  ( -1.000000000000000000, 0.000000000000000000, 0.000000000000000000 ) ) ;
#125 = EDGE_LOOP ( 'NONE', ( #28, #331 ) ) ;
#126 = CYLINDRICAL_SURFACE ( 'NONE', #378, 10.00000000000000000 ) ;
#127 = DIRECTION ( 'NONE',  ( -0.000000000000000000, -0.000000000000000000, -1.000000000000000000 ) ) ;
#128 = CIRCLE ( 'NONE', #307, 6.500000000000000888 ) ;
#129 = CIRCLE ( 'NONE', #14, 6.000000000000000888 ) ;
#130 = FACE_OUTER_BOUND ( 'NONE', #282, .T. ) ;
#131 = DIRECTION ( 'NONE',  ( -0.000000000000000000, -0.000000000000000000, -1.000000000000000000 ) ) ;
#132 = ORIENTED_EDGE ( 'NONE', *, *, #277, .T. ) ;
#133 = PLANE ( 'NONE',  #47 ) ;
#134 = ORIENTED_EDGE ( 'NONE', *, *, #163, .F. ) ;
#135 = EDGE_CURVE ( 'NONE', #352, #230, #289, .T. ) ;
#136 = DIRECTION ( 'NONE',  ( 1.000000000000000000, 0.000000000000000000, 0.000000000000000000 ) ) ;
#137 = DIRECTION ( 'NONE',  ( -0.000000000000000000, -0.000000000000000000, -1.000000000000000000 ) ) ;
#138 = CARTESIAN_POINT ( 'NONE',  ( 6.500000000000000888, 0.000000000000000000, 6.999999999999995559 ) ) ;
#139 = ORIENTED_EDGE ( 'NONE', *, *, #158, .F. ) ;
#140 = DIRECTION ( 'NONE',  ( 0.000000000000000000, 0.000000000000000000, 1.000000000000000000 ) ) ;
#141 = CIRCLE ( 'NONE', #348, 3.000000000000000444 ) ;
#142 = ORIENTED_EDGE ( 'NONE', *, *, #3, .F. ) ;
#143 = APPROVAL_PERSON_ORGANIZATION ( #92, #223, #347 ) ;
#144 = FACE_OUTER_BOUND ( 'NONE', #301, .T. ) ;
#145 = DATE_AND_TIME ( #377, #326 ) ;
#146 = FACE_OUTER_BOUND ( 'NONE', #272, .T. ) ;
#147 = PERSON_AND_ORGANIZATION_ROLE ( 'design_supplier' ) ;
#148 = VERTEX_POINT ( 'NONE', #188 ) ;
#149 = CC_DESIGN_DATE_AND_TIME_ASSIGNMENT ( #145, #122, ( #365 ) ) ;
#150 = CALENDAR_DATE ( 2022, 8, 7 ) ;
#151 = ORIENTED_EDGE ( 'NONE', *, *, #50, .F. ) ;
#152 = PERSON_AND_ORGANIZATION_ROLE ( 'classification_officer' ) ;
#153 = EDGE_CURVE ( 'NONE', #155, #66, #296, .T. ) ;
#154 = LINE ( 'NONE', #294, #334 ) ;
#155 = VERTEX_POINT ( 'NONE', #74 ) ;
#156 = ORIENTED_EDGE ( 'NONE', *, *, #355, .T. ) ;
#157 = TOROIDAL_SURFACE ( 'NONE', #101, 6.500000000000000888, 0.5000000000000000000 ) ;
#158 = EDGE_CURVE ( 'NONE', #4, #155, #106, .T. ) ;
#159 = AXIS2_PLACEMENT_3D ( 'NONE', #254, #5, #69 ) ;
#160 = CARTESIAN_POINT ( 'NONE',  ( -3.000000000000000444, 0.000000000000000000, 82.00000000000000000 ) ) ;
#161 = AXIS2_PLACEMENT_3D ( 'NONE', #336, #258, #165 ) ;
#162 = DIRECTION ( 'NONE',  ( 0.000000000000000000, 0.000000000000000000, -1.000000000000000000 ) ) ;
#163 = EDGE_CURVE ( 'NONE', #275, #148, #192, .T. ) ;
#164 = VERTEX_POINT ( 'NONE', #160 ) ;
#165 = DIRECTION ( 'NONE',  ( 1.000000000000000000, 0.000000000000000000, 0.000000000000000000 ) ) ;
#166 = AXIS2_PLACEMENT_3D ( 'NONE', #58, #318, #370 ) ;
#167 = ORIENTED_EDGE ( 'NONE', *, *, #221, .T. ) ;
#168 = PRODUCT_RELATED_PRODUCT_CATEGORY ( 'detail', '', ( #57 ) ) ;
#169 = DIRECTION ( 'NONE',  ( 1.000000000000000000, 0.000000000000000000, 0.000000000000000000 ) ) ;
#170 = DIRECTION ( 'NONE',  ( -0.000000000000000000, -0.000000000000000000, -1.000000000000000000 ) ) ;
#171 = ORIENTED_EDGE ( 'NONE', *, *, #335, .F. ) ;
#172 = EDGE_CURVE ( 'NONE', #354, #352, #308, .T. ) ;
#173 = FACE_BOUND ( 'NONE', #125, .T. ) ;
#174 = AXIS2_PLACEMENT_3D ( 'NONE', #44, #283, #124 ) ;
#175 = CARTESIAN_POINT ( 'NONE',  ( 0.000000000000000000, 0.000000000000000000, 82.00000000000000000 ) ) ;
#176 = CIRCLE ( 'NONE', #276, 0.5000000000000004441 ) ;
#177 = SECURITY_CLASSIFICATION_LEVEL ( 'unclassified' ) ;
#178 = ORIENTED_EDGE ( 'NONE', *, *, #217, .T. ) ;
#179 = PERSON_AND_ORGANIZATION ( #183, #332 ) ;
#180 = LOCAL_TIME ( 16, 55, 12.00000000000000000, #102 ) ;
#181 = DATE_AND_TIME ( #299, #322 ) ;
#182 = ORIENTED_EDGE ( 'NONE', *, *, #266, .T. ) ;
#183 = PERSON ( 'NEURÈENÝ', 'NEURÈENÝ', 'NEURÈENÝ', ('NEURÈENÝ'), ('NEURÈENÝ'), ('NEURÈENÝ') ) ;
#184 = AXIS2_PLACEMENT_3D ( 'NONE', #274, #32, #103 ) ;
#185 = ORIENTED_EDGE ( 'NONE', *, *, #95, .T. ) ;
#186 = CARTESIAN_POINT ( 'NONE',  ( 0.000000000000000000, 0.000000000000000000, 82.00000000000000000 ) ) ;
#187 = CIRCLE ( 'NONE', #241, 10.00000000000000000 ) ;
#188 = CARTESIAN_POINT ( 'NONE',  ( 6.000000000000000888, 7.347880794884120722E-16, 7.499999999999992895 ) ) ;
#189 = ORIENTED_EDGE ( 'NONE', *, *, #214, .T. ) ;
#190 = ORIENTED_EDGE ( 'NONE', *, *, #227, .F. ) ;
#191 = CC_DESIGN_APPROVAL ( #70, ( #79 ) ) ;
#192 = LINE ( 'NONE', #36, #261 ) ;
#193 = ORIENTED_EDGE ( 'NONE', *, *, #172, .T. ) ;
#194 = ADVANCED_FACE ( 'NONE', ( #327, #8 ), #228, .T. ) ;
#195 = DIRECTION ( 'NONE',  ( 1.000000000000000000, 0.000000000000000000, -0.000000000000000000 ) ) ;
#196 = ORIENTED_EDGE ( 'NONE', *, *, #355, .F. ) ;
#197 = CARTESIAN_POINT ( 'NONE',  ( 10.00000000000000000, 1.224646799147353256E-15, 0.000000000000000000 ) ) ;
#198 = DIRECTION ( 'NONE',  ( 0.000000000000000000, 0.000000000000000000, 1.000000000000000000 ) ) ;
#199 = CYLINDRICAL_SURFACE ( 'NONE', #341, 6.000000000000000888 ) ;
#200 = ADVANCED_FACE ( 'NONE', ( #130 ), #309, .T. ) ;
#201 = DIRECTION ( 'NONE',  ( 1.000000000000000000, 0.000000000000000000, 0.000000000000000000 ) ) ;
#202 = ORIENTED_EDGE ( 'NONE', *, *, #172, .F. ) ;
#203 = EDGE_CURVE ( 'NONE', #164, #354, #141, .T. ) ;
#204 = DESIGN_CONTEXT ( 'detailed design', #330, 'design' ) ;
#205 = CARTESIAN_POINT ( 'NONE',  ( 0.000000000000000000, 0.000000000000000000, 0.000000000000000000 ) ) ;
#206 = DIRECTION ( 'NONE',  ( 1.000000000000000000, 0.000000000000000000, 0.000000000000000000 ) ) ;
#207 = FACE_BOUND ( 'NONE', #119, .T. ) ;
#208 = CIRCLE ( 'NONE', #233, 6.000000000000000888 ) ;
#209 = ADVANCED_FACE ( 'NONE', ( #2 ), #126, .T. ) ;
#210 = SHAPE_DEFINITION_REPRESENTATION ( #374, #37 ) ;
#211 = PERSON_AND_ORGANIZATION ( #183, #332 ) ;
#212 = CARTESIAN_POINT ( 'NONE',  ( 0.000000000000000000, 0.000000000000000000, 7.499999999999992895 ) ) ;
#213 = APPROVAL_DATE_TIME ( #26, #70 ) ;
#214 = EDGE_CURVE ( 'NONE', #224, #43, #21, .T. ) ;
#215 = DIRECTION ( 'NONE',  ( 1.000000000000000000, 0.000000000000000000, 0.000000000000000000 ) ) ;
#216 = AXIS2_PLACEMENT_3D ( 'NONE', #186, #120, #349 ) ;
#217 = EDGE_CURVE ( 'NONE', #4, #275, #208, .T. ) ;
#218 = CALENDAR_DATE ( 2022, 8, 7 ) ;
#219 = ORIENTED_EDGE ( 'NONE', *, *, #135, .T. ) ;
#220 = DIRECTION ( 'NONE',  ( 0.000000000000000000, 0.000000000000000000, 1.000000000000000000 ) ) ;
#221 = EDGE_CURVE ( 'NONE', #230, #352, #256, .T. ) ;
#222 = DIRECTION ( 'NONE',  ( 1.224646799147353207E-16, 1.000000000000000000, -0.000000000000000000 ) ) ;
#223 = APPROVAL ( #29, 'NEURÈENÝ' ) ;
#224 = VERTEX_POINT ( 'NONE', #197 ) ;
#225 = EDGE_CURVE ( 'NONE', #16, #329, #187, .T. ) ;
#226 = CYLINDRICAL_SURFACE ( 'NONE', #358, 10.00000000000000000 ) ;
#227 = EDGE_CURVE ( 'NONE', #148, #155, #302, .T. ) ;
#228 = PLANE ( 'NONE',  #98 ) ;
#229 = DIRECTION ( 'NONE',  ( 0.000000000000000000, 0.000000000000000000, 1.000000000000000000 ) ) ;
#230 = VERTEX_POINT ( 'NONE', #114 ) ;
#231 = LINE ( 'NONE', #51, #297 ) ;
#232 = CARTESIAN_POINT ( 'NONE',  ( 0.000000000000000000, 0.000000000000000000, 7.499999999999992895 ) ) ;
#233 = AXIS2_PLACEMENT_3D ( 'NONE', #175, #338, #19 ) ;
#234 = CARTESIAN_POINT ( 'NONE',  ( -6.000000000000000888, 0.000000000000000000, 82.00000000000000000 ) ) ;
#235 = EDGE_LOOP ( 'NONE', ( #30, #185, #189, #97 ) ) ;
#236 = CARTESIAN_POINT ( 'NONE',  ( 0.000000000000000000, 0.000000000000000000, 7.499999999999992895 ) ) ;
#237 = CARTESIAN_POINT ( 'NONE',  ( 3.000000000000000444, 3.673940397442060361E-16, 82.00000000000000000 ) ) ;
#238 = ADVANCED_FACE ( 'NONE', ( #290 ), #314, .F. ) ;
#239 = ADVANCED_FACE ( 'NONE', ( #173, #22 ), #133, .F. ) ;
#240 = DATE_AND_TIME ( #218, #180 ) ;
#241 = AXIS2_PLACEMENT_3D ( 'NONE', #15, #85, #206 ) ;
#242 = COORDINATED_UNIVERSAL_TIME_OFFSET ( 1, 0, .AHEAD. ) ;
#243 = APPLICATION_PROTOCOL_DEFINITION ( 'international standard', 'config_control_design', 1994, #244 ) ;
#244 = APPLICATION_CONTEXT ( 'configuration controlled 3d designs of mechanical parts and assemblies' ) ;
#245 = DATE_AND_TIME ( #150, #359 ) ;
#246 = PLANE ( 'NONE',  #216 ) ;
#247 = APPROVAL_STATUS ( 'not_yet_approved' ) ;
#248 = LINE ( 'NONE', #304, #362 ) ;
#249 = CC_DESIGN_DATE_AND_TIME_ASSIGNMENT ( #181, #24, ( #79 ) ) ;
#250 = CARTESIAN_POINT ( 'NONE',  ( 0.000000000000000000, 0.000000000000000000, 7.000000000000000000 ) ) ;
#251 = CARTESIAN_POINT ( 'NONE',  ( 0.000000000000000000, 0.000000000000000000, 7.000000000000000000 ) ) ;
#252 = AXIS2_PLACEMENT_3D ( 'NONE', #205, #84, #201 ) ;
#253 = ORIENTED_EDGE ( 'NONE', *, *, #95, .F. ) ;
#254 = CARTESIAN_POINT ( 'NONE',  ( 0.000000000000000000, 0.000000000000000000, 0.000000000000000000 ) ) ;
#255 = ORIENTED_EDGE ( 'NONE', *, *, #163, .T. ) ;
#256 = CIRCLE ( 'NONE', #285, 3.000000000000000444 ) ;
#257 = DIRECTION ( 'NONE',  ( 1.000000000000000000, 0.000000000000000000, -0.000000000000000000 ) ) ;
#258 = DIRECTION ( 'NONE',  ( -0.000000000000000000, -0.000000000000000000, -1.000000000000000000 ) ) ;
#259 = CARTESIAN_POINT ( 'NONE',  ( 0.000000000000000000, 0.000000000000000000, 0.000000000000000000 ) ) ;
#260 = FACE_OUTER_BOUND ( 'NONE', #350, .T. ) ;
#261 = VECTOR ( 'NONE', #35, 1000.000000000000000 ) ;
#262 = VECTOR ( 'NONE', #127, 1000.000000000000000 ) ;
#263 = ORIENTED_EDGE ( 'NONE', *, *, #335, .T. ) ;
#264 = EDGE_CURVE ( 'NONE', #16, #43, #231, .T. ) ;
#265 = DIRECTION ( 'NONE',  ( 1.000000000000000000, 0.000000000000000000, 0.000000000000000000 ) ) ;
#266 = EDGE_CURVE ( 'NONE', #329, #16, #89, .T. ) ;
#267 = PERSON_AND_ORGANIZATION ( #183, #332 ) ;
#268 = FACE_OUTER_BOUND ( 'NONE', #34, .T. ) ;
#269 = PRODUCT_DEFINITION_FORMATION_WITH_SPECIFIED_SOURCE ( 'LIBOVOLNÝ', '', #57, .NOT_KNOWN. ) ;
#270 = ORIENTED_EDGE ( 'NONE', *, *, #153, .T. ) ;
#271 = ORIENTED_EDGE ( 'NONE', *, *, #203, .T. ) ;
#272 = EDGE_LOOP ( 'NONE', ( #271, #193, #219, #40 ) ) ;
#273 = COORDINATED_UNIVERSAL_TIME_OFFSET ( 1, 0, .AHEAD. ) ;
#274 = CARTESIAN_POINT ( 'NONE',  ( 0.000000000000000000, 0.000000000000000000, 82.00000000000000000 ) ) ;
#275 = VERTEX_POINT ( 'NONE', #112 ) ;
#276 = AXIS2_PLACEMENT_3D ( 'NONE', #295, #300, #376 ) ;
#277 = EDGE_CURVE ( 'NONE', #1, #66, #60, .T. ) ;
#278 = CARTESIAN_POINT ( 'NONE',  ( 3.000000000000000444, 3.673940397442060361E-16, 82.00000000000000000 ) ) ;
#279 = ORIENTED_EDGE ( 'NONE', *, *, #54, .T. ) ;
#280 = CC_DESIGN_PERSON_AND_ORGANIZATION_ASSIGNMENT ( #179, #59, ( #79 ) ) ;
#281 = CARTESIAN_POINT ( 'NONE',  ( 0.000000000000000000, 0.000000000000000000, 7.000000000000000000 ) ) ;
#282 = EDGE_LOOP ( 'NONE', ( #134, #33, #337, #71 ) ) ;
#283 = DIRECTION ( 'NONE',  ( -0.000000000000000000, -0.000000000000000000, -1.000000000000000000 ) ) ;
#284 = ORIENTED_EDGE ( 'NONE', *, *, #75, .F. ) ;
#285 = AXIS2_PLACEMENT_3D ( 'NONE', #55, #137, #288 ) ;
#286 = ADVANCED_FACE ( 'NONE', ( #144 ), #380, .F. ) ;
#287 = CARTESIAN_POINT ( 'NONE',  ( 0.000000000000000000, 0.000000000000000000, 7.000000000000000000 ) ) ;
#288 = DIRECTION ( 'NONE',  ( 1.000000000000000000, 0.000000000000000000, 0.000000000000000000 ) ) ;
#289 = CIRCLE ( 'NONE', #159, 3.000000000000000444 ) ;
#290 = FACE_OUTER_BOUND ( 'NONE', #77, .T. ) ;
#291 = CARTESIAN_POINT ( 'NONE',  ( 0.000000000000000000, 0.000000000000000000, 82.00000000000000000 ) ) ;
#292 = APPLICATION_PROTOCOL_DEFINITION ( 'international standard', 'config_control_design', 1994, #330 ) ;
#293 = CC_DESIGN_PERSON_AND_ORGANIZATION_ASSIGNMENT ( #323, #147, ( #269 ) ) ;
#294 = CARTESIAN_POINT ( 'NONE',  ( -3.000000000000000444, 0.000000000000000000, 82.00000000000000000 ) ) ;
#295 = CARTESIAN_POINT ( 'NONE',  ( 6.500000000000000888, 0.000000000000000000, 7.499999999999992895 ) ) ;
#296 = CIRCLE ( 'NONE', #39, 0.5000000000000004441 ) ;
#297 = VECTOR ( 'NONE', #360, 1000.000000000000000 ) ;
#298 = ORIENTED_EDGE ( 'NONE', *, *, #214, .F. ) ;
#299 = CALENDAR_DATE ( 2022, 8, 7 ) ;
#300 = DIRECTION ( 'NONE',  ( 0.000000000000000000, -1.000000000000000000, 0.000000000000000000 ) ) ;
#301 = EDGE_LOOP ( 'NONE', ( #142, #270, #17, #284 ) ) ;
#302 = CIRCLE ( 'NONE', #121, 6.000000000000000888 ) ;
#303 = APPROVAL ( #247, 'NEURÈENÝ' ) ;
#304 = CARTESIAN_POINT ( 'NONE',  ( 10.00000000000000000, 1.224646799147353256E-15, 7.000000000000000000 ) ) ;
#305 = EDGE_LOOP ( 'NONE', ( #132, #263 ) ) ;
#306 = CIRCLE ( 'NONE', #252, 10.00000000000000000 ) ;
#307 = AXIS2_PLACEMENT_3D ( 'NONE', #287, #170, #136 ) ;
#308 = LINE ( 'NONE', #278, #99 ) ;
#309 = CYLINDRICAL_SURFACE ( 'NONE', #174, 6.000000000000000888 ) ;
#310 = DIRECTION ( 'NONE',  ( 0.000000000000000000, 0.000000000000000000, 1.000000000000000000 ) ) ;
#311 = CARTESIAN_POINT ( 'NONE',  ( 10.00000000000000000, 1.224646799147353256E-15, 7.000000000000000000 ) ) ;
#312 = DIRECTION ( 'NONE',  ( -1.000000000000000000, 0.000000000000000000, 0.000000000000000000 ) ) ;
#313 = DIRECTION ( 'NONE',  ( -1.000000000000000000, 0.000000000000000000, 0.000000000000000000 ) ) ;
#314 = CYLINDRICAL_SURFACE ( 'NONE', #344, 3.000000000000000444 ) ;
#315 = CYLINDRICAL_SURFACE ( 'NONE', #61, 3.000000000000000444 ) ;
#316 = APPROVAL_PERSON_ORGANIZATION ( #267, #303, #351 ) ;
#317 = DIRECTION ( 'NONE',  ( 0.000000000000000000, 0.000000000000000000, 1.000000000000000000 ) ) ;
#318 = DIRECTION ( 'NONE',  ( 0.000000000000000000, 0.000000000000000000, 1.000000000000000000 ) ) ;
#319 = ORIENTED_EDGE ( 'NONE', *, *, #264, .T. ) ;
#320 = PERSON_AND_ORGANIZATION ( #183, #332 ) ;
#321 = DIRECTION ( 'NONE',  ( 0.000000000000000000, 0.000000000000000000, -1.000000000000000000 ) ) ;
#322 = LOCAL_TIME ( 16, 55, 12.00000000000000000, #242 ) ;
#323 = PERSON_AND_ORGANIZATION ( #183, #332 ) ;
#324 = ORIENTED_EDGE ( 'NONE', *, *, #67, .T. ) ;
#325 = ORIENTED_EDGE ( 'NONE', *, *, #153, .F. ) ;
#326 = LOCAL_TIME ( 16, 55, 12.00000000000000000, #273 ) ;
#327 = FACE_BOUND ( 'NONE', #305, .T. ) ;
#328 = CARTESIAN_POINT ( 'NONE',  ( -6.500000000000000888, 7.960204194457796463E-16, 7.499999999999992895 ) ) ;
#329 = VERTEX_POINT ( 'NONE', #311 ) ;
#330 = APPLICATION_CONTEXT ( 'configuration controlled 3d designs of mechanical parts and assemblies' ) ;
#331 = ORIENTED_EDGE ( 'NONE', *, *, #135, .F. ) ;
#332 = ORGANIZATION ( 'NEURÈENÝ', 'NEURÈENÝ', '' ) ;
#333 = DIRECTION ( 'NONE',  ( 0.000000000000000000, 0.000000000000000000, 1.000000000000000000 ) ) ;
#334 = VECTOR ( 'NONE', #321, 1000.000000000000000 ) ;
#335 = EDGE_CURVE ( 'NONE', #66, #1, #128, .T. ) ;
#336 = CARTESIAN_POINT ( 'NONE',  ( 0.000000000000000000, 0.000000000000000000, 7.000000000000000000 ) ) ;
#337 = ORIENTED_EDGE ( 'NONE', *, *, #158, .T. ) ;
#338 = DIRECTION ( 'NONE',  ( 0.000000000000000000, 0.000000000000000000, 1.000000000000000000 ) ) ;
#339 = APPROVAL_PERSON_ORGANIZATION ( #320, #70, #115 ) ;
#340 = CARTESIAN_POINT ( 'NONE',  ( 3.000000000000000444, 3.673940397442060361E-16, 0.000000000000000000 ) ) ;
#341 = AXIS2_PLACEMENT_3D ( 'NONE', #364, #20, #312 ) ;
#342 = CARTESIAN_POINT ( 'NONE',  ( 0.000000000000000000, 0.000000000000000000, 7.000000000000000000 ) ) ;
#343 = APPROVAL_DATE_TIME ( #245, #223 ) ;
#344 = AXIS2_PLACEMENT_3D ( 'NONE', #291, #366, #313 ) ;
#345 = PERSON_AND_ORGANIZATION_ROLE ( 'design_owner' ) ;
#346 = CARTESIAN_POINT ( 'NONE',  ( -10.00000000000000000, 0.000000000000000000, 0.000000000000000000 ) ) ;
#347 = APPROVAL_ROLE ( '' ) ;
#348 = AXIS2_PLACEMENT_3D ( 'NONE', #353, #220, #68 ) ;
#349 = DIRECTION ( 'NONE',  ( 1.000000000000000000, 0.000000000000000000, -0.000000000000000000 ) ) ;
#350 = EDGE_LOOP ( 'NONE', ( #151, #255, #11, #139 ) ) ;
#351 = APPROVAL_ROLE ( '' ) ;
#352 = VERTEX_POINT ( 'NONE', #340 ) ;
#353 = CARTESIAN_POINT ( 'NONE',  ( 0.000000000000000000, 0.000000000000000000, 82.00000000000000000 ) ) ;
#354 = VERTEX_POINT ( 'NONE', #237 ) ;
#355 = EDGE_CURVE ( 'NONE', #43, #224, #306, .T. ) ;
#356 = DIRECTION ( 'NONE',  ( 1.000000000000000000, 0.000000000000000000, 0.000000000000000000 ) ) ;
#357 = EDGE_LOOP ( 'NONE', ( #253, #94, #319, #156 ) ) ;
#358 = AXIS2_PLACEMENT_3D ( 'NONE', #281, #104, #41 ) ;
#359 = LOCAL_TIME ( 16, 55, 12.00000000000000000, #369 ) ;
#360 = DIRECTION ( 'NONE',  ( -0.000000000000000000, -0.000000000000000000, -1.000000000000000000 ) ) ;
#361 = ORIENTED_EDGE ( 'NONE', *, *, #225, .T. ) ;
#362 = VECTOR ( 'NONE', #131, 1000.000000000000000 ) ;
#363 = DIRECTION ( 'NONE',  ( 1.000000000000000000, 0.000000000000000000, 0.000000000000000000 ) ) ;
#364 = CARTESIAN_POINT ( 'NONE',  ( 0.000000000000000000, 0.000000000000000000, 82.00000000000000000 ) ) ;
#365 = SECURITY_CLASSIFICATION ( '', '', #177 ) ;
#366 = DIRECTION ( 'NONE',  ( 0.000000000000000000, 0.000000000000000000, -1.000000000000000000 ) ) ;
#367 = DIRECTION ( 'NONE',  ( -1.000000000000000000, 0.000000000000000000, 0.000000000000000000 ) ) ;
#368 = CARTESIAN_POINT ( 'NONE',  ( 0.000000000000000000, 0.000000000000000000, 82.00000000000000000 ) ) ;
#369 = COORDINATED_UNIVERSAL_TIME_OFFSET ( 1, 0, .AHEAD. ) ;
#370 = DIRECTION ( 'NONE',  ( 1.000000000000000000, 0.000000000000000000, 0.000000000000000000 ) ) ;
#371 = LOCAL_TIME ( 16, 55, 12.00000000000000000, #65 ) ;
#372 = MANIFOLD_SOLID_BREP ( 'Odebrat vysunutím3', #49 ) ;
#373 = CARTESIAN_POINT ( 'NONE',  ( -6.500000000000000888, 7.960204194457796463E-16, 6.999999999999995559 ) ) ;
#374 = PRODUCT_DEFINITION_SHAPE ( 'NONE', 'NONE',  #79 ) ;
#375 =( NAMED_UNIT ( * ) PLANE_ANGLE_UNIT ( ) SI_UNIT ( $, .RADIAN. ) );
#376 = DIRECTION ( 'NONE',  ( 0.000000000000000000, 0.000000000000000000, -1.000000000000000000 ) ) ;
#377 = CALENDAR_DATE ( 2022, 8, 7 ) ;
#378 = AXIS2_PLACEMENT_3D ( 'NONE', #251, #80, #367 ) ;
#379 = FACE_OUTER_BOUND ( 'NONE', #78, .T. ) ;
#380 = TOROIDAL_SURFACE ( 'NONE', #116, 6.500000000000000888, 0.5000000000000000000 ) ;
#381 = EDGE_LOOP ( 'NONE', ( #361, #182 ) ) ;
ENDSEC;
END-ISO-10303-21;
