ISO-10303-21;
HEADER;
FILE_DESCRIPTION (( 'STEP AP203' ),
    '1' );
FILE_NAME ('1a10.STEP',
    '2022-07-08T15:10:52',
    ( '' ),
    ( '' ),
    'SwSTEP 2.0',
    'SolidWorks 2019',
    '' );
FILE_SCHEMA (( 'CONFIG_CONTROL_DESIGN' ));
ENDSEC;

DATA;
#1 = PERSON_AND_ORGANIZATION_ROLE ( 'creator' ) ;
#2 = CC_DESIGN_PERSON_AND_ORGANIZATION_ASSIGNMENT ( #28, #324, ( #193 ) ) ;
#3 = UNCERTAINTY_MEASURE_WITH_UNIT (LENGTH_MEASURE( 1.000000000000000082E-05 ), #290, 'distance_accuracy_value', 'NONE');
#4 = ORIENTED_EDGE ( 'NONE', *, *, #118, .T. ) ;
#5 = DATE_AND_TIME ( #148, #350 ) ;
#6 = VERTEX_POINT ( 'NONE', #120 ) ;
#7 = PERSON_AND_ORGANIZATION ( #153, #166 ) ;
#8 = VERTEX_POINT ( 'NONE', #298 ) ;
#9 = ORIENTED_EDGE ( 'NONE', *, *, #308, .T. ) ;
#10 = CC_DESIGN_DATE_AND_TIME_ASSIGNMENT ( #89, #208, ( #363 ) ) ;
#11 = CYLINDRICAL_SURFACE ( 'NONE', #345, 10.00000000000000000 ) ;
#12 = CYLINDRICAL_SURFACE ( 'NONE', #339, 2.500000000000000000 ) ;
#13 = CARTESIAN_POINT ( 'NONE',  ( 0.000000000000000000, 0.000000000000000000, 7.000000000000000000 ) ) ;
#14 = CC_DESIGN_PERSON_AND_ORGANIZATION_ASSIGNMENT ( #235, #59, ( #217 ) ) ;
#15 = FACE_OUTER_BOUND ( 'NONE', #355, .T. ) ;
#16 = CLOSED_SHELL ( 'NONE', ( #79, #48, #201, #146, #72, #137, #297, #84, #288, #262, #231 ) ) ;
#17 = LINE ( 'NONE', #165, #189 ) ;
#18 = CARTESIAN_POINT ( 'NONE',  ( -6.500000000000000888, 7.960204194457796463E-16, 7.499999999999951150 ) ) ;
#19 = DIRECTION ( 'NONE',  ( 0.000000000000000000, 0.000000000000000000, 1.000000000000000000 ) ) ;
#20 = AXIS2_PLACEMENT_3D ( 'NONE', #328, #68, #216 ) ;
#21 = CIRCLE ( 'NONE', #198, 6.000000000000000888 ) ;
#22 = LOCAL_TIME ( 17, 10, 52.00000000000000000, #150 ) ;
#23 = CARTESIAN_POINT ( 'NONE',  ( 0.000000000000000000, 0.000000000000000000, 7.499999999999951150 ) ) ;
#24 = DIRECTION ( 'NONE',  ( 0.000000000000000000, 0.000000000000000000, -1.000000000000000000 ) ) ;
#25 = ORIENTED_EDGE ( 'NONE', *, *, #52, .F. ) ;
#26 = AXIS2_PLACEMENT_3D ( 'NONE', #13, #132, #367 ) ;
#27 = CC_DESIGN_APPROVAL ( #151, ( #217 ) ) ;
#28 = PERSON_AND_ORGANIZATION ( #153, #166 ) ;
#29 = EDGE_LOOP ( 'NONE', ( #36, #241, #244, #112 ) ) ;
#30 = APPROVAL ( #332, 'NEURÈENÝ' ) ;
#31 = DATE_AND_TIME ( #56, #378 ) ;
#32 = ORIENTED_EDGE ( 'NONE', *, *, #275, .F. ) ;
#33 = COORDINATED_UNIVERSAL_TIME_OFFSET ( 1, 0, .AHEAD. ) ;
#34 = ORIENTED_EDGE ( 'NONE', *, *, #341, .T. ) ;
#35 = CARTESIAN_POINT ( 'NONE',  ( 0.000000000000000000, 0.000000000000000000, 7.499999999999951150 ) ) ;
#36 = ORIENTED_EDGE ( 'NONE', *, *, #255, .F. ) ;
#37 = EDGE_CURVE ( 'NONE', #381, #6, #344, .T. ) ;
#38 = PLANE ( 'NONE',  #258 ) ;
#39 = DIRECTION ( 'NONE',  ( -0.000000000000000000, -0.000000000000000000, -1.000000000000000000 ) ) ;
#40 = CIRCLE ( 'NONE', #313, 6.500000000000000888 ) ;
#41 = EDGE_CURVE ( 'NONE', #303, #243, #182, .T. ) ;
#42 = CARTESIAN_POINT ( 'NONE',  ( -2.500000000000000000, 0.000000000000000000, 757.0000000000000000 ) ) ;
#43 = FACE_OUTER_BOUND ( 'NONE', #142, .T. ) ;
#44 = DIRECTION ( 'NONE',  ( -0.000000000000000000, -0.000000000000000000, -1.000000000000000000 ) ) ;
#45 = LOCAL_TIME ( 17, 10, 52.00000000000000000, #330 ) ;
#46 =( GEOMETRIC_REPRESENTATION_CONTEXT ( 3 ) GLOBAL_UNCERTAINTY_ASSIGNED_CONTEXT ( ( #3 ) ) GLOBAL_UNIT_ASSIGNED_CONTEXT ( ( #290, #374, #53 ) ) REPRESENTATION_CONTEXT ( 'NONE', 'WORKASPACE' ) );
#47 = CARTESIAN_POINT ( 'NONE',  ( -6.000000000000000888, 0.000000000000000000, 757.0000000000000000 ) ) ;
#48 = ADVANCED_FACE ( 'NONE', ( #97 ), #287, .F. ) ;
#49 = CARTESIAN_POINT ( 'NONE',  ( 2.500000000000000000, 3.061616997868383141E-16, 0.000000000000000000 ) ) ;
#50 = CARTESIAN_POINT ( 'NONE',  ( -6.500000000000000888, 7.960204194457796463E-16, 6.999999999999975131 ) ) ;
#51 = SECURITY_CLASSIFICATION ( '', '', #124 ) ;
#52 = EDGE_CURVE ( 'NONE', #152, #8, #60, .T. ) ;
#53 =( NAMED_UNIT ( * ) SI_UNIT ( $, .STERADIAN. ) SOLID_ANGLE_UNIT ( ) );
#54 = CARTESIAN_POINT ( 'NONE',  ( 0.000000000000000000, 0.000000000000000000, 757.0000000000000000 ) ) ;
#55 = ORIENTED_EDGE ( 'NONE', *, *, #169, .T. ) ;
#56 = CALENDAR_DATE ( 2022, 8, 7 ) ;
#57 = VERTEX_POINT ( 'NONE', #273 ) ;
#58 = EDGE_CURVE ( 'NONE', #180, #149, #232, .T. ) ;
#59 = PERSON_AND_ORGANIZATION_ROLE ( 'design_supplier' ) ;
#60 = LINE ( 'NONE', #127, #123 ) ;
#61 = APPROVAL_ROLE ( '' ) ;
#62 = EDGE_LOOP ( 'NONE', ( #95, #331 ) ) ;
#63 = PERSON_AND_ORGANIZATION ( #153, #166 ) ;
#64 = DIRECTION ( 'NONE',  ( 0.000000000000000000, 0.000000000000000000, 1.000000000000000000 ) ) ;
#65 = CIRCLE ( 'NONE', #115, 2.500000000000000000 ) ;
#66 = APPLICATION_PROTOCOL_DEFINITION ( 'international standard', 'config_control_design', 1994, #155 ) ;
#67 = EDGE_CURVE ( 'NONE', #8, #243, #65, .T. ) ;
#68 = DIRECTION ( 'NONE',  ( 0.000000000000000000, 0.000000000000000000, 1.000000000000000000 ) ) ;
#69 = AXIS2_PLACEMENT_3D ( 'NONE', #138, #171, #85 ) ;
#70 = DIRECTION ( 'NONE',  ( 1.000000000000000000, 0.000000000000000000, 0.000000000000000000 ) ) ;
#71 = DIRECTION ( 'NONE',  ( -0.000000000000000000, -0.000000000000000000, -1.000000000000000000 ) ) ;
#72 = ADVANCED_FACE ( 'NONE', ( #15 ), #365, .T. ) ;
#73 = AXIS2_PLACEMENT_3D ( 'NONE', #360, #64, #334 ) ;
#74 = FACE_BOUND ( 'NONE', #351, .T. ) ;
#75 = AXIS2_PLACEMENT_3D ( 'NONE', #223, #342, #196 ) ;
#76 = DIRECTION ( 'NONE',  ( -1.000000000000000000, 0.000000000000000000, 0.000000000000000000 ) ) ;
#77 = DIRECTION ( 'NONE',  ( -0.000000000000000000, -0.000000000000000000, -1.000000000000000000 ) ) ;
#78 = DIRECTION ( 'NONE',  ( 1.000000000000000000, 0.000000000000000000, 0.000000000000000000 ) ) ;
#79 = ADVANCED_FACE ( 'NONE', ( #43 ), #12, .F. ) ;
#80 = DIRECTION ( 'NONE',  ( -0.000000000000000000, -0.000000000000000000, -1.000000000000000000 ) ) ;
#81 = ORIENTED_EDGE ( 'NONE', *, *, #220, .T. ) ;
#82 = CARTESIAN_POINT ( 'NONE',  ( 0.000000000000000000, 0.000000000000000000, 0.000000000000000000 ) ) ;
#83 = ORIENTED_EDGE ( 'NONE', *, *, #302, .T. ) ;
#84 = ADVANCED_FACE ( 'NONE', ( #218 ), #284, .T. ) ;
#85 = DIRECTION ( 'NONE',  ( 1.000000000000000000, 0.000000000000000000, 0.000000000000000000 ) ) ;
#86 = VERTEX_POINT ( 'NONE', #312 ) ;
#87 = DIRECTION ( 'NONE',  ( -1.000000000000000000, 0.000000000000000000, 0.000000000000000000 ) ) ;
#88 = ORIENTED_EDGE ( 'NONE', *, *, #341, .F. ) ;
#89 = DATE_AND_TIME ( #305, #22 ) ;
#90 = EDGE_CURVE ( 'NONE', #128, #381, #17, .T. ) ;
#91 = ORIENTED_EDGE ( 'NONE', *, *, #111, .F. ) ;
#92 = AXIS2_PLACEMENT_3D ( 'NONE', #133, #77, #309 ) ;
#93 = AXIS2_PLACEMENT_3D ( 'NONE', #349, #202, #78 ) ;
#94 = PERSON_AND_ORGANIZATION ( #153, #166 ) ;
#95 = ORIENTED_EDGE ( 'NONE', *, *, #238, .F. ) ;
#96 = ORIENTED_EDGE ( 'NONE', *, *, #368, .F. ) ;
#97 = FACE_OUTER_BOUND ( 'NONE', #113, .T. ) ;
#98 = APPLICATION_CONTEXT ( 'configuration controlled 3d designs of mechanical parts and assemblies' ) ;
#99 = ORIENTED_EDGE ( 'NONE', *, *, #255, .T. ) ;
#100 = DIRECTION ( 'NONE',  ( 0.000000000000000000, 0.000000000000000000, 1.000000000000000000 ) ) ;
#101 = EDGE_CURVE ( 'NONE', #86, #57, #144, .T. ) ;
#102 = CARTESIAN_POINT ( 'NONE',  ( 0.000000000000000000, 0.000000000000000000, 7.000000000000000000 ) ) ;
#103 = DIRECTION ( 'NONE',  ( -0.000000000000000000, -0.000000000000000000, -1.000000000000000000 ) ) ;
#104 = APPROVAL_PERSON_ORGANIZATION ( #326, #151, #354 ) ;
#105 = DIRECTION ( 'NONE',  ( -0.000000000000000000, -0.000000000000000000, -1.000000000000000000 ) ) ;
#106 = DIRECTION ( 'NONE',  ( -1.000000000000000000, 0.000000000000000000, 0.000000000000000000 ) ) ;
#107 = FACE_BOUND ( 'NONE', #319, .T. ) ;
#108 = ORIENTED_EDGE ( 'NONE', *, *, #41, .F. ) ;
#109 = AXIS2_PLACEMENT_3D ( 'NONE', #282, #105, #106 ) ;
#110 = TOROIDAL_SURFACE ( 'NONE', #329, 6.500000000000000888, 0.5000000000000000000 ) ;
#111 = EDGE_CURVE ( 'NONE', #236, #379, #40, .T. ) ;
#112 = ORIENTED_EDGE ( 'NONE', *, *, #302, .F. ) ;
#113 = EDGE_LOOP ( 'NONE', ( #321, #269, #333, #206 ) ) ;
#114 = FACE_OUTER_BOUND ( 'NONE', #300, .T. ) ;
#115 = AXIS2_PLACEMENT_3D ( 'NONE', #188, #71, #311 ) ;
#116 = CIRCLE ( 'NONE', #373, 0.5000000000000004441 ) ;
#117 = VERTEX_POINT ( 'NONE', #248 ) ;
#118 = EDGE_CURVE ( 'NONE', #379, #236, #129, .T. ) ;
#119 = DIRECTION ( 'NONE',  ( 1.000000000000000000, 0.000000000000000000, 0.000000000000000000 ) ) ;
#120 = CARTESIAN_POINT ( 'NONE',  ( -10.00000000000000000, 0.000000000000000000, 0.000000000000000000 ) ) ;
#121 = PERSON_AND_ORGANIZATION ( #153, #166 ) ;
#122 = ORIENTED_EDGE ( 'NONE', *, *, #90, .F. ) ;
#123 = VECTOR ( 'NONE', #176, 1000.000000000000000 ) ;
#124 = SECURITY_CLASSIFICATION_LEVEL ( 'unclassified' ) ;
#125 = ORIENTED_EDGE ( 'NONE', *, *, #275, .T. ) ;
#126 = EDGE_CURVE ( 'NONE', #57, #149, #222, .T. ) ;
#127 = CARTESIAN_POINT ( 'NONE',  ( -2.500000000000000000, 0.000000000000000000, 757.0000000000000000 ) ) ;
#128 = VERTEX_POINT ( 'NONE', #370 ) ;
#129 = CIRCLE ( 'NONE', #145, 6.500000000000000888 ) ;
#130 = FACE_OUTER_BOUND ( 'NONE', #207, .T. ) ;
#131 = DIRECTION ( 'NONE',  ( -1.000000000000000000, 0.000000000000000000, 0.000000000000000000 ) ) ;
#132 = DIRECTION ( 'NONE',  ( 0.000000000000000000, 0.000000000000000000, 1.000000000000000000 ) ) ;
#133 = CARTESIAN_POINT ( 'NONE',  ( 0.000000000000000000, 0.000000000000000000, 7.000000000000000000 ) ) ;
#134 = APPROVAL ( #211, 'NEURÈENÝ' ) ;
#135 = DIRECTION ( 'NONE',  ( -0.000000000000000000, -0.000000000000000000, -1.000000000000000000 ) ) ;
#136 = DIRECTION ( 'NONE',  ( 0.000000000000000000, 0.000000000000000000, 1.000000000000000000 ) ) ;
#137 = ADVANCED_FACE ( 'NONE', ( #74, #130 ), #38, .T. ) ;
#138 = CARTESIAN_POINT ( 'NONE',  ( 0.000000000000000000, 0.000000000000000000, 757.0000000000000000 ) ) ;
#139 = MANIFOLD_SOLID_BREP ( 'Odebrat vysunutím3', #16 ) ;
#140 = FACE_OUTER_BOUND ( 'NONE', #214, .T. ) ;
#141 = FACE_OUTER_BOUND ( 'NONE', #271, .T. ) ;
#142 = EDGE_LOOP ( 'NONE', ( #204, #172, #34, #25 ) ) ;
#143 = CARTESIAN_POINT ( 'NONE',  ( 0.000000000000000000, 0.000000000000000000, 0.000000000000000000 ) ) ;
#144 = CIRCLE ( 'NONE', #197, 6.000000000000000888 ) ;
#145 = AXIS2_PLACEMENT_3D ( 'NONE', #249, #103, #70 ) ;
#146 = ADVANCED_FACE ( 'NONE', ( #162 ), #11, .T. ) ;
#147 = EDGE_LOOP ( 'NONE', ( #358, #296, #9, #316 ) ) ;
#148 = CALENDAR_DATE ( 2022, 8, 7 ) ;
#149 = VERTEX_POINT ( 'NONE', #310 ) ;
#150 = COORDINATED_UNIVERSAL_TIME_OFFSET ( 1, 0, .AHEAD. ) ;
#151 = APPROVAL ( #272, 'NEURÈENÝ' ) ;
#152 = VERTEX_POINT ( 'NONE', #42 ) ;
#153 = PERSON ( 'NEURÈENÝ', 'NEURÈENÝ', 'NEURÈENÝ', ('NEURÈENÝ'), ('NEURÈENÝ'), ('NEURÈENÝ') ) ;
#154 = SHAPE_DEFINITION_REPRESENTATION ( #292, #364 ) ;
#155 = APPLICATION_CONTEXT ( 'configuration controlled 3d designs of mechanical parts and assemblies' ) ;
#156 = DIRECTION ( 'NONE',  ( 0.000000000000000000, 0.000000000000000000, 1.000000000000000000 ) ) ;
#157 = ORIENTED_EDGE ( 'NONE', *, *, #169, .F. ) ;
#158 = DIRECTION ( 'NONE',  ( 1.000000000000000000, 0.000000000000000000, 0.000000000000000000 ) ) ;
#159 = AXIS2_PLACEMENT_3D ( 'NONE', #54, #315, #87 ) ;
#160 = VECTOR ( 'NONE', #199, 1000.000000000000000 ) ;
#161 = CARTESIAN_POINT ( 'NONE',  ( 0.000000000000000000, 0.000000000000000000, 7.000000000000000000 ) ) ;
#162 = FACE_OUTER_BOUND ( 'NONE', #29, .T. ) ;
#163 = DIRECTION ( 'NONE',  ( 1.000000000000000000, 0.000000000000000000, -0.000000000000000000 ) ) ;
#164 = CC_DESIGN_PERSON_AND_ORGANIZATION_ASSIGNMENT ( #63, #352, ( #363 ) ) ;
#165 = CARTESIAN_POINT ( 'NONE',  ( 10.00000000000000000, 1.224646799147353256E-15, 7.000000000000000000 ) ) ;
#166 = ORGANIZATION ( 'NEURÈENÝ', 'NEURÈENÝ', '' ) ;
#167 = DIRECTION ( 'NONE',  ( -0.000000000000000000, -0.000000000000000000, -1.000000000000000000 ) ) ;
#168 = ORIENTED_EDGE ( 'NONE', *, *, #67, .T. ) ;
#169 = EDGE_CURVE ( 'NONE', #149, #180, #21, .T. ) ;
#170 = DIRECTION ( 'NONE',  ( 1.000000000000000000, 0.000000000000000000, 0.000000000000000000 ) ) ;
#171 = DIRECTION ( 'NONE',  ( 0.000000000000000000, 0.000000000000000000, 1.000000000000000000 ) ) ;
#172 = ORIENTED_EDGE ( 'NONE', *, *, #41, .T. ) ;
#173 = CARTESIAN_POINT ( 'NONE',  ( 0.000000000000000000, 0.000000000000000000, 0.000000000000000000 ) ) ;
#174 = ORIENTED_EDGE ( 'NONE', *, *, #238, .T. ) ;
#175 = DATE_TIME_ROLE ( 'classification_date' ) ;
#176 = DIRECTION ( 'NONE',  ( 0.000000000000000000, 0.000000000000000000, -1.000000000000000000 ) ) ;
#177 = PRODUCT_RELATED_PRODUCT_CATEGORY ( 'detail', '', ( #193 ) ) ;
#178 = CALENDAR_DATE ( 2022, 8, 7 ) ;
#179 = DESIGN_CONTEXT ( 'detailed design', #98, 'design' ) ;
#180 = VERTEX_POINT ( 'NONE', #281 ) ;
#181 = DATE_AND_TIME ( #276, #234 ) ;
#182 = LINE ( 'NONE', #239, #209 ) ;
#183 = CIRCLE ( 'NONE', #260, 2.500000000000000000 ) ;
#184 = APPROVAL_DATE_TIME ( #31, #30 ) ;
#185 = ORIENTED_EDGE ( 'NONE', *, *, #194, .T. ) ;
#186 = DIRECTION ( 'NONE',  ( 0.000000000000000000, 0.000000000000000000, 1.000000000000000000 ) ) ;
#187 = CC_DESIGN_DATE_AND_TIME_ASSIGNMENT ( #181, #175, ( #51 ) ) ;
#188 = CARTESIAN_POINT ( 'NONE',  ( 0.000000000000000000, 0.000000000000000000, 0.000000000000000000 ) ) ;
#189 = VECTOR ( 'NONE', #39, 1000.000000000000000 ) ;
#190 = CIRCLE ( 'NONE', #327, 10.00000000000000000 ) ;
#191 = VECTOR ( 'NONE', #80, 1000.000000000000000 ) ;
#192 = DIRECTION ( 'NONE',  ( -1.000000000000000000, 0.000000000000000000, 0.000000000000000000 ) ) ;
#193 = PRODUCT ( '1a10', '1a10', '', ( #213 ) ) ;
#194 = EDGE_CURVE ( 'NONE', #117, #128, #246, .T. ) ;
#195 = DIRECTION ( 'NONE',  ( 1.000000000000000000, 0.000000000000000000, 0.000000000000000000 ) ) ;
#196 = DIRECTION ( 'NONE',  ( 1.000000000000000000, 0.000000000000000000, 0.000000000000000000 ) ) ;
#197 = AXIS2_PLACEMENT_3D ( 'NONE', #338, #100, #158 ) ;
#198 = AXIS2_PLACEMENT_3D ( 'NONE', #278, #186, #254 ) ;
#199 = DIRECTION ( 'NONE',  ( -0.000000000000000000, -0.000000000000000000, -1.000000000000000000 ) ) ;
#200 = CIRCLE ( 'NONE', #362, 2.500000000000000000 ) ;
#201 = ADVANCED_FACE ( 'NONE', ( #340 ), #369, .T. ) ;
#202 = DIRECTION ( 'NONE',  ( 0.000000000000000000, 0.000000000000000000, 1.000000000000000000 ) ) ;
#203 = DIRECTION ( 'NONE',  ( 1.000000000000000000, 0.000000000000000000, 0.000000000000000000 ) ) ;
#204 = ORIENTED_EDGE ( 'NONE', *, *, #325, .T. ) ;
#205 = PLANE ( 'NONE',  #247 ) ;
#206 = ORIENTED_EDGE ( 'NONE', *, *, #250, .F. ) ;
#207 = EDGE_LOOP ( 'NONE', ( #185, #99 ) ) ;
#208 = DATE_TIME_ROLE ( 'creation_date' ) ;
#209 = VECTOR ( 'NONE', #210, 1000.000000000000000 ) ;
#210 = DIRECTION ( 'NONE',  ( 0.000000000000000000, 0.000000000000000000, -1.000000000000000000 ) ) ;
#211 = APPROVAL_STATUS ( 'not_yet_approved' ) ;
#212 = ORIENTED_EDGE ( 'NONE', *, *, #325, .F. ) ;
#213 = MECHANICAL_CONTEXT ( 'NONE', #155, 'mechanical' ) ;
#214 = EDGE_LOOP ( 'NONE', ( #108, #125, #245, #168 ) ) ;
#215 = PERSON_AND_ORGANIZATION ( #153, #166 ) ;
#216 = DIRECTION ( 'NONE',  ( 1.000000000000000000, 0.000000000000000000, 0.000000000000000000 ) ) ;
#217 = PRODUCT_DEFINITION_FORMATION_WITH_SPECIFIED_SOURCE ( 'LIBOVOLNÝ', '', #193, .NOT_KNOWN. ) ;
#218 = FACE_OUTER_BOUND ( 'NONE', #147, .T. ) ;
#219 = DIRECTION ( 'NONE',  ( 0.000000000000000000, 0.000000000000000000, 1.000000000000000000 ) ) ;
#220 = EDGE_CURVE ( 'NONE', #57, #86, #225, .T. ) ;
#221 = CC_DESIGN_APPROVAL ( #30, ( #363 ) ) ;
#222 = LINE ( 'NONE', #366, #361 ) ;
#223 = CARTESIAN_POINT ( 'NONE',  ( 0.000000000000000000, 0.000000000000000000, 757.0000000000000000 ) ) ;
#224 = CARTESIAN_POINT ( 'NONE',  ( 0.000000000000000000, 0.000000000000000000, 757.0000000000000000 ) ) ;
#225 = CIRCLE ( 'NONE', #75, 6.000000000000000888 ) ;
#226 = DIRECTION ( 'NONE',  ( 1.224646799147353207E-16, 1.000000000000000000, -0.000000000000000000 ) ) ;
#227 = CC_DESIGN_APPROVAL ( #134, ( #51 ) ) ;
#228 = EDGE_LOOP ( 'NONE', ( #356, #353, #55, #323 ) ) ;
#229 = FACE_BOUND ( 'NONE', #263, .T. ) ;
#230 = DIRECTION ( 'NONE',  ( -1.000000000000000000, 1.224646799147351482E-16, 0.000000000000000000 ) ) ;
#231 = ADVANCED_FACE ( 'NONE', ( #140 ), #261, .F. ) ;
#232 = CIRCLE ( 'NONE', #257, 6.000000000000000888 ) ;
#233 = DIRECTION ( 'NONE',  ( 1.000000000000000000, 0.000000000000000000, 0.000000000000000000 ) ) ;
#234 = LOCAL_TIME ( 17, 10, 52.00000000000000000, #299 ) ;
#235 = PERSON_AND_ORGANIZATION ( #153, #166 ) ;
#236 = VERTEX_POINT ( 'NONE', #50 ) ;
#237 = COORDINATED_UNIVERSAL_TIME_OFFSET ( 1, 0, .AHEAD. ) ;
#238 = EDGE_CURVE ( 'NONE', #6, #381, #190, .T. ) ;
#239 = CARTESIAN_POINT ( 'NONE',  ( 2.500000000000000000, 3.061616997868383141E-16, 757.0000000000000000 ) ) ;
#240 = PERSON_AND_ORGANIZATION_ROLE ( 'classification_officer' ) ;
#241 = ORIENTED_EDGE ( 'NONE', *, *, #90, .T. ) ;
#242 = DATE_AND_TIME ( #178, #45 ) ;
#243 = VERTEX_POINT ( 'NONE', #49 ) ;
#244 = ORIENTED_EDGE ( 'NONE', *, *, #37, .T. ) ;
#245 = ORIENTED_EDGE ( 'NONE', *, *, #52, .T. ) ;
#246 = CIRCLE ( 'NONE', #26, 10.00000000000000000 ) ;
#247 = AXIS2_PLACEMENT_3D ( 'NONE', #376, #19, #320 ) ;
#248 = CARTESIAN_POINT ( 'NONE',  ( -10.00000000000000000, 0.000000000000000000, 7.000000000000000000 ) ) ;
#249 = CARTESIAN_POINT ( 'NONE',  ( 0.000000000000000000, 0.000000000000000000, 7.000000000000000000 ) ) ;
#250 = EDGE_CURVE ( 'NONE', #149, #379, #289, .T. ) ;
#251 = DIRECTION ( 'NONE',  ( -0.000000000000000000, -0.000000000000000000, -1.000000000000000000 ) ) ;
#252 = CIRCLE ( 'NONE', #93, 10.00000000000000000 ) ;
#253 = CARTESIAN_POINT ( 'NONE',  ( 0.000000000000000000, 0.000000000000000000, 7.000000000000000000 ) ) ;
#254 = DIRECTION ( 'NONE',  ( 1.000000000000000000, 0.000000000000000000, 0.000000000000000000 ) ) ;
#255 = EDGE_CURVE ( 'NONE', #128, #117, #252, .T. ) ;
#256 = DIRECTION ( 'NONE',  ( 0.000000000000000000, 0.000000000000000000, 1.000000000000000000 ) ) ;
#257 = AXIS2_PLACEMENT_3D ( 'NONE', #35, #156, #274 ) ;
#258 = AXIS2_PLACEMENT_3D ( 'NONE', #102, #219, #163 ) ;
#259 = CARTESIAN_POINT ( 'NONE',  ( 6.500000000000000888, 0.000000000000000000, 6.999999999999975131 ) ) ;
#260 = AXIS2_PLACEMENT_3D ( 'NONE', #82, #167, #203 ) ;
#261 = CYLINDRICAL_SURFACE ( 'NONE', #159, 2.500000000000000000 ) ;
#262 = ADVANCED_FACE ( 'NONE', ( #114 ), #110, .F. ) ;
#263 = EDGE_LOOP ( 'NONE', ( #291, #88 ) ) ;
#264 = CARTESIAN_POINT ( 'NONE',  ( 10.00000000000000000, 1.224646799147353256E-15, 0.000000000000000000 ) ) ;
#265 = LINE ( 'NONE', #377, #160 ) ;
#266 = CC_DESIGN_SECURITY_CLASSIFICATION ( #51, ( #217 ) ) ;
#267 = APPROVAL_PERSON_ORGANIZATION ( #94, #134, #61 ) ;
#268 = APPLICATION_PROTOCOL_DEFINITION ( 'international standard', 'config_control_design', 1994, #98 ) ;
#269 = ORIENTED_EDGE ( 'NONE', *, *, #368, .T. ) ;
#270 = APPROVAL_DATE_TIME ( #5, #151 ) ;
#271 = EDGE_LOOP ( 'NONE', ( #371, #81 ) ) ;
#272 = APPROVAL_STATUS ( 'not_yet_approved' ) ;
#273 = CARTESIAN_POINT ( 'NONE',  ( 6.000000000000000888, 7.347880794884120722E-16, 757.0000000000000000 ) ) ;
#274 = DIRECTION ( 'NONE',  ( 1.000000000000000000, 0.000000000000000000, 0.000000000000000000 ) ) ;
#275 = EDGE_CURVE ( 'NONE', #303, #152, #200, .T. ) ;
#276 = CALENDAR_DATE ( 2022, 8, 7 ) ;
#277 = ORIENTED_EDGE ( 'NONE', *, *, #250, .T. ) ;
#278 = CARTESIAN_POINT ( 'NONE',  ( 0.000000000000000000, 0.000000000000000000, 7.499999999999951150 ) ) ;
#279 = CIRCLE ( 'NONE', #69, 2.500000000000000000 ) ;
#280 = DIRECTION ( 'NONE',  ( -0.000000000000000000, -0.000000000000000000, -1.000000000000000000 ) ) ;
#281 = CARTESIAN_POINT ( 'NONE',  ( -6.000000000000000888, 0.000000000000000000, 7.499999999999951150 ) ) ;
#282 = CARTESIAN_POINT ( 'NONE',  ( 0.000000000000000000, 0.000000000000000000, 757.0000000000000000 ) ) ;
#283 = AXIS2_PLACEMENT_3D ( 'NONE', #143, #256, #348 ) ;
#284 = CYLINDRICAL_SURFACE ( 'NONE', #359, 6.000000000000000888 ) ;
#285 = DIRECTION ( 'NONE',  ( 0.000000000000000000, 0.000000000000000000, 1.000000000000000000 ) ) ;
#286 = LINE ( 'NONE', #47, #191 ) ;
#287 = TOROIDAL_SURFACE ( 'NONE', #20, 6.500000000000000888, 0.5000000000000000000 ) ;
#288 = ADVANCED_FACE ( 'NONE', ( #107, #141 ), #205, .T. ) ;
#289 = CIRCLE ( 'NONE', #372, 0.5000000000000004441 ) ;
#290 =( LENGTH_UNIT ( ) NAMED_UNIT ( * ) SI_UNIT ( .MILLI., .METRE. ) );
#291 = ORIENTED_EDGE ( 'NONE', *, *, #67, .F. ) ;
#292 = PRODUCT_DEFINITION_SHAPE ( 'NONE', 'NONE',  #363 ) ;
#293 = FACE_OUTER_BOUND ( 'NONE', #62, .T. ) ;
#294 = DIRECTION ( 'NONE',  ( 1.000000000000000000, 0.000000000000000000, 0.000000000000000000 ) ) ;
#295 = DIRECTION ( 'NONE',  ( 0.000000000000000000, 0.000000000000000000, 1.000000000000000000 ) ) ;
#296 = ORIENTED_EDGE ( 'NONE', *, *, #101, .F. ) ;
#297 = ADVANCED_FACE ( 'NONE', ( #229, #293 ), #322, .F. ) ;
#298 = CARTESIAN_POINT ( 'NONE',  ( -2.500000000000000000, 0.000000000000000000, 0.000000000000000000 ) ) ;
#299 = COORDINATED_UNIVERSAL_TIME_OFFSET ( 1, 0, .AHEAD. ) ;
#300 = EDGE_LOOP ( 'NONE', ( #96, #157, #277, #91 ) ) ;
#301 = APPROVAL_DATE_TIME ( #242, #134 ) ;
#302 = EDGE_CURVE ( 'NONE', #117, #6, #265, .T. ) ;
#303 = VERTEX_POINT ( 'NONE', #318 ) ;
#304 = APPROVAL_PERSON_ORGANIZATION ( #215, #30, #380 ) ;
#305 = CALENDAR_DATE ( 2022, 8, 7 ) ;
#306 = ORIENTED_EDGE ( 'NONE', *, *, #111, .T. ) ;
#307 = DIRECTION ( 'NONE',  ( 0.000000000000000000, 0.000000000000000000, -1.000000000000000000 ) ) ;
#308 = EDGE_CURVE ( 'NONE', #86, #180, #286, .T. ) ;
#309 = DIRECTION ( 'NONE',  ( -1.000000000000000000, 0.000000000000000000, 0.000000000000000000 ) ) ;
#310 = CARTESIAN_POINT ( 'NONE',  ( 6.000000000000000888, 7.347880794884120722E-16, 7.499999999999951150 ) ) ;
#311 = DIRECTION ( 'NONE',  ( 1.000000000000000000, 0.000000000000000000, 0.000000000000000000 ) ) ;
#312 = CARTESIAN_POINT ( 'NONE',  ( -6.000000000000000888, 0.000000000000000000, 757.0000000000000000 ) ) ;
#313 = AXIS2_PLACEMENT_3D ( 'NONE', #161, #280, #195 ) ;
#314 = CARTESIAN_POINT ( 'NONE',  ( 6.500000000000000888, 0.000000000000000000, 7.499999999999951150 ) ) ;
#315 = DIRECTION ( 'NONE',  ( 0.000000000000000000, 0.000000000000000000, -1.000000000000000000 ) ) ;
#316 = ORIENTED_EDGE ( 'NONE', *, *, #58, .T. ) ;
#317 = CC_DESIGN_PERSON_AND_ORGANIZATION_ASSIGNMENT ( #7, #240, ( #51 ) ) ;
#318 = CARTESIAN_POINT ( 'NONE',  ( 2.500000000000000000, 3.061616997868383141E-16, 757.0000000000000000 ) ) ;
#319 = EDGE_LOOP ( 'NONE', ( #212, #32 ) ) ;
#320 = DIRECTION ( 'NONE',  ( 1.000000000000000000, 0.000000000000000000, -0.000000000000000000 ) ) ;
#321 = ORIENTED_EDGE ( 'NONE', *, *, #58, .F. ) ;
#322 = PLANE ( 'NONE',  #283 ) ;
#323 = ORIENTED_EDGE ( 'NONE', *, *, #308, .F. ) ;
#324 = PERSON_AND_ORGANIZATION_ROLE ( 'design_owner' ) ;
#325 = EDGE_CURVE ( 'NONE', #152, #303, #279, .T. ) ;
#326 = PERSON_AND_ORGANIZATION ( #153, #166 ) ;
#327 = AXIS2_PLACEMENT_3D ( 'NONE', #173, #285, #294 ) ;
#328 = CARTESIAN_POINT ( 'NONE',  ( 0.000000000000000000, 0.000000000000000000, 7.499999999999951150 ) ) ;
#329 = AXIS2_PLACEMENT_3D ( 'NONE', #23, #347, #233 ) ;
#330 = COORDINATED_UNIVERSAL_TIME_OFFSET ( 1, 0, .AHEAD. ) ;
#331 = ORIENTED_EDGE ( 'NONE', *, *, #37, .F. ) ;
#332 = APPROVAL_STATUS ( 'not_yet_approved' ) ;
#333 = ORIENTED_EDGE ( 'NONE', *, *, #118, .F. ) ;
#334 = DIRECTION ( 'NONE',  ( 1.000000000000000000, 0.000000000000000000, 0.000000000000000000 ) ) ;
#335 = AXIS2_PLACEMENT_3D ( 'NONE', #357, #295, #119 ) ;
#336 = CARTESIAN_POINT ( 'NONE',  ( 0.000000000000000000, 0.000000000000000000, 757.0000000000000000 ) ) ;
#337 = CARTESIAN_POINT ( 'NONE',  ( 0.000000000000000000, 0.000000000000000000, 757.0000000000000000 ) ) ;
#338 = CARTESIAN_POINT ( 'NONE',  ( 0.000000000000000000, 0.000000000000000000, 757.0000000000000000 ) ) ;
#339 = AXIS2_PLACEMENT_3D ( 'NONE', #336, #307, #76 ) ;
#340 = FACE_OUTER_BOUND ( 'NONE', #228, .T. ) ;
#341 = EDGE_CURVE ( 'NONE', #243, #8, #183, .T. ) ;
#342 = DIRECTION ( 'NONE',  ( 0.000000000000000000, 0.000000000000000000, 1.000000000000000000 ) ) ;
#343 = DIRECTION ( 'NONE',  ( 0.000000000000000000, -1.000000000000000000, 0.000000000000000000 ) ) ;
#344 = CIRCLE ( 'NONE', #73, 10.00000000000000000 ) ;
#345 = AXIS2_PLACEMENT_3D ( 'NONE', #253, #135, #192 ) ;
#346 = CC_DESIGN_PERSON_AND_ORGANIZATION_ASSIGNMENT ( #121, #1, ( #217 ) ) ;
#347 = DIRECTION ( 'NONE',  ( 0.000000000000000000, 0.000000000000000000, 1.000000000000000000 ) ) ;
#348 = DIRECTION ( 'NONE',  ( 1.000000000000000000, 0.000000000000000000, -0.000000000000000000 ) ) ;
#349 = CARTESIAN_POINT ( 'NONE',  ( 0.000000000000000000, 0.000000000000000000, 7.000000000000000000 ) ) ;
#350 = LOCAL_TIME ( 17, 10, 52.00000000000000000, #33 ) ;
#351 = EDGE_LOOP ( 'NONE', ( #4, #306 ) ) ;
#352 = PERSON_AND_ORGANIZATION_ROLE ( 'creator' ) ;
#353 = ORIENTED_EDGE ( 'NONE', *, *, #126, .T. ) ;
#354 = APPROVAL_ROLE ( '' ) ;
#355 = EDGE_LOOP ( 'NONE', ( #122, #375, #83, #174 ) ) ;
#356 = ORIENTED_EDGE ( 'NONE', *, *, #220, .F. ) ;
#357 = CARTESIAN_POINT ( 'NONE',  ( 0.000000000000000000, 0.000000000000000000, 0.000000000000000000 ) ) ;
#358 = ORIENTED_EDGE ( 'NONE', *, *, #126, .F. ) ;
#359 = AXIS2_PLACEMENT_3D ( 'NONE', #337, #44, #131 ) ;
#360 = CARTESIAN_POINT ( 'NONE',  ( 0.000000000000000000, 0.000000000000000000, 0.000000000000000000 ) ) ;
#361 = VECTOR ( 'NONE', #251, 1000.000000000000000 ) ;
#362 = AXIS2_PLACEMENT_3D ( 'NONE', #224, #136, #170 ) ;
#363 = PRODUCT_DEFINITION ( 'NEZNÁMÝ', '', #217, #179 ) ;
#364 = ADVANCED_BREP_SHAPE_REPRESENTATION ( '1a10', ( #139, #335 ), #46 ) ;
#365 = CYLINDRICAL_SURFACE ( 'NONE', #92, 10.00000000000000000 ) ;
#366 = CARTESIAN_POINT ( 'NONE',  ( 6.000000000000000888, 7.347880794884120722E-16, 757.0000000000000000 ) ) ;
#367 = DIRECTION ( 'NONE',  ( 1.000000000000000000, 0.000000000000000000, 0.000000000000000000 ) ) ;
#368 = EDGE_CURVE ( 'NONE', #180, #236, #116, .T. ) ;
#369 = CYLINDRICAL_SURFACE ( 'NONE', #109, 6.000000000000000888 ) ;
#370 = CARTESIAN_POINT ( 'NONE',  ( 10.00000000000000000, 1.224646799147353256E-15, 7.000000000000000000 ) ) ;
#371 = ORIENTED_EDGE ( 'NONE', *, *, #101, .T. ) ;
#372 = AXIS2_PLACEMENT_3D ( 'NONE', #314, #343, #24 ) ;
#373 = AXIS2_PLACEMENT_3D ( 'NONE', #18, #226, #230 ) ;
#374 =( NAMED_UNIT ( * ) PLANE_ANGLE_UNIT ( ) SI_UNIT ( $, .RADIAN. ) );
#375 = ORIENTED_EDGE ( 'NONE', *, *, #194, .F. ) ;
#376 = CARTESIAN_POINT ( 'NONE',  ( 0.000000000000000000, 0.000000000000000000, 757.0000000000000000 ) ) ;
#377 = CARTESIAN_POINT ( 'NONE',  ( -10.00000000000000000, 0.000000000000000000, 7.000000000000000000 ) ) ;
#378 = LOCAL_TIME ( 17, 10, 52.00000000000000000, #237 ) ;
#379 = VERTEX_POINT ( 'NONE', #259 ) ;
#380 = APPROVAL_ROLE ( '' ) ;
#381 = VERTEX_POINT ( 'NONE', #264 ) ;
ENDSEC;
END-ISO-10303-21;
