ISO-10303-21;
HEADER;
FILE_DESCRIPTION (( 'STEP AP203' ),
    '1' );
FILE_NAME ('da23.STEP',
    '2022-07-08T15:01:34',
    ( '' ),
    ( '' ),
    'SwSTEP 2.0',
    'SolidWorks 2019',
    '' );
FILE_SCHEMA (( 'CONFIG_CONTROL_DESIGN' ));
ENDSEC;

DATA;
#1 = CARTESIAN_POINT ( 'NONE',  ( 0.000000000000000000, 0.000000000000000000, 7.500000000000007105 ) ) ;
#2 = ORIENTED_EDGE ( 'NONE', *, *, #62, .T. ) ;
#3 = CARTESIAN_POINT ( 'NONE',  ( 0.000000000000000000, 0.000000000000000000, 207.0000000000000284 ) ) ;
#4 = CARTESIAN_POINT ( 'NONE',  ( -6.000000000000000888, 0.000000000000000000, 207.0000000000000284 ) ) ;
#5 = VECTOR ( 'NONE', #367, 1000.000000000000000 ) ;
#6 = VERTEX_POINT ( 'NONE', #172 ) ;
#7 = CIRCLE ( 'NONE', #165, 6.000000000000000888 ) ;
#8 = DIRECTION ( 'NONE',  ( -1.000000000000000000, 1.224646799147351482E-16, 0.000000000000000000 ) ) ;
#9 = CC_DESIGN_APPROVAL ( #41, ( #132 ) ) ;
#10 = CARTESIAN_POINT ( 'NONE',  ( 6.000000000000000888, 7.347880794884120722E-16, 7.500000000000007105 ) ) ;
#11 = CIRCLE ( 'NONE', #153, 10.00000000000000000 ) ;
#12 = ORIENTED_EDGE ( 'NONE', *, *, #332, .T. ) ;
#13 = DIRECTION ( 'NONE',  ( 0.000000000000000000, 0.000000000000000000, 1.000000000000000000 ) ) ;
#14 = VECTOR ( 'NONE', #129, 1000.000000000000000 ) ;
#15 = ORIENTED_EDGE ( 'NONE', *, *, #246, .F. ) ;
#16 = LINE ( 'NONE', #340, #342 ) ;
#17 = SECURITY_CLASSIFICATION_LEVEL ( 'unclassified' ) ;
#18 = CARTESIAN_POINT ( 'NONE',  ( 0.000000000000000000, 0.000000000000000000, 207.0000000000000284 ) ) ;
#19 = CARTESIAN_POINT ( 'NONE',  ( 0.000000000000000000, 0.000000000000000000, 7.500000000000007105 ) ) ;
#20 = EDGE_CURVE ( 'NONE', #209, #48, #366, .T. ) ;
#21 = AXIS2_PLACEMENT_3D ( 'NONE', #84, #205, #351 ) ;
#22 = COORDINATED_UNIVERSAL_TIME_OFFSET ( 1, 0, .AHEAD. ) ;
#23 = CYLINDRICAL_SURFACE ( 'NONE', #263, 2.750000000000000000 ) ;
#24 = COORDINATED_UNIVERSAL_TIME_OFFSET ( 1, 0, .AHEAD. ) ;
#25 = DIRECTION ( 'NONE',  ( 1.000000000000000000, 0.000000000000000000, 0.000000000000000000 ) ) ;
#26 = ADVANCED_BREP_SHAPE_REPRESENTATION ( 'da23', ( #160, #312 ), #304 ) ;
#27 = ORIENTED_EDGE ( 'NONE', *, *, #356, .F. ) ;
#28 = CARTESIAN_POINT ( 'NONE',  ( 0.000000000000000000, 0.000000000000000000, 7.000000000000000000 ) ) ;
#29 = CIRCLE ( 'NONE', #100, 6.500000000000000888 ) ;
#30 = PRODUCT_RELATED_PRODUCT_CATEGORY ( 'detail', '', ( #225 ) ) ;
#31 = FACE_BOUND ( 'NONE', #333, .T. ) ;
#32 = EDGE_LOOP ( 'NONE', ( #344, #329 ) ) ;
#33 = AXIS2_PLACEMENT_3D ( 'NONE', #103, #194, #196 ) ;
#34 = DIRECTION ( 'NONE',  ( 0.000000000000000000, 0.000000000000000000, 1.000000000000000000 ) ) ;
#35 = AXIS2_PLACEMENT_3D ( 'NONE', #3, #266, #380 ) ;
#36 = CC_DESIGN_APPROVAL ( #285, ( #376 ) ) ;
#37 = CARTESIAN_POINT ( 'NONE',  ( 0.000000000000000000, 0.000000000000000000, 7.500000000000007105 ) ) ;
#38 = DIRECTION ( 'NONE',  ( 1.000000000000000000, 0.000000000000000000, 0.000000000000000000 ) ) ;
#39 = ORIENTED_EDGE ( 'NONE', *, *, #346, .F. ) ;
#40 = CIRCLE ( 'NONE', #126, 2.750000000000000000 ) ;
#41 = APPROVAL ( #171, 'NEURÈENÝ' ) ;
#42 = VERTEX_POINT ( 'NONE', #282 ) ;
#43 = FACE_BOUND ( 'NONE', #61, .T. ) ;
#44 = LINE ( 'NONE', #331, #14 ) ;
#45 = DIRECTION ( 'NONE',  ( 1.000000000000000000, 0.000000000000000000, -0.000000000000000000 ) ) ;
#46 = APPROVAL_STATUS ( 'not_yet_approved' ) ;
#47 = EDGE_LOOP ( 'NONE', ( #242, #228, #363, #360 ) ) ;
#48 = VERTEX_POINT ( 'NONE', #375 ) ;
#49 = CIRCLE ( 'NONE', #33, 2.750000000000000000 ) ;
#50 = DIRECTION ( 'NONE',  ( 1.000000000000000000, 0.000000000000000000, 0.000000000000000000 ) ) ;
#51 = EDGE_CURVE ( 'NONE', #80, #324, #83, .T. ) ;
#52 = DIRECTION ( 'NONE',  ( 1.000000000000000000, 0.000000000000000000, 0.000000000000000000 ) ) ;
#53 = DIRECTION ( 'NONE',  ( 1.000000000000000000, 0.000000000000000000, 0.000000000000000000 ) ) ;
#54 = DIRECTION ( 'NONE',  ( 1.000000000000000000, 0.000000000000000000, 0.000000000000000000 ) ) ;
#55 = ORIENTED_EDGE ( 'NONE', *, *, #335, .F. ) ;
#56 = CIRCLE ( 'NONE', #99, 10.00000000000000000 ) ;
#57 = CARTESIAN_POINT ( 'NONE',  ( 0.000000000000000000, 0.000000000000000000, 207.0000000000000284 ) ) ;
#58 = LOCAL_TIME ( 17, 1, 34.00000000000000000, #259 ) ;
#59 = DESIGN_CONTEXT ( 'detailed design', #72, 'design' ) ;
#60 = FACE_OUTER_BOUND ( 'NONE', #252, .T. ) ;
#61 = EDGE_LOOP ( 'NONE', ( #39, #68 ) ) ;
#62 = EDGE_CURVE ( 'NONE', #216, #348, #16, .T. ) ;
#63 = ORIENTED_EDGE ( 'NONE', *, *, #301, .F. ) ;
#64 = CARTESIAN_POINT ( 'NONE',  ( 0.000000000000000000, 0.000000000000000000, 7.000000000000000000 ) ) ;
#65 = ORIENTED_EDGE ( 'NONE', *, *, #142, .T. ) ;
#66 = AXIS2_PLACEMENT_3D ( 'NONE', #117, #267, #25 ) ;
#67 = PERSON_AND_ORGANIZATION ( #215, #352 ) ;
#68 = ORIENTED_EDGE ( 'NONE', *, *, #250, .F. ) ;
#69 = CC_DESIGN_DATE_AND_TIME_ASSIGNMENT ( #152, #180, ( #258 ) ) ;
#70 = ORIENTED_EDGE ( 'NONE', *, *, #190, .T. ) ;
#71 = AXIS2_PLACEMENT_3D ( 'NONE', #338, #362, #8 ) ;
#72 = APPLICATION_CONTEXT ( 'configuration controlled 3d designs of mechanical parts and assemblies' ) ;
#73 = ORIENTED_EDGE ( 'NONE', *, *, #87, .F. ) ;
#74 = DIRECTION ( 'NONE',  ( -1.000000000000000000, 0.000000000000000000, 0.000000000000000000 ) ) ;
#75 = ADVANCED_FACE ( 'NONE', ( #231 ), #314, .T. ) ;
#76 = ORIENTED_EDGE ( 'NONE', *, *, #101, .F. ) ;
#77 = CYLINDRICAL_SURFACE ( 'NONE', #175, 6.000000000000000888 ) ;
#78 = APPROVAL_ROLE ( '' ) ;
#79 = AXIS2_PLACEMENT_3D ( 'NONE', #97, #13, #248 ) ;
#80 = VERTEX_POINT ( 'NONE', #10 ) ;
#81 = ADVANCED_FACE ( 'NONE', ( #146 ), #77, .T. ) ;
#82 = DIRECTION ( 'NONE',  ( -0.000000000000000000, -0.000000000000000000, -1.000000000000000000 ) ) ;
#83 = CIRCLE ( 'NONE', #292, 0.5000000000000004441 ) ;
#84 = CARTESIAN_POINT ( 'NONE',  ( 0.000000000000000000, 0.000000000000000000, 207.0000000000000284 ) ) ;
#85 = CARTESIAN_POINT ( 'NONE',  ( 0.000000000000000000, 0.000000000000000000, 207.0000000000000284 ) ) ;
#86 = DIRECTION ( 'NONE',  ( 0.000000000000000000, 0.000000000000000000, -1.000000000000000000 ) ) ;
#87 = EDGE_CURVE ( 'NONE', #249, #42, #223, .T. ) ;
#88 = EDGE_LOOP ( 'NONE', ( #203, #140, #189, #197 ) ) ;
#89 = DIRECTION ( 'NONE',  ( -1.000000000000000000, 0.000000000000000000, 0.000000000000000000 ) ) ;
#90 = LINE ( 'NONE', #149, #299 ) ;
#91 = AXIS2_PLACEMENT_3D ( 'NONE', #139, #94, #186 ) ;
#92 = ORIENTED_EDGE ( 'NONE', *, *, #246, .T. ) ;
#93 = UNCERTAINTY_MEASURE_WITH_UNIT (LENGTH_MEASURE( 1.000000000000000082E-05 ), #214, 'distance_accuracy_value', 'NONE');
#94 = DIRECTION ( 'NONE',  ( 0.000000000000000000, 0.000000000000000000, 1.000000000000000000 ) ) ;
#95 = ORIENTED_EDGE ( 'NONE', *, *, #208, .T. ) ;
#96 = CARTESIAN_POINT ( 'NONE',  ( 0.000000000000000000, 0.000000000000000000, 207.0000000000000284 ) ) ;
#97 = CARTESIAN_POINT ( 'NONE',  ( 0.000000000000000000, 0.000000000000000000, 7.000000000000000000 ) ) ;
#98 = ORIENTED_EDGE ( 'NONE', *, *, #356, .T. ) ;
#99 = AXIS2_PLACEMENT_3D ( 'NONE', #178, #318, #52 ) ;
#100 = AXIS2_PLACEMENT_3D ( 'NONE', #64, #269, #107 ) ;
#101 = EDGE_CURVE ( 'NONE', #249, #133, #49, .T. ) ;
#102 = EDGE_LOOP ( 'NONE', ( #275, #201, #65, #276 ) ) ;
#103 = CARTESIAN_POINT ( 'NONE',  ( 0.000000000000000000, 0.000000000000000000, 207.0000000000000284 ) ) ;
#104 = CC_DESIGN_APPROVAL ( #145, ( #258 ) ) ;
#105 = DIRECTION ( 'NONE',  ( -0.000000000000000000, -0.000000000000000000, -1.000000000000000000 ) ) ;
#106 = DIRECTION ( 'NONE',  ( -1.000000000000000000, 0.000000000000000000, 0.000000000000000000 ) ) ;
#107 = DIRECTION ( 'NONE',  ( 1.000000000000000000, 0.000000000000000000, 0.000000000000000000 ) ) ;
#108 = DIRECTION ( 'NONE',  ( 0.000000000000000000, 0.000000000000000000, 1.000000000000000000 ) ) ;
#109 = APPLICATION_PROTOCOL_DEFINITION ( 'international standard', 'config_control_design', 1994, #72 ) ;
#110 = ORIENTED_EDGE ( 'NONE', *, *, #325, .T. ) ;
#111 = ADVANCED_FACE ( 'NONE', ( #43, #167 ), #277, .F. ) ;
#112 = VECTOR ( 'NONE', #355, 1000.000000000000000 ) ;
#113 = APPLICATION_CONTEXT ( 'configuration controlled 3d designs of mechanical parts and assemblies' ) ;
#114 = EDGE_LOOP ( 'NONE', ( #371, #218 ) ) ;
#115 = CC_DESIGN_PERSON_AND_ORGANIZATION_ASSIGNMENT ( #262, #309, ( #132 ) ) ;
#116 = APPROVAL_DATE_TIME ( #290, #41 ) ;
#117 = CARTESIAN_POINT ( 'NONE',  ( 0.000000000000000000, 0.000000000000000000, 0.000000000000000000 ) ) ;
#118 = APPROVAL_DATE_TIME ( #283, #285 ) ;
#119 = CARTESIAN_POINT ( 'NONE',  ( -10.00000000000000000, 0.000000000000000000, 7.000000000000000000 ) ) ;
#120 = AXIS2_PLACEMENT_3D ( 'NONE', #28, #300, #74 ) ;
#121 = LINE ( 'NONE', #353, #221 ) ;
#122 = EDGE_LOOP ( 'NONE', ( #279, #311, #2, #95 ) ) ;
#123 = CARTESIAN_POINT ( 'NONE',  ( -2.750000000000000000, 0.000000000000000000, 207.0000000000000284 ) ) ;
#124 = FACE_OUTER_BOUND ( 'NONE', #47, .T. ) ;
#125 = DIRECTION ( 'NONE',  ( 0.000000000000000000, 0.000000000000000000, 1.000000000000000000 ) ) ;
#126 = AXIS2_PLACEMENT_3D ( 'NONE', #307, #130, #271 ) ;
#127 = VERTEX_POINT ( 'NONE', #151 ) ;
#128 = CC_DESIGN_PERSON_AND_ORGANIZATION_ASSIGNMENT ( #230, #232, ( #376 ) ) ;
#129 = DIRECTION ( 'NONE',  ( -0.000000000000000000, -0.000000000000000000, -1.000000000000000000 ) ) ;
#130 = DIRECTION ( 'NONE',  ( -0.000000000000000000, -0.000000000000000000, -1.000000000000000000 ) ) ;
#131 = VERTEX_POINT ( 'NONE', #320 ) ;
#132 = PRODUCT_DEFINITION ( 'NEZNÁMÝ', '', #376, #59 ) ;
#133 = VERTEX_POINT ( 'NONE', #123 ) ;
#134 = ORIENTED_EDGE ( 'NONE', *, *, #101, .T. ) ;
#135 = DIRECTION ( 'NONE',  ( -0.000000000000000000, -0.000000000000000000, -1.000000000000000000 ) ) ;
#136 = ADVANCED_FACE ( 'NONE', ( #238 ), #23, .F. ) ;
#137 = AXIS2_PLACEMENT_3D ( 'NONE', #339, #108, #45 ) ;
#138 = CARTESIAN_POINT ( 'NONE',  ( 6.500000000000000888, 0.000000000000000000, 7.000000000000002665 ) ) ;
#139 = CARTESIAN_POINT ( 'NONE',  ( 0.000000000000000000, 0.000000000000000000, 7.500000000000007105 ) ) ;
#140 = ORIENTED_EDGE ( 'NONE', *, *, #87, .T. ) ;
#141 = COORDINATED_UNIVERSAL_TIME_OFFSET ( 1, 0, .AHEAD. ) ;
#142 = EDGE_CURVE ( 'NONE', #327, #348, #11, .T. ) ;
#143 = DIRECTION ( 'NONE',  ( -0.000000000000000000, -0.000000000000000000, -1.000000000000000000 ) ) ;
#144 = PERSON_AND_ORGANIZATION ( #215, #352 ) ;
#145 = APPROVAL ( #224, 'NEURÈENÝ' ) ;
#146 = FACE_OUTER_BOUND ( 'NONE', #302, .T. ) ;
#147 = CALENDAR_DATE ( 2022, 8, 7 ) ;
#148 = CIRCLE ( 'NONE', #79, 10.00000000000000000 ) ;
#149 = CARTESIAN_POINT ( 'NONE',  ( 10.00000000000000000, 1.224646799147353256E-15, 7.000000000000000000 ) ) ;
#150 = SHAPE_DEFINITION_REPRESENTATION ( #359, #26 ) ;
#151 = CARTESIAN_POINT ( 'NONE',  ( -2.750000000000000000, 0.000000000000000000, 0.000000000000000000 ) ) ;
#152 = DATE_AND_TIME ( #349, #357 ) ;
#153 = AXIS2_PLACEMENT_3D ( 'NONE', #316, #261, #184 ) ;
#154 = EDGE_LOOP ( 'NONE', ( #70, #169 ) ) ;
#155 = AXIS2_PLACEMENT_3D ( 'NONE', #85, #210, #54 ) ;
#156 = AXIS2_PLACEMENT_3D ( 'NONE', #326, #105, #187 ) ;
#157 = PLANE ( 'NONE',  #21 ) ;
#158 = DIRECTION ( 'NONE',  ( 1.000000000000000000, 0.000000000000000000, -0.000000000000000000 ) ) ;
#159 = DIRECTION ( 'NONE',  ( -0.000000000000000000, -0.000000000000000000, -1.000000000000000000 ) ) ;
#160 = MANIFOLD_SOLID_BREP ( 'Odebrat vysunutím3', #164 ) ;
#161 = CIRCLE ( 'NONE', #330, 2.750000000000000000 ) ;
#162 = MECHANICAL_CONTEXT ( 'NONE', #113, 'mechanical' ) ;
#163 = CARTESIAN_POINT ( 'NONE',  ( -10.00000000000000000, 0.000000000000000000, 0.000000000000000000 ) ) ;
#164 = CLOSED_SHELL ( 'NONE', ( #179, #270, #368, #75, #298, #204, #111, #81, #236, #321, #136 ) ) ;
#165 = AXIS2_PLACEMENT_3D ( 'NONE', #19, #206, #53 ) ;
#166 = ORIENTED_EDGE ( 'NONE', *, *, #265, .T. ) ;
#167 = FACE_OUTER_BOUND ( 'NONE', #32, .T. ) ;
#168 = CARTESIAN_POINT ( 'NONE',  ( 10.00000000000000000, 1.224646799147353256E-15, 0.000000000000000000 ) ) ;
#169 = ORIENTED_EDGE ( 'NONE', *, *, #341, .T. ) ;
#170 = APPROVAL_PERSON_ORGANIZATION ( #379, #41, #78 ) ;
#171 = APPROVAL_STATUS ( 'not_yet_approved' ) ;
#172 = CARTESIAN_POINT ( 'NONE',  ( -6.500000000000000888, 7.960204194457796463E-16, 7.000000000000002665 ) ) ;
#173 = CALENDAR_DATE ( 2022, 8, 7 ) ;
#174 = CARTESIAN_POINT ( 'NONE',  ( 0.000000000000000000, 0.000000000000000000, 7.000000000000000000 ) ) ;
#175 = AXIS2_PLACEMENT_3D ( 'NONE', #315, #135, #106 ) ;
#176 = FACE_OUTER_BOUND ( 'NONE', #154, .T. ) ;
#177 = APPROVAL_ROLE ( '' ) ;
#178 = CARTESIAN_POINT ( 'NONE',  ( 0.000000000000000000, 0.000000000000000000, 7.000000000000000000 ) ) ;
#179 = ADVANCED_FACE ( 'NONE', ( #295 ), #237, .F. ) ;
#180 = DATE_TIME_ROLE ( 'classification_date' ) ;
#181 = CARTESIAN_POINT ( 'NONE',  ( 2.750000000000000000, 3.367778697655220519E-16, 207.0000000000000284 ) ) ;
#182 = FACE_OUTER_BOUND ( 'NONE', #122, .T. ) ;
#183 = CIRCLE ( 'NONE', #212, 6.000000000000000888 ) ;
#184 = DIRECTION ( 'NONE',  ( 1.000000000000000000, 0.000000000000000000, 0.000000000000000000 ) ) ;
#185 = CC_DESIGN_DATE_AND_TIME_ASSIGNMENT ( #372, #377, ( #132 ) ) ;
#186 = DIRECTION ( 'NONE',  ( 1.000000000000000000, 0.000000000000000000, 0.000000000000000000 ) ) ;
#187 = DIRECTION ( 'NONE',  ( -1.000000000000000000, 0.000000000000000000, 0.000000000000000000 ) ) ;
#188 = CIRCLE ( 'NONE', #66, 2.750000000000000000 ) ;
#189 = ORIENTED_EDGE ( 'NONE', *, *, #250, .T. ) ;
#190 = EDGE_CURVE ( 'NONE', #216, #272, #56, .T. ) ;
#191 = EDGE_LOOP ( 'NONE', ( #63, #15, #305, #27 ) ) ;
#192 = APPROVAL_PERSON_ORGANIZATION ( #255, #145, #177 ) ;
#193 = CC_DESIGN_PERSON_AND_ORGANIZATION_ASSIGNMENT ( #67, #202, ( #225 ) ) ;
#194 = DIRECTION ( 'NONE',  ( 0.000000000000000000, 0.000000000000000000, 1.000000000000000000 ) ) ;
#195 = DIRECTION ( 'NONE',  ( 0.000000000000000000, 0.000000000000000000, 1.000000000000000000 ) ) ;
#196 = DIRECTION ( 'NONE',  ( 1.000000000000000000, 0.000000000000000000, 0.000000000000000000 ) ) ;
#197 = ORIENTED_EDGE ( 'NONE', *, *, #273, .F. ) ;
#198 = EDGE_CURVE ( 'NONE', #48, #209, #310, .T. ) ;
#199 = TOROIDAL_SURFACE ( 'NONE', #280, 6.500000000000000888, 0.5000000000000000000 ) ;
#200 = COORDINATED_UNIVERSAL_TIME_OFFSET ( 1, 0, .AHEAD. ) ;
#201 = ORIENTED_EDGE ( 'NONE', *, *, #257, .T. ) ;
#202 = PERSON_AND_ORGANIZATION_ROLE ( 'design_owner' ) ;
#203 = ORIENTED_EDGE ( 'NONE', *, *, #335, .T. ) ;
#204 = ADVANCED_FACE ( 'NONE', ( #31, #176 ), #289, .T. ) ;
#205 = DIRECTION ( 'NONE',  ( 0.000000000000000000, 0.000000000000000000, 1.000000000000000000 ) ) ;
#206 = DIRECTION ( 'NONE',  ( 0.000000000000000000, 0.000000000000000000, 1.000000000000000000 ) ) ;
#207 = DIRECTION ( 'NONE',  ( 0.000000000000000000, 0.000000000000000000, -1.000000000000000000 ) ) ;
#208 = EDGE_CURVE ( 'NONE', #348, #327, #274, .T. ) ;
#209 = VERTEX_POINT ( 'NONE', #354 ) ;
#210 = DIRECTION ( 'NONE',  ( 0.000000000000000000, 0.000000000000000000, 1.000000000000000000 ) ) ;
#211 = CC_DESIGN_PERSON_AND_ORGANIZATION_ASSIGNMENT ( #313, #343, ( #376 ) ) ;
#212 = AXIS2_PLACEMENT_3D ( 'NONE', #37, #195, #278 ) ;
#213 = LINE ( 'NONE', #4, #112 ) ;
#214 =( LENGTH_UNIT ( ) NAMED_UNIT ( * ) SI_UNIT ( .MILLI., .METRE. ) );
#215 = PERSON ( 'NEURÈENÝ', 'NEURÈENÝ', 'NEURÈENÝ', ('NEURÈENÝ'), ('NEURÈENÝ'), ('NEURÈENÝ') ) ;
#216 = VERTEX_POINT ( 'NONE', #119 ) ;
#217 = ORIENTED_EDGE ( 'NONE', *, *, #198, .F. ) ;
#218 = ORIENTED_EDGE ( 'NONE', *, *, #198, .T. ) ;
#219 = CC_DESIGN_PERSON_AND_ORGANIZATION_ASSIGNMENT ( #144, #347, ( #258 ) ) ;
#220 = DIRECTION ( 'NONE',  ( 0.000000000000000000, 0.000000000000000000, 1.000000000000000000 ) ) ;
#221 = VECTOR ( 'NONE', #86, 1000.000000000000000 ) ;
#222 =( NAMED_UNIT ( * ) PLANE_ANGLE_UNIT ( ) SI_UNIT ( $, .RADIAN. ) );
#223 = LINE ( 'NONE', #247, #5 ) ;
#224 = APPROVAL_STATUS ( 'not_yet_approved' ) ;
#225 = PRODUCT ( 'da23', 'da23', '', ( #162 ) ) ;
#226 = DIRECTION ( 'NONE',  ( 0.000000000000000000, -1.000000000000000000, 0.000000000000000000 ) ) ;
#227 = CALENDAR_DATE ( 2022, 8, 7 ) ;
#228 = ORIENTED_EDGE ( 'NONE', *, *, #301, .T. ) ;
#229 = LOCAL_TIME ( 17, 1, 34.00000000000000000, #141 ) ;
#230 = PERSON_AND_ORGANIZATION ( #215, #352 ) ;
#231 = FACE_OUTER_BOUND ( 'NONE', #102, .T. ) ;
#232 = PERSON_AND_ORGANIZATION_ROLE ( 'design_supplier' ) ;
#233 = DIRECTION ( 'NONE',  ( 0.000000000000000000, 0.000000000000000000, 1.000000000000000000 ) ) ;
#234 = APPROVAL_DATE_TIME ( #374, #145 ) ;
#235 = FACE_OUTER_BOUND ( 'NONE', #114, .T. ) ;
#236 = ADVANCED_FACE ( 'NONE', ( #378, #235 ), #157, .T. ) ;
#237 = CYLINDRICAL_SURFACE ( 'NONE', #35, 2.750000000000000000 ) ;
#238 = FACE_OUTER_BOUND ( 'NONE', #334, .T. ) ;
#239 = CARTESIAN_POINT ( 'NONE',  ( 0.000000000000000000, 0.000000000000000000, 0.000000000000000000 ) ) ;
#240 = AXIS2_PLACEMENT_3D ( 'NONE', #239, #286, #319 ) ;
#241 = DIRECTION ( 'NONE',  ( 1.000000000000000000, 0.000000000000000000, 0.000000000000000000 ) ) ;
#242 = ORIENTED_EDGE ( 'NONE', *, *, #332, .F. ) ;
#243 = CARTESIAN_POINT ( 'NONE',  ( 0.000000000000000000, 0.000000000000000000, 0.000000000000000000 ) ) ;
#244 = CIRCLE ( 'NONE', #71, 0.5000000000000004441 ) ;
#245 = ORIENTED_EDGE ( 'NONE', *, *, #303, .T. ) ;
#246 = EDGE_CURVE ( 'NONE', #80, #131, #7, .T. ) ;
#247 = CARTESIAN_POINT ( 'NONE',  ( 2.750000000000000000, 3.367778697655220519E-16, 207.0000000000000284 ) ) ;
#248 = DIRECTION ( 'NONE',  ( 1.000000000000000000, 0.000000000000000000, 0.000000000000000000 ) ) ;
#249 = VERTEX_POINT ( 'NONE', #181 ) ;
#250 = EDGE_CURVE ( 'NONE', #42, #127, #188, .T. ) ;
#251 = CYLINDRICAL_SURFACE ( 'NONE', #156, 6.000000000000000888 ) ;
#252 = EDGE_LOOP ( 'NONE', ( #217, #110, #92, #369 ) ) ;
#253 = EDGE_LOOP ( 'NONE', ( #55, #76 ) ) ;
#254 = AXIS2_PLACEMENT_3D ( 'NONE', #174, #82, #284 ) ;
#255 = PERSON_AND_ORGANIZATION ( #215, #352 ) ;
#256 = CARTESIAN_POINT ( 'NONE',  ( 6.500000000000000888, 0.000000000000000000, 7.500000000000007105 ) ) ;
#257 = EDGE_CURVE ( 'NONE', #272, #327, #90, .T. ) ;
#258 = SECURITY_CLASSIFICATION ( '', '', #17 ) ;
#259 = COORDINATED_UNIVERSAL_TIME_OFFSET ( 1, 0, .AHEAD. ) ;
#260 = DIRECTION ( 'NONE',  ( 0.000000000000000000, 0.000000000000000000, 1.000000000000000000 ) ) ;
#261 = DIRECTION ( 'NONE',  ( 0.000000000000000000, 0.000000000000000000, 1.000000000000000000 ) ) ;
#262 = PERSON_AND_ORGANIZATION ( #215, #352 ) ;
#263 = AXIS2_PLACEMENT_3D ( 'NONE', #57, #207, #89 ) ;
#264 = CARTESIAN_POINT ( 'NONE',  ( 10.00000000000000000, 1.224646799147353256E-15, 7.000000000000000000 ) ) ;
#265 = EDGE_CURVE ( 'NONE', #209, #131, #213, .T. ) ;
#266 = DIRECTION ( 'NONE',  ( 0.000000000000000000, 0.000000000000000000, -1.000000000000000000 ) ) ;
#267 = DIRECTION ( 'NONE',  ( -0.000000000000000000, -0.000000000000000000, -1.000000000000000000 ) ) ;
#268 = LOCAL_TIME ( 17, 1, 34.00000000000000000, #200 ) ;
#269 = DIRECTION ( 'NONE',  ( -0.000000000000000000, -0.000000000000000000, -1.000000000000000000 ) ) ;
#270 = ADVANCED_FACE ( 'NONE', ( #124 ), #199, .F. ) ;
#271 = DIRECTION ( 'NONE',  ( 1.000000000000000000, 0.000000000000000000, 0.000000000000000000 ) ) ;
#272 = VERTEX_POINT ( 'NONE', #264 ) ;
#273 = EDGE_CURVE ( 'NONE', #133, #127, #121, .T. ) ;
#274 = CIRCLE ( 'NONE', #240, 10.00000000000000000 ) ;
#275 = ORIENTED_EDGE ( 'NONE', *, *, #341, .F. ) ;
#276 = ORIENTED_EDGE ( 'NONE', *, *, #62, .F. ) ;
#277 = PLANE ( 'NONE',  #137 ) ;
#278 = DIRECTION ( 'NONE',  ( 1.000000000000000000, 0.000000000000000000, 0.000000000000000000 ) ) ;
#279 = ORIENTED_EDGE ( 'NONE', *, *, #257, .F. ) ;
#280 = AXIS2_PLACEMENT_3D ( 'NONE', #1, #233, #50 ) ;
#281 = APPROVAL_ROLE ( '' ) ;
#282 = CARTESIAN_POINT ( 'NONE',  ( 2.750000000000000000, 3.367778697655220519E-16, 0.000000000000000000 ) ) ;
#283 = DATE_AND_TIME ( #227, #345 ) ;
#284 = DIRECTION ( 'NONE',  ( -1.000000000000000000, 0.000000000000000000, 0.000000000000000000 ) ) ;
#285 = APPROVAL ( #46, 'NEURÈENÝ' ) ;
#286 = DIRECTION ( 'NONE',  ( 0.000000000000000000, 0.000000000000000000, 1.000000000000000000 ) ) ;
#287 = TOROIDAL_SURFACE ( 'NONE', #91, 6.500000000000000888, 0.5000000000000000000 ) ;
#288 = CALENDAR_DATE ( 2022, 8, 7 ) ;
#289 = PLANE ( 'NONE',  #294 ) ;
#290 = DATE_AND_TIME ( #147, #229 ) ;
#291 = DIRECTION ( 'NONE',  ( -0.000000000000000000, -0.000000000000000000, -1.000000000000000000 ) ) ;
#292 = AXIS2_PLACEMENT_3D ( 'NONE', #256, #226, #337 ) ;
#293 = CYLINDRICAL_SURFACE ( 'NONE', #120, 10.00000000000000000 ) ;
#294 = AXIS2_PLACEMENT_3D ( 'NONE', #350, #260, #158 ) ;
#295 = FACE_OUTER_BOUND ( 'NONE', #88, .T. ) ;
#296 =( NAMED_UNIT ( * ) SI_UNIT ( $, .STERADIAN. ) SOLID_ANGLE_UNIT ( ) );
#297 = FACE_OUTER_BOUND ( 'NONE', #191, .T. ) ;
#298 = ADVANCED_FACE ( 'NONE', ( #182 ), #293, .T. ) ;
#299 = VECTOR ( 'NONE', #291, 1000.000000000000000 ) ;
#300 = DIRECTION ( 'NONE',  ( -0.000000000000000000, -0.000000000000000000, -1.000000000000000000 ) ) ;
#301 = EDGE_CURVE ( 'NONE', #131, #6, #244, .T. ) ;
#302 = EDGE_LOOP ( 'NONE', ( #373, #365, #166, #12 ) ) ;
#303 = EDGE_CURVE ( 'NONE', #324, #6, #29, .T. ) ;
#304 =( GEOMETRIC_REPRESENTATION_CONTEXT ( 3 ) GLOBAL_UNCERTAINTY_ASSIGNED_CONTEXT ( ( #93 ) ) GLOBAL_UNIT_ASSIGNED_CONTEXT ( ( #214, #222, #296 ) ) REPRESENTATION_CONTEXT ( 'NONE', 'WORKASPACE' ) );
#305 = ORIENTED_EDGE ( 'NONE', *, *, #51, .T. ) ;
#306 = DIRECTION ( 'NONE',  ( 1.000000000000000000, 0.000000000000000000, 0.000000000000000000 ) ) ;
#307 = CARTESIAN_POINT ( 'NONE',  ( 0.000000000000000000, 0.000000000000000000, 0.000000000000000000 ) ) ;
#308 = ORIENTED_EDGE ( 'NONE', *, *, #346, .T. ) ;
#309 = PERSON_AND_ORGANIZATION_ROLE ( 'creator' ) ;
#310 = CIRCLE ( 'NONE', #155, 6.000000000000000888 ) ;
#311 = ORIENTED_EDGE ( 'NONE', *, *, #190, .F. ) ;
#312 = AXIS2_PLACEMENT_3D ( 'NONE', #243, #125, #241 ) ;
#313 = PERSON_AND_ORGANIZATION ( #215, #352 ) ;
#314 = CYLINDRICAL_SURFACE ( 'NONE', #254, 10.00000000000000000 ) ;
#315 = CARTESIAN_POINT ( 'NONE',  ( 0.000000000000000000, 0.000000000000000000, 207.0000000000000284 ) ) ;
#316 = CARTESIAN_POINT ( 'NONE',  ( 0.000000000000000000, 0.000000000000000000, 0.000000000000000000 ) ) ;
#317 = CC_DESIGN_SECURITY_CLASSIFICATION ( #258, ( #376 ) ) ;
#318 = DIRECTION ( 'NONE',  ( 0.000000000000000000, 0.000000000000000000, 1.000000000000000000 ) ) ;
#319 = DIRECTION ( 'NONE',  ( 1.000000000000000000, 0.000000000000000000, 0.000000000000000000 ) ) ;
#320 = CARTESIAN_POINT ( 'NONE',  ( -6.000000000000000888, 0.000000000000000000, 7.500000000000007105 ) ) ;
#321 = ADVANCED_FACE ( 'NONE', ( #297 ), #287, .F. ) ;
#322 = CIRCLE ( 'NONE', #336, 6.500000000000000888 ) ;
#323 = CARTESIAN_POINT ( 'NONE',  ( 0.000000000000000000, 0.000000000000000000, 7.000000000000000000 ) ) ;
#324 = VERTEX_POINT ( 'NONE', #138 ) ;
#325 = EDGE_CURVE ( 'NONE', #48, #80, #44, .T. ) ;
#326 = CARTESIAN_POINT ( 'NONE',  ( 0.000000000000000000, 0.000000000000000000, 207.0000000000000284 ) ) ;
#327 = VERTEX_POINT ( 'NONE', #168 ) ;
#328 = APPLICATION_PROTOCOL_DEFINITION ( 'international standard', 'config_control_design', 1994, #113 ) ;
#329 = ORIENTED_EDGE ( 'NONE', *, *, #142, .F. ) ;
#330 = AXIS2_PLACEMENT_3D ( 'NONE', #96, #34, #370 ) ;
#331 = CARTESIAN_POINT ( 'NONE',  ( 6.000000000000000888, 7.347880794884120722E-16, 207.0000000000000284 ) ) ;
#332 = EDGE_CURVE ( 'NONE', #131, #80, #183, .T. ) ;
#333 = EDGE_LOOP ( 'NONE', ( #245, #98 ) ) ;
#334 = EDGE_LOOP ( 'NONE', ( #73, #134, #358, #308 ) ) ;
#335 = EDGE_CURVE ( 'NONE', #133, #249, #161, .T. ) ;
#336 = AXIS2_PLACEMENT_3D ( 'NONE', #323, #159, #38 ) ;
#337 = DIRECTION ( 'NONE',  ( 0.000000000000000000, 0.000000000000000000, -1.000000000000000000 ) ) ;
#338 = CARTESIAN_POINT ( 'NONE',  ( -6.500000000000000888, 7.960204194457796463E-16, 7.500000000000007105 ) ) ;
#339 = CARTESIAN_POINT ( 'NONE',  ( 0.000000000000000000, 0.000000000000000000, 0.000000000000000000 ) ) ;
#340 = CARTESIAN_POINT ( 'NONE',  ( -10.00000000000000000, 0.000000000000000000, 7.000000000000000000 ) ) ;
#341 = EDGE_CURVE ( 'NONE', #272, #216, #148, .T. ) ;
#342 = VECTOR ( 'NONE', #143, 1000.000000000000000 ) ;
#343 = PERSON_AND_ORGANIZATION_ROLE ( 'creator' ) ;
#344 = ORIENTED_EDGE ( 'NONE', *, *, #208, .F. ) ;
#345 = LOCAL_TIME ( 17, 1, 34.00000000000000000, #24 ) ;
#346 = EDGE_CURVE ( 'NONE', #127, #42, #40, .T. ) ;
#347 = PERSON_AND_ORGANIZATION_ROLE ( 'classification_officer' ) ;
#348 = VERTEX_POINT ( 'NONE', #163 ) ;
#349 = CALENDAR_DATE ( 2022, 8, 7 ) ;
#350 = CARTESIAN_POINT ( 'NONE',  ( 0.000000000000000000, 0.000000000000000000, 7.000000000000000000 ) ) ;
#351 = DIRECTION ( 'NONE',  ( 1.000000000000000000, 0.000000000000000000, -0.000000000000000000 ) ) ;
#352 = ORGANIZATION ( 'NEURÈENÝ', 'NEURÈENÝ', '' ) ;
#353 = CARTESIAN_POINT ( 'NONE',  ( -2.750000000000000000, 0.000000000000000000, 207.0000000000000284 ) ) ;
#354 = CARTESIAN_POINT ( 'NONE',  ( -6.000000000000000888, 0.000000000000000000, 207.0000000000000284 ) ) ;
#355 = DIRECTION ( 'NONE',  ( -0.000000000000000000, -0.000000000000000000, -1.000000000000000000 ) ) ;
#356 = EDGE_CURVE ( 'NONE', #6, #324, #322, .T. ) ;
#357 = LOCAL_TIME ( 17, 1, 34.00000000000000000, #22 ) ;
#358 = ORIENTED_EDGE ( 'NONE', *, *, #273, .T. ) ;
#359 = PRODUCT_DEFINITION_SHAPE ( 'NONE', 'NONE',  #132 ) ;
#360 = ORIENTED_EDGE ( 'NONE', *, *, #51, .F. ) ;
#361 = AXIS2_PLACEMENT_3D ( 'NONE', #18, #220, #306 ) ;
#362 = DIRECTION ( 'NONE',  ( 1.224646799147353207E-16, 1.000000000000000000, -0.000000000000000000 ) ) ;
#363 = ORIENTED_EDGE ( 'NONE', *, *, #303, .F. ) ;
#364 = APPROVAL_PERSON_ORGANIZATION ( #381, #285, #281 ) ;
#365 = ORIENTED_EDGE ( 'NONE', *, *, #20, .F. ) ;
#366 = CIRCLE ( 'NONE', #361, 6.000000000000000888 ) ;
#367 = DIRECTION ( 'NONE',  ( 0.000000000000000000, 0.000000000000000000, -1.000000000000000000 ) ) ;
#368 = ADVANCED_FACE ( 'NONE', ( #60 ), #251, .T. ) ;
#369 = ORIENTED_EDGE ( 'NONE', *, *, #265, .F. ) ;
#370 = DIRECTION ( 'NONE',  ( 1.000000000000000000, 0.000000000000000000, 0.000000000000000000 ) ) ;
#371 = ORIENTED_EDGE ( 'NONE', *, *, #20, .T. ) ;
#372 = DATE_AND_TIME ( #288, #58 ) ;
#373 = ORIENTED_EDGE ( 'NONE', *, *, #325, .F. ) ;
#374 = DATE_AND_TIME ( #173, #268 ) ;
#375 = CARTESIAN_POINT ( 'NONE',  ( 6.000000000000000888, 7.347880794884120722E-16, 207.0000000000000284 ) ) ;
#376 = PRODUCT_DEFINITION_FORMATION_WITH_SPECIFIED_SOURCE ( 'LIBOVOLNÝ', '', #225, .NOT_KNOWN. ) ;
#377 = DATE_TIME_ROLE ( 'creation_date' ) ;
#378 = FACE_BOUND ( 'NONE', #253, .T. ) ;
#379 = PERSON_AND_ORGANIZATION ( #215, #352 ) ;
#380 = DIRECTION ( 'NONE',  ( -1.000000000000000000, 0.000000000000000000, 0.000000000000000000 ) ) ;
#381 = PERSON_AND_ORGANIZATION ( #215, #352 ) ;
ENDSEC;
END-ISO-10303-21;
