ISO-10303-21;
HEADER;
FILE_DESCRIPTION (( 'STEP AP203' ),
    '1' );
FILE_NAME ('4f1f.STEP',
    '2022-07-08T14:55:04',
    ( '' ),
    ( '' ),
    'SwSTEP 2.0',
    'SolidWorks 2019',
    '' );
FILE_SCHEMA (( 'CONFIG_CONTROL_DESIGN' ));
ENDSEC;

DATA;
#1 = CARTESIAN_POINT ( 'NONE',  ( 3.000000000000000444, 3.673940397442059868E-16, 107.0000000000000142 ) ) ;
#2 = CARTESIAN_POINT ( 'NONE',  ( -6.000000000000000888, 0.000000000000000000, 7.500000000000007105 ) ) ;
#3 = AXIS2_PLACEMENT_3D ( 'NONE', #296, #264, #290 ) ;
#4 = MANIFOLD_SOLID_BREP ( 'Odebrat vysunutím3', #141 ) ;
#5 = EDGE_CURVE ( 'NONE', #44, #330, #261, .T. ) ;
#6 = DIRECTION ( 'NONE',  ( 0.000000000000000000, 0.000000000000000000, 1.000000000000000000 ) ) ;
#7 = DIRECTION ( 'NONE',  ( 0.000000000000000000, 0.000000000000000000, 1.000000000000000000 ) ) ;
#8 = DIRECTION ( 'NONE',  ( 1.000000000000000000, 0.000000000000000000, 0.000000000000000000 ) ) ;
#9 = AXIS2_PLACEMENT_3D ( 'NONE', #41, #213, #8 ) ;
#10 = CARTESIAN_POINT ( 'NONE',  ( 0.000000000000000000, 0.000000000000000000, 107.0000000000000142 ) ) ;
#11 = ORIENTED_EDGE ( 'NONE', *, *, #215, .T. ) ;
#12 = APPROVAL ( #253, 'NEURÈENÝ' ) ;
#13 = PERSON_AND_ORGANIZATION_ROLE ( 'design_owner' ) ;
#14 = ORIENTED_EDGE ( 'NONE', *, *, #5, .T. ) ;
#15 = PRODUCT_RELATED_PRODUCT_CATEGORY ( 'detail', '', ( #83 ) ) ;
#16 = AXIS2_PLACEMENT_3D ( 'NONE', #35, #153, #96 ) ;
#17 = ORIENTED_EDGE ( 'NONE', *, *, #297, .T. ) ;
#18 = APPROVAL_DATE_TIME ( #222, #12 ) ;
#19 = ORIENTED_EDGE ( 'NONE', *, *, #233, .T. ) ;
#20 = PERSON_AND_ORGANIZATION_ROLE ( 'creator' ) ;
#21 = EDGE_LOOP ( 'NONE', ( #133, #204, #305, #198 ) ) ;
#22 = DIRECTION ( 'NONE',  ( 1.000000000000000000, 0.000000000000000000, 0.000000000000000000 ) ) ;
#23 = CIRCLE ( 'NONE', #61, 6.500000000000000888 ) ;
#24 = APPROVAL_PERSON_ORGANIZATION ( #29, #372, #310 ) ;
#25 = CALENDAR_DATE ( 2022, 8, 7 ) ;
#26 = DIRECTION ( 'NONE',  ( -0.000000000000000000, -0.000000000000000000, -1.000000000000000000 ) ) ;
#27 = SECURITY_CLASSIFICATION_LEVEL ( 'unclassified' ) ;
#28 = CYLINDRICAL_SURFACE ( 'NONE', #120, 10.00000000000000000 ) ;
#29 = PERSON_AND_ORGANIZATION ( #178, #124 ) ;
#30 = DIRECTION ( 'NONE',  ( 0.000000000000000000, 0.000000000000000000, 1.000000000000000000 ) ) ;
#31 = EDGE_CURVE ( 'NONE', #252, #97, #333, .T. ) ;
#32 = AXIS2_PLACEMENT_3D ( 'NONE', #271, #6, #40 ) ;
#33 = PRODUCT_DEFINITION_FORMATION_WITH_SPECIFIED_SOURCE ( 'LIBOVOLNÝ', '', #83, .NOT_KNOWN. ) ;
#34 = CARTESIAN_POINT ( 'NONE',  ( 0.000000000000000000, 0.000000000000000000, 0.000000000000000000 ) ) ;
#35 = CARTESIAN_POINT ( 'NONE',  ( 0.000000000000000000, 0.000000000000000000, 107.0000000000000142 ) ) ;
#36 = EDGE_CURVE ( 'NONE', #173, #223, #285, .T. ) ;
#37 = FACE_OUTER_BOUND ( 'NONE', #131, .T. ) ;
#38 = AXIS2_PLACEMENT_3D ( 'NONE', #158, #218, #62 ) ;
#39 = APPROVAL_PERSON_ORGANIZATION ( #104, #196, #360 ) ;
#40 = DIRECTION ( 'NONE',  ( 1.000000000000000000, 0.000000000000000000, 0.000000000000000000 ) ) ;
#41 = CARTESIAN_POINT ( 'NONE',  ( 0.000000000000000000, 0.000000000000000000, 7.500000000000007105 ) ) ;
#42 = ORIENTED_EDGE ( 'NONE', *, *, #129, .F. ) ;
#43 = DIRECTION ( 'NONE',  ( 0.000000000000000000, 0.000000000000000000, -1.000000000000000000 ) ) ;
#44 = VERTEX_POINT ( 'NONE', #317 ) ;
#45 = TOROIDAL_SURFACE ( 'NONE', #241, 6.500000000000000888, 0.5000000000000000000 ) ;
#46 = LOCAL_TIME ( 16, 55, 4.000000000000000000, #318 ) ;
#47 = ORIENTED_EDGE ( 'NONE', *, *, #270, .T. ) ;
#48 = DIRECTION ( 'NONE',  ( -0.000000000000000000, -0.000000000000000000, -1.000000000000000000 ) ) ;
#49 = ORIENTED_EDGE ( 'NONE', *, *, #270, .F. ) ;
#50 = ADVANCED_FACE ( 'NONE', ( #53 ), #319, .T. ) ;
#51 = ORIENTED_EDGE ( 'NONE', *, *, #152, .T. ) ;
#52 = VECTOR ( 'NONE', #102, 1000.000000000000000 ) ;
#53 = FACE_OUTER_BOUND ( 'NONE', #99, .T. ) ;
#54 = EDGE_CURVE ( 'NONE', #245, #369, #56, .T. ) ;
#55 = CARTESIAN_POINT ( 'NONE',  ( 10.00000000000000000, 1.224646799147353256E-15, 0.000000000000000000 ) ) ;
#56 = CIRCLE ( 'NONE', #106, 6.000000000000000888 ) ;
#57 = CARTESIAN_POINT ( 'NONE',  ( 6.000000000000000888, 7.347880794884120722E-16, 107.0000000000000142 ) ) ;
#58 = SHAPE_DEFINITION_REPRESENTATION ( #370, #259 ) ;
#59 = CARTESIAN_POINT ( 'NONE',  ( 10.00000000000000000, 1.224646799147353256E-15, 7.000000000000000000 ) ) ;
#60 = DIRECTION ( 'NONE',  ( 1.000000000000000000, 0.000000000000000000, 0.000000000000000000 ) ) ;
#61 = AXIS2_PLACEMENT_3D ( 'NONE', #256, #48, #76 ) ;
#62 = DIRECTION ( 'NONE',  ( 1.000000000000000000, 0.000000000000000000, 0.000000000000000000 ) ) ;
#63 = PRODUCT_DEFINITION ( 'NEZNÁMÝ', '', #33, #145 ) ;
#64 = ORIENTED_EDGE ( 'NONE', *, *, #127, .F. ) ;
#65 = APPLICATION_CONTEXT ( 'configuration controlled 3d designs of mechanical parts and assemblies' ) ;
#66 = DIRECTION ( 'NONE',  ( 1.000000000000000000, 0.000000000000000000, -0.000000000000000000 ) ) ;
#67 = LINE ( 'NONE', #1, #225 ) ;
#68 = AXIS2_PLACEMENT_3D ( 'NONE', #183, #26, #92 ) ;
#69 = CARTESIAN_POINT ( 'NONE',  ( 6.500000000000000888, 0.000000000000000000, 7.000000000000002665 ) ) ;
#70 = EDGE_CURVE ( 'NONE', #369, #252, #170, .T. ) ;
#71 = DIRECTION ( 'NONE',  ( 0.000000000000000000, 0.000000000000000000, 1.000000000000000000 ) ) ;
#72 = CALENDAR_DATE ( 2022, 8, 7 ) ;
#73 = VERTEX_POINT ( 'NONE', #346 ) ;
#74 = AXIS2_PLACEMENT_3D ( 'NONE', #352, #71, #98 ) ;
#75 = APPROVAL_PERSON_ORGANIZATION ( #132, #12, #168 ) ;
#76 = DIRECTION ( 'NONE',  ( 1.000000000000000000, 0.000000000000000000, 0.000000000000000000 ) ) ;
#77 = ORIENTED_EDGE ( 'NONE', *, *, #381, .F. ) ;
#78 = ADVANCED_FACE ( 'NONE', ( #349 ), #175, .T. ) ;
#79 = PLANE ( 'NONE',  #237 ) ;
#80 = ORIENTED_EDGE ( 'NONE', *, *, #381, .T. ) ;
#81 = APPLICATION_PROTOCOL_DEFINITION ( 'international standard', 'config_control_design', 1994, #307 ) ;
#82 = VERTEX_POINT ( 'NONE', #59 ) ;
#83 = PRODUCT ( '4f1f', '4f1f', '', ( #338 ) ) ;
#84 = AXIS2_PLACEMENT_3D ( 'NONE', #239, #149, #210 ) ;
#85 = ORIENTED_EDGE ( 'NONE', *, *, #139, .F. ) ;
#86 = ADVANCED_FACE ( 'NONE', ( #238 ), #28, .T. ) ;
#87 = CARTESIAN_POINT ( 'NONE',  ( -6.500000000000000888, 7.960204194457796463E-16, 7.000000000000002665 ) ) ;
#88 = DIRECTION ( 'NONE',  ( -0.000000000000000000, -0.000000000000000000, -1.000000000000000000 ) ) ;
#89 = PERSON_AND_ORGANIZATION_ROLE ( 'classification_officer' ) ;
#90 = CARTESIAN_POINT ( 'NONE',  ( 0.000000000000000000, 0.000000000000000000, 7.500000000000007105 ) ) ;
#91 = CIRCLE ( 'NONE', #157, 10.00000000000000000 ) ;
#92 = DIRECTION ( 'NONE',  ( 1.000000000000000000, 0.000000000000000000, 0.000000000000000000 ) ) ;
#93 = CALENDAR_DATE ( 2022, 8, 7 ) ;
#94 = DIRECTION ( 'NONE',  ( -1.000000000000000000, 0.000000000000000000, 0.000000000000000000 ) ) ;
#95 = DIRECTION ( 'NONE',  ( -0.000000000000000000, -0.000000000000000000, -1.000000000000000000 ) ) ;
#96 = DIRECTION ( 'NONE',  ( -1.000000000000000000, 0.000000000000000000, 0.000000000000000000 ) ) ;
#97 = VERTEX_POINT ( 'NONE', #87 ) ;
#98 = DIRECTION ( 'NONE',  ( 1.000000000000000000, 0.000000000000000000, 0.000000000000000000 ) ) ;
#99 = EDGE_LOOP ( 'NONE', ( #136, #105, #306, #336 ) ) ;
#100 = DIRECTION ( 'NONE',  ( 0.000000000000000000, 0.000000000000000000, 1.000000000000000000 ) ) ;
#101 = CIRCLE ( 'NONE', #347, 6.000000000000000888 ) ;
#102 = DIRECTION ( 'NONE',  ( -0.000000000000000000, -0.000000000000000000, -1.000000000000000000 ) ) ;
#103 = ORIENTED_EDGE ( 'NONE', *, *, #278, .F. ) ;
#104 = PERSON_AND_ORGANIZATION ( #178, #124 ) ;
#105 = ORIENTED_EDGE ( 'NONE', *, *, #127, .T. ) ;
#106 = AXIS2_PLACEMENT_3D ( 'NONE', #114, #117, #119 ) ;
#107 =( NAMED_UNIT ( * ) SI_UNIT ( $, .STERADIAN. ) SOLID_ANGLE_UNIT ( ) );
#108 = VERTEX_POINT ( 'NONE', #211 ) ;
#109 = EDGE_LOOP ( 'NONE', ( #312, #140 ) ) ;
#110 = CARTESIAN_POINT ( 'NONE',  ( 6.000000000000000888, 7.347880794884120722E-16, 107.0000000000000142 ) ) ;
#111 = ORIENTED_EDGE ( 'NONE', *, *, #291, .T. ) ;
#112 = EDGE_CURVE ( 'NONE', #369, #245, #101, .T. ) ;
#113 = LOCAL_TIME ( 16, 55, 4.000000000000000000, #331 ) ;
#114 = CARTESIAN_POINT ( 'NONE',  ( 0.000000000000000000, 0.000000000000000000, 7.500000000000007105 ) ) ;
#115 = PERSON_AND_ORGANIZATION_ROLE ( 'design_supplier' ) ;
#116 = CARTESIAN_POINT ( 'NONE',  ( -10.00000000000000000, 0.000000000000000000, 7.000000000000000000 ) ) ;
#117 = DIRECTION ( 'NONE',  ( 0.000000000000000000, 0.000000000000000000, 1.000000000000000000 ) ) ;
#118 = EDGE_CURVE ( 'NONE', #108, #332, #201, .T. ) ;
#119 = DIRECTION ( 'NONE',  ( 1.000000000000000000, 0.000000000000000000, 0.000000000000000000 ) ) ;
#120 = AXIS2_PLACEMENT_3D ( 'NONE', #374, #236, #377 ) ;
#121 = DIRECTION ( 'NONE',  ( 0.000000000000000000, 0.000000000000000000, 1.000000000000000000 ) ) ;
#122 = DIRECTION ( 'NONE',  ( -1.000000000000000000, 1.224646799147351482E-16, 0.000000000000000000 ) ) ;
#123 = CARTESIAN_POINT ( 'NONE',  ( 0.000000000000000000, 0.000000000000000000, 107.0000000000000142 ) ) ;
#124 = ORGANIZATION ( 'NEURÈENÝ', 'NEURÈENÝ', '' ) ;
#125 = CYLINDRICAL_SURFACE ( 'NONE', #134, 3.000000000000000444 ) ;
#126 = CARTESIAN_POINT ( 'NONE',  ( 0.000000000000000000, 0.000000000000000000, 107.0000000000000142 ) ) ;
#127 = EDGE_CURVE ( 'NONE', #332, #369, #147, .T. ) ;
#128 = FACE_OUTER_BOUND ( 'NONE', #224, .T. ) ;
#129 = EDGE_CURVE ( 'NONE', #73, #82, #91, .T. ) ;
#130 = COORDINATED_UNIVERSAL_TIME_OFFSET ( 1, 0, .AHEAD. ) ;
#131 = EDGE_LOOP ( 'NONE', ( #162, #287 ) ) ;
#132 = PERSON_AND_ORGANIZATION ( #178, #124 ) ;
#133 = ORIENTED_EDGE ( 'NONE', *, *, #297, .F. ) ;
#134 = AXIS2_PLACEMENT_3D ( 'NONE', #242, #244, #185 ) ;
#135 = DIRECTION ( 'NONE',  ( 1.000000000000000000, 0.000000000000000000, 0.000000000000000000 ) ) ;
#136 = ORIENTED_EDGE ( 'NONE', *, *, #152, .F. ) ;
#137 = CARTESIAN_POINT ( 'NONE',  ( -3.000000000000000444, 0.000000000000000000, 107.0000000000000142 ) ) ;
#138 = EDGE_LOOP ( 'NONE', ( #165, #339 ) ) ;
#139 = EDGE_CURVE ( 'NONE', #366, #357, #304, .T. ) ;
#140 = ORIENTED_EDGE ( 'NONE', *, *, #215, .F. ) ;
#141 = CLOSED_SHELL ( 'NONE', ( #282, #184, #50, #78, #86, #221, #249, #262, #353, #289, #325 ) ) ;
#142 = EDGE_CURVE ( 'NONE', #108, #245, #292, .T. ) ;
#143 = DATE_AND_TIME ( #25, #46 ) ;
#144 = DIRECTION ( 'NONE',  ( 0.000000000000000000, 0.000000000000000000, 1.000000000000000000 ) ) ;
#145 = DESIGN_CONTEXT ( 'detailed design', #65, 'design' ) ;
#146 = APPROVAL_DATE_TIME ( #143, #196 ) ;
#147 = LINE ( 'NONE', #57, #326 ) ;
#148 = AXIS2_PLACEMENT_3D ( 'NONE', #303, #300, #66 ) ;
#149 = DIRECTION ( 'NONE',  ( -0.000000000000000000, -0.000000000000000000, -1.000000000000000000 ) ) ;
#150 = CC_DESIGN_APPROVAL ( #196, ( #33 ) ) ;
#151 = FACE_OUTER_BOUND ( 'NONE', #186, .T. ) ;
#152 = EDGE_CURVE ( 'NONE', #332, #108, #273, .T. ) ;
#153 = DIRECTION ( 'NONE',  ( 0.000000000000000000, 0.000000000000000000, -1.000000000000000000 ) ) ;
#154 = ORIENTED_EDGE ( 'NONE', *, *, #142, .T. ) ;
#155 = CARTESIAN_POINT ( 'NONE',  ( 0.000000000000000000, 0.000000000000000000, 0.000000000000000000 ) ) ;
#156 = ORIENTED_EDGE ( 'NONE', *, *, #227, .T. ) ;
#157 = AXIS2_PLACEMENT_3D ( 'NONE', #268, #177, #294 ) ;
#158 = CARTESIAN_POINT ( 'NONE',  ( 0.000000000000000000, 0.000000000000000000, 0.000000000000000000 ) ) ;
#159 = PLANE ( 'NONE',  #148 ) ;
#160 = ORIENTED_EDGE ( 'NONE', *, *, #166, .T. ) ;
#161 =( NAMED_UNIT ( * ) PLANE_ANGLE_UNIT ( ) SI_UNIT ( $, .RADIAN. ) );
#162 = ORIENTED_EDGE ( 'NONE', *, *, #291, .F. ) ;
#163 = AXIS2_PLACEMENT_3D ( 'NONE', #155, #193, #321 ) ;
#164 = DATE_AND_TIME ( #72, #248 ) ;
#165 = ORIENTED_EDGE ( 'NONE', *, *, #31, .T. ) ;
#166 = EDGE_CURVE ( 'NONE', #73, #223, #263, .T. ) ;
#167 = ORIENTED_EDGE ( 'NONE', *, *, #139, .T. ) ;
#168 = APPROVAL_ROLE ( '' ) ;
#169 = EDGE_LOOP ( 'NONE', ( #275, #42, #160, #111 ) ) ;
#170 = CIRCLE ( 'NONE', #3, 0.5000000000000004441 ) ;
#171 = PERSON_AND_ORGANIZATION ( #178, #124 ) ;
#172 = PERSON_AND_ORGANIZATION ( #178, #124 ) ;
#173 = VERTEX_POINT ( 'NONE', #55 ) ;
#174 = COORDINATED_UNIVERSAL_TIME_OFFSET ( 1, 0, .AHEAD. ) ;
#175 = CYLINDRICAL_SURFACE ( 'NONE', #267, 10.00000000000000000 ) ;
#176 = AXIS2_PLACEMENT_3D ( 'NONE', #126, #100, #246 ) ;
#177 = DIRECTION ( 'NONE',  ( 0.000000000000000000, 0.000000000000000000, 1.000000000000000000 ) ) ;
#178 = PERSON ( 'NEURÈENÝ', 'NEURÈENÝ', 'NEURÈENÝ', ('NEURÈENÝ'), ('NEURÈENÝ'), ('NEURÈENÝ') ) ;
#179 = CARTESIAN_POINT ( 'NONE',  ( 0.000000000000000000, 0.000000000000000000, 0.000000000000000000 ) ) ;
#180 = PERSON_AND_ORGANIZATION ( #178, #124 ) ;
#181 = DIRECTION ( 'NONE',  ( 0.000000000000000000, 0.000000000000000000, 1.000000000000000000 ) ) ;
#182 = AXIS2_PLACEMENT_3D ( 'NONE', #348, #373, #60 ) ;
#183 = CARTESIAN_POINT ( 'NONE',  ( 0.000000000000000000, 0.000000000000000000, 7.000000000000000000 ) ) ;
#184 = ADVANCED_FACE ( 'NONE', ( #128 ), #45, .F. ) ;
#185 = DIRECTION ( 'NONE',  ( -1.000000000000000000, 0.000000000000000000, 0.000000000000000000 ) ) ;
#186 = EDGE_LOOP ( 'NONE', ( #14, #47, #167, #77 ) ) ;
#187 = CARTESIAN_POINT ( 'NONE',  ( -10.00000000000000000, 0.000000000000000000, 0.000000000000000000 ) ) ;
#188 = CC_DESIGN_PERSON_AND_ORGANIZATION_ASSIGNMENT ( #203, #368, ( #63 ) ) ;
#189 = FACE_OUTER_BOUND ( 'NONE', #257, .T. ) ;
#190 = TOROIDAL_SURFACE ( 'NONE', #9, 6.500000000000000888, 0.5000000000000000000 ) ;
#191 = DIRECTION ( 'NONE',  ( -1.000000000000000000, 0.000000000000000000, 0.000000000000000000 ) ) ;
#192 = EDGE_LOOP ( 'NONE', ( #103, #19, #328, #337 ) ) ;
#193 = DIRECTION ( 'NONE',  ( 0.000000000000000000, 0.000000000000000000, 1.000000000000000000 ) ) ;
#194 = ORIENTED_EDGE ( 'NONE', *, *, #118, .T. ) ;
#195 = FACE_OUTER_BOUND ( 'NONE', #272, .T. ) ;
#196 = APPROVAL ( #251, 'NEURÈENÝ' ) ;
#197 = AXIS2_PLACEMENT_3D ( 'NONE', #34, #144, #234 ) ;
#198 = ORIENTED_EDGE ( 'NONE', *, *, #344, .F. ) ;
#199 = CARTESIAN_POINT ( 'NONE',  ( -3.000000000000000444, 0.000000000000000000, 0.000000000000000000 ) ) ;
#200 =( LENGTH_UNIT ( ) NAMED_UNIT ( * ) SI_UNIT ( .MILLI., .METRE. ) );
#201 = CIRCLE ( 'NONE', #247, 6.000000000000000888 ) ;
#202 = LOCAL_TIME ( 16, 55, 4.000000000000000000, #174 ) ;
#203 = PERSON_AND_ORGANIZATION ( #178, #124 ) ;
#204 = ORIENTED_EDGE ( 'NONE', *, *, #112, .F. ) ;
#205 = DIRECTION ( 'NONE',  ( -0.000000000000000000, -0.000000000000000000, -1.000000000000000000 ) ) ;
#206 = CC_DESIGN_PERSON_AND_ORGANIZATION_ASSIGNMENT ( #171, #13, ( #83 ) ) ;
#207 = DIRECTION ( 'NONE',  ( 1.000000000000000000, 0.000000000000000000, 0.000000000000000000 ) ) ;
#208 = VECTOR ( 'NONE', #88, 1000.000000000000000 ) ;
#209 = DIRECTION ( 'NONE',  ( 1.000000000000000000, 0.000000000000000000, 0.000000000000000000 ) ) ;
#210 = DIRECTION ( 'NONE',  ( -1.000000000000000000, 0.000000000000000000, 0.000000000000000000 ) ) ;
#211 = CARTESIAN_POINT ( 'NONE',  ( -6.000000000000000888, 0.000000000000000000, 107.0000000000000142 ) ) ;
#212 =( GEOMETRIC_REPRESENTATION_CONTEXT ( 3 ) GLOBAL_UNCERTAINTY_ASSIGNED_CONTEXT ( ( #375 ) ) GLOBAL_UNIT_ASSIGNED_CONTEXT ( ( #200, #161, #107 ) ) REPRESENTATION_CONTEXT ( 'NONE', 'WORKASPACE' ) );
#213 = DIRECTION ( 'NONE',  ( 0.000000000000000000, 0.000000000000000000, 1.000000000000000000 ) ) ;
#214 = CARTESIAN_POINT ( 'NONE',  ( 3.000000000000000444, 3.673940397442059868E-16, 107.0000000000000142 ) ) ;
#215 = EDGE_CURVE ( 'NONE', #330, #44, #219, .T. ) ;
#216 = LINE ( 'NONE', #354, #52 ) ;
#217 = ORIENTED_EDGE ( 'NONE', *, *, #227, .F. ) ;
#218 = DIRECTION ( 'NONE',  ( -0.000000000000000000, -0.000000000000000000, -1.000000000000000000 ) ) ;
#219 = CIRCLE ( 'NONE', #176, 3.000000000000000444 ) ;
#220 = DIRECTION ( 'NONE',  ( 1.224646799147353207E-16, 1.000000000000000000, -0.000000000000000000 ) ) ;
#221 = ADVANCED_FACE ( 'NONE', ( #276, #327 ), #159, .T. ) ;
#222 = DATE_AND_TIME ( #286, #113 ) ;
#223 = VERTEX_POINT ( 'NONE', #187 ) ;
#224 = EDGE_LOOP ( 'NONE', ( #258, #17, #334, #324 ) ) ;
#225 = VECTOR ( 'NONE', #274, 1000.000000000000000 ) ;
#226 = FACE_BOUND ( 'NONE', #109, .T. ) ;
#227 = EDGE_CURVE ( 'NONE', #357, #366, #363, .T. ) ;
#228 = CARTESIAN_POINT ( 'NONE',  ( 0.000000000000000000, 0.000000000000000000, 0.000000000000000000 ) ) ;
#229 = ORIENTED_EDGE ( 'NONE', *, *, #129, .T. ) ;
#230 = LOCAL_TIME ( 16, 55, 4.000000000000000000, #232 ) ;
#231 = DIRECTION ( 'NONE',  ( -0.000000000000000000, -0.000000000000000000, -1.000000000000000000 ) ) ;
#232 = COORDINATED_UNIVERSAL_TIME_OFFSET ( 1, 0, .AHEAD. ) ;
#233 = EDGE_CURVE ( 'NONE', #82, #173, #216, .T. ) ;
#234 = DIRECTION ( 'NONE',  ( 1.000000000000000000, 0.000000000000000000, 0.000000000000000000 ) ) ;
#235 = DATE_TIME_ROLE ( 'classification_date' ) ;
#236 = DIRECTION ( 'NONE',  ( -0.000000000000000000, -0.000000000000000000, -1.000000000000000000 ) ) ;
#237 = AXIS2_PLACEMENT_3D ( 'NONE', #10, #283, #284 ) ;
#238 = FACE_OUTER_BOUND ( 'NONE', #169, .T. ) ;
#239 = CARTESIAN_POINT ( 'NONE',  ( 0.000000000000000000, 0.000000000000000000, 107.0000000000000142 ) ) ;
#240 = CYLINDRICAL_SURFACE ( 'NONE', #16, 3.000000000000000444 ) ;
#241 = AXIS2_PLACEMENT_3D ( 'NONE', #277, #7, #351 ) ;
#242 = CARTESIAN_POINT ( 'NONE',  ( 0.000000000000000000, 0.000000000000000000, 107.0000000000000142 ) ) ;
#243 = ORIENTED_EDGE ( 'NONE', *, *, #54, .T. ) ;
#244 = DIRECTION ( 'NONE',  ( 0.000000000000000000, 0.000000000000000000, -1.000000000000000000 ) ) ;
#245 = VERTEX_POINT ( 'NONE', #2 ) ;
#246 = DIRECTION ( 'NONE',  ( 1.000000000000000000, 0.000000000000000000, 0.000000000000000000 ) ) ;
#247 = AXIS2_PLACEMENT_3D ( 'NONE', #380, #121, #207 ) ;
#248 = LOCAL_TIME ( 16, 55, 4.000000000000000000, #130 ) ;
#249 = ADVANCED_FACE ( 'NONE', ( #298, #37 ), #323, .F. ) ;
#250 = DIRECTION ( 'NONE',  ( 0.000000000000000000, 0.000000000000000000, 1.000000000000000000 ) ) ;
#251 = APPROVAL_STATUS ( 'not_yet_approved' ) ;
#252 = VERTEX_POINT ( 'NONE', #69 ) ;
#253 = APPROVAL_STATUS ( 'not_yet_approved' ) ;
#254 = ORIENTED_EDGE ( 'NONE', *, *, #118, .F. ) ;
#255 = AXIS2_PLACEMENT_3D ( 'NONE', #123, #95, #191 ) ;
#256 = CARTESIAN_POINT ( 'NONE',  ( 0.000000000000000000, 0.000000000000000000, 7.000000000000000000 ) ) ;
#257 = EDGE_LOOP ( 'NONE', ( #64, #254, #154, #243 ) ) ;
#258 = ORIENTED_EDGE ( 'NONE', *, *, #54, .F. ) ;
#259 = ADVANCED_BREP_SHAPE_REPRESENTATION ( '4f1f', ( #4, #379 ), #212 ) ;
#260 = CARTESIAN_POINT ( 'NONE',  ( 0.000000000000000000, 0.000000000000000000, 7.000000000000000000 ) ) ;
#261 = CIRCLE ( 'NONE', #182, 3.000000000000000444 ) ;
#262 = ADVANCED_FACE ( 'NONE', ( #189 ), #329, .T. ) ;
#263 = LINE ( 'NONE', #116, #295 ) ;
#264 = DIRECTION ( 'NONE',  ( 0.000000000000000000, -1.000000000000000000, 0.000000000000000000 ) ) ;
#265 = CALENDAR_DATE ( 2022, 8, 7 ) ;
#266 = CARTESIAN_POINT ( 'NONE',  ( 0.000000000000000000, 0.000000000000000000, 107.0000000000000142 ) ) ;
#267 = AXIS2_PLACEMENT_3D ( 'NONE', #260, #231, #94 ) ;
#268 = CARTESIAN_POINT ( 'NONE',  ( 0.000000000000000000, 0.000000000000000000, 7.000000000000000000 ) ) ;
#269 = FACE_OUTER_BOUND ( 'NONE', #364, .T. ) ;
#270 = EDGE_CURVE ( 'NONE', #330, #366, #67, .T. ) ;
#271 = CARTESIAN_POINT ( 'NONE',  ( 0.000000000000000000, 0.000000000000000000, 7.000000000000000000 ) ) ;
#272 = EDGE_LOOP ( 'NONE', ( #194, #51 ) ) ;
#273 = CIRCLE ( 'NONE', #378, 6.000000000000000888 ) ;
#274 = DIRECTION ( 'NONE',  ( 0.000000000000000000, 0.000000000000000000, -1.000000000000000000 ) ) ;
#275 = ORIENTED_EDGE ( 'NONE', *, *, #233, .F. ) ;
#276 = FACE_BOUND ( 'NONE', #138, .T. ) ;
#277 = CARTESIAN_POINT ( 'NONE',  ( 0.000000000000000000, 0.000000000000000000, 7.500000000000007105 ) ) ;
#278 = EDGE_CURVE ( 'NONE', #82, #73, #299, .T. ) ;
#279 = VECTOR ( 'NONE', #43, 1000.000000000000000 ) ;
#280 = EDGE_LOOP ( 'NONE', ( #229, #355 ) ) ;
#281 = DATE_TIME_ROLE ( 'creation_date' ) ;
#282 = ADVANCED_FACE ( 'NONE', ( #151 ), #125, .F. ) ;
#283 = DIRECTION ( 'NONE',  ( 0.000000000000000000, 0.000000000000000000, 1.000000000000000000 ) ) ;
#284 = DIRECTION ( 'NONE',  ( 1.000000000000000000, 0.000000000000000000, -0.000000000000000000 ) ) ;
#285 = CIRCLE ( 'NONE', #197, 10.00000000000000000 ) ;
#286 = CALENDAR_DATE ( 2022, 8, 7 ) ;
#287 = ORIENTED_EDGE ( 'NONE', *, *, #36, .F. ) ;
#288 = APPROVAL_DATE_TIME ( #376, #372 ) ;
#289 = ADVANCED_FACE ( 'NONE', ( #302 ), #190, .F. ) ;
#290 = DIRECTION ( 'NONE',  ( 0.000000000000000000, 0.000000000000000000, -1.000000000000000000 ) ) ;
#291 = EDGE_CURVE ( 'NONE', #223, #173, #371, .T. ) ;
#292 = LINE ( 'NONE', #313, #208 ) ;
#293 = DATE_AND_TIME ( #93, #202 ) ;
#294 = DIRECTION ( 'NONE',  ( 1.000000000000000000, 0.000000000000000000, 0.000000000000000000 ) ) ;
#295 = VECTOR ( 'NONE', #314, 1000.000000000000000 ) ;
#296 = CARTESIAN_POINT ( 'NONE',  ( 6.500000000000000888, 0.000000000000000000, 7.500000000000007105 ) ) ;
#297 = EDGE_CURVE ( 'NONE', #245, #97, #340, .T. ) ;
#298 = FACE_BOUND ( 'NONE', #361, .T. ) ;
#299 = CIRCLE ( 'NONE', #32, 10.00000000000000000 ) ;
#300 = DIRECTION ( 'NONE',  ( 0.000000000000000000, 0.000000000000000000, 1.000000000000000000 ) ) ;
#301 = CC_DESIGN_PERSON_AND_ORGANIZATION_ASSIGNMENT ( #180, #89, ( #365 ) ) ;
#302 = FACE_OUTER_BOUND ( 'NONE', #21, .T. ) ;
#303 = CARTESIAN_POINT ( 'NONE',  ( 0.000000000000000000, 0.000000000000000000, 7.000000000000000000 ) ) ;
#304 = CIRCLE ( 'NONE', #309, 3.000000000000000444 ) ;
#305 = ORIENTED_EDGE ( 'NONE', *, *, #70, .T. ) ;
#306 = ORIENTED_EDGE ( 'NONE', *, *, #112, .T. ) ;
#307 = APPLICATION_CONTEXT ( 'configuration controlled 3d designs of mechanical parts and assemblies' ) ;
#308 = LINE ( 'NONE', #137, #279 ) ;
#309 = AXIS2_PLACEMENT_3D ( 'NONE', #179, #205, #343 ) ;
#310 = APPROVAL_ROLE ( '' ) ;
#311 = CC_DESIGN_DATE_AND_TIME_ASSIGNMENT ( #293, #235, ( #365 ) ) ;
#312 = ORIENTED_EDGE ( 'NONE', *, *, #5, .F. ) ;
#313 = CARTESIAN_POINT ( 'NONE',  ( -6.000000000000000888, 0.000000000000000000, 107.0000000000000142 ) ) ;
#314 = DIRECTION ( 'NONE',  ( -0.000000000000000000, -0.000000000000000000, -1.000000000000000000 ) ) ;
#315 = CC_DESIGN_SECURITY_CLASSIFICATION ( #365, ( #33 ) ) ;
#316 = APPROVAL_STATUS ( 'not_yet_approved' ) ;
#317 = CARTESIAN_POINT ( 'NONE',  ( -3.000000000000000444, 0.000000000000000000, 107.0000000000000142 ) ) ;
#318 = COORDINATED_UNIVERSAL_TIME_OFFSET ( 1, 0, .AHEAD. ) ;
#319 = CYLINDRICAL_SURFACE ( 'NONE', #84, 6.000000000000000888 ) ;
#320 = CC_DESIGN_APPROVAL ( #372, ( #365 ) ) ;
#321 = DIRECTION ( 'NONE',  ( 1.000000000000000000, 0.000000000000000000, -0.000000000000000000 ) ) ;
#322 = CC_DESIGN_DATE_AND_TIME_ASSIGNMENT ( #164, #281, ( #63 ) ) ;
#323 = PLANE ( 'NONE',  #163 ) ;
#324 = ORIENTED_EDGE ( 'NONE', *, *, #70, .F. ) ;
#325 = ADVANCED_FACE ( 'NONE', ( #269 ), #240, .F. ) ;
#326 = VECTOR ( 'NONE', #342, 1000.000000000000000 ) ;
#327 = FACE_OUTER_BOUND ( 'NONE', #280, .T. ) ;
#328 = ORIENTED_EDGE ( 'NONE', *, *, #36, .T. ) ;
#329 = CYLINDRICAL_SURFACE ( 'NONE', #255, 6.000000000000000888 ) ;
#330 = VERTEX_POINT ( 'NONE', #214 ) ;
#331 = COORDINATED_UNIVERSAL_TIME_OFFSET ( 1, 0, .AHEAD. ) ;
#332 = VERTEX_POINT ( 'NONE', #110 ) ;
#333 = CIRCLE ( 'NONE', #68, 6.500000000000000888 ) ;
#334 = ORIENTED_EDGE ( 'NONE', *, *, #31, .F. ) ;
#335 = CARTESIAN_POINT ( 'NONE',  ( 3.000000000000000444, 3.673940397442059868E-16, 0.000000000000000000 ) ) ;
#336 = ORIENTED_EDGE ( 'NONE', *, *, #142, .F. ) ;
#337 = ORIENTED_EDGE ( 'NONE', *, *, #166, .F. ) ;
#338 = MECHANICAL_CONTEXT ( 'NONE', #307, 'mechanical' ) ;
#339 = ORIENTED_EDGE ( 'NONE', *, *, #344, .T. ) ;
#340 = CIRCLE ( 'NONE', #350, 0.5000000000000004441 ) ;
#341 = CC_DESIGN_APPROVAL ( #12, ( #63 ) ) ;
#342 = DIRECTION ( 'NONE',  ( -0.000000000000000000, -0.000000000000000000, -1.000000000000000000 ) ) ;
#343 = DIRECTION ( 'NONE',  ( 1.000000000000000000, 0.000000000000000000, 0.000000000000000000 ) ) ;
#344 = EDGE_CURVE ( 'NONE', #97, #252, #23, .T. ) ;
#345 = PERSON_AND_ORGANIZATION ( #178, #124 ) ;
#346 = CARTESIAN_POINT ( 'NONE',  ( -10.00000000000000000, 0.000000000000000000, 7.000000000000000000 ) ) ;
#347 = AXIS2_PLACEMENT_3D ( 'NONE', #90, #181, #209 ) ;
#348 = CARTESIAN_POINT ( 'NONE',  ( 0.000000000000000000, 0.000000000000000000, 107.0000000000000142 ) ) ;
#349 = FACE_OUTER_BOUND ( 'NONE', #192, .T. ) ;
#350 = AXIS2_PLACEMENT_3D ( 'NONE', #356, #220, #122 ) ;
#351 = DIRECTION ( 'NONE',  ( 1.000000000000000000, 0.000000000000000000, 0.000000000000000000 ) ) ;
#352 = CARTESIAN_POINT ( 'NONE',  ( 0.000000000000000000, 0.000000000000000000, 0.000000000000000000 ) ) ;
#353 = ADVANCED_FACE ( 'NONE', ( #226, #195 ), #79, .T. ) ;
#354 = CARTESIAN_POINT ( 'NONE',  ( 10.00000000000000000, 1.224646799147353256E-15, 7.000000000000000000 ) ) ;
#355 = ORIENTED_EDGE ( 'NONE', *, *, #278, .T. ) ;
#356 = CARTESIAN_POINT ( 'NONE',  ( -6.500000000000000888, 7.960204194457796463E-16, 7.500000000000007105 ) ) ;
#357 = VERTEX_POINT ( 'NONE', #199 ) ;
#358 = APPLICATION_PROTOCOL_DEFINITION ( 'international standard', 'config_control_design', 1994, #65 ) ;
#359 = CC_DESIGN_PERSON_AND_ORGANIZATION_ASSIGNMENT ( #345, #115, ( #33 ) ) ;
#360 = APPROVAL_ROLE ( '' ) ;
#361 = EDGE_LOOP ( 'NONE', ( #217, #85 ) ) ;
#362 = CARTESIAN_POINT ( 'NONE',  ( 6.000000000000000888, 7.347880794884120722E-16, 7.500000000000007105 ) ) ;
#363 = CIRCLE ( 'NONE', #38, 3.000000000000000444 ) ;
#364 = EDGE_LOOP ( 'NONE', ( #49, #11, #80, #156 ) ) ;
#365 = SECURITY_CLASSIFICATION ( '', '', #27 ) ;
#366 = VERTEX_POINT ( 'NONE', #335 ) ;
#367 = CC_DESIGN_PERSON_AND_ORGANIZATION_ASSIGNMENT ( #172, #20, ( #33 ) ) ;
#368 = PERSON_AND_ORGANIZATION_ROLE ( 'creator' ) ;
#369 = VERTEX_POINT ( 'NONE', #362 ) ;
#370 = PRODUCT_DEFINITION_SHAPE ( 'NONE', 'NONE',  #63 ) ;
#371 = CIRCLE ( 'NONE', #74, 10.00000000000000000 ) ;
#372 = APPROVAL ( #316, 'NEURÈENÝ' ) ;
#373 = DIRECTION ( 'NONE',  ( 0.000000000000000000, 0.000000000000000000, 1.000000000000000000 ) ) ;
#374 = CARTESIAN_POINT ( 'NONE',  ( 0.000000000000000000, 0.000000000000000000, 7.000000000000000000 ) ) ;
#375 = UNCERTAINTY_MEASURE_WITH_UNIT (LENGTH_MEASURE( 1.000000000000000082E-05 ), #200, 'distance_accuracy_value', 'NONE');
#376 = DATE_AND_TIME ( #265, #230 ) ;
#377 = DIRECTION ( 'NONE',  ( -1.000000000000000000, 0.000000000000000000, 0.000000000000000000 ) ) ;
#378 = AXIS2_PLACEMENT_3D ( 'NONE', #266, #30, #22 ) ;
#379 = AXIS2_PLACEMENT_3D ( 'NONE', #228, #250, #135 ) ;
#380 = CARTESIAN_POINT ( 'NONE',  ( 0.000000000000000000, 0.000000000000000000, 107.0000000000000142 ) ) ;
#381 = EDGE_CURVE ( 'NONE', #44, #357, #308, .T. ) ;
ENDSEC;
END-ISO-10303-21;
