ISO-10303-21;
HEADER;
FILE_DESCRIPTION (( 'STEP AP203' ),
    '1' );
FILE_NAME ('8490.STEP',
    '2022-07-08T14:59:25',
    ( '' ),
    ( '' ),
    'SwSTEP 2.0',
    'SolidWorks 2019',
    '' );
FILE_SCHEMA (( 'CONFIG_CONTROL_DESIGN' ));
ENDSEC;

DATA;
#1 = CIRCLE ( 'NONE', #199, 10.00000000000000000 ) ;
#2 = EDGE_CURVE ( 'NONE', #344, #189, #100, .T. ) ;
#3 = APPROVAL_STATUS ( 'not_yet_approved' ) ;
#4 = CYLINDRICAL_SURFACE ( 'NONE', #216, 10.00000000000000000 ) ;
#5 = DIRECTION ( 'NONE',  ( 1.224646799147353207E-16, 1.000000000000000000, -0.000000000000000000 ) ) ;
#6 = APPLICATION_PROTOCOL_DEFINITION ( 'international standard', 'config_control_design', 1994, #215 ) ;
#7 = DIRECTION ( 'NONE',  ( 0.000000000000000000, 0.000000000000000000, -1.000000000000000000 ) ) ;
#8 = APPROVAL ( #354, 'NEURÈENÝ' ) ;
#9 = APPROVAL_PERSON_ORGANIZATION ( #322, #168, #29 ) ;
#10 = LINE ( 'NONE', #38, #128 ) ;
#11 = ORIENTED_EDGE ( 'NONE', *, *, #203, .F. ) ;
#12 = CC_DESIGN_PERSON_AND_ORGANIZATION_ASSIGNMENT ( #359, #53, ( #13 ) ) ;
#13 = PRODUCT ( '8490', '8490', '', ( #14 ) ) ;
#14 = MECHANICAL_CONTEXT ( 'NONE', #182, 'mechanical' ) ;
#15 = CIRCLE ( 'NONE', #243, 0.5000000000000004441 ) ;
#16 = EDGE_LOOP ( 'NONE', ( #80, #348, #309, #45 ) ) ;
#17 = DIRECTION ( 'NONE',  ( -0.000000000000000000, -0.000000000000000000, -1.000000000000000000 ) ) ;
#18 = CYLINDRICAL_SURFACE ( 'NONE', #208, 6.000000000000000888 ) ;
#19 = EDGE_LOOP ( 'NONE', ( #350, #192, #158, #107 ) ) ;
#20 = CARTESIAN_POINT ( 'NONE',  ( 0.000000000000000000, 0.000000000000000000, 0.000000000000000000 ) ) ;
#21 = ORIENTED_EDGE ( 'NONE', *, *, #343, .F. ) ;
#22 = LOCAL_TIME ( 16, 59, 25.00000000000000000, #295 ) ;
#23 = ORIENTED_EDGE ( 'NONE', *, *, #48, .F. ) ;
#24 = APPROVAL_ROLE ( '' ) ;
#25 = DIRECTION ( 'NONE',  ( 0.000000000000000000, 0.000000000000000000, -1.000000000000000000 ) ) ;
#26 = ADVANCED_FACE ( 'NONE', ( #154 ), #4, .T. ) ;
#27 = DIRECTION ( 'NONE',  ( -1.000000000000000000, 0.000000000000000000, 0.000000000000000000 ) ) ;
#28 = SECURITY_CLASSIFICATION ( '', '', #115 ) ;
#29 = APPROVAL_ROLE ( '' ) ;
#30 = FACE_BOUND ( 'NONE', #196, .T. ) ;
#31 = DATE_AND_TIME ( #293, #22 ) ;
#32 = EDGE_CURVE ( 'NONE', #249, #170, #314, .T. ) ;
#33 = CARTESIAN_POINT ( 'NONE',  ( 0.000000000000000000, 0.000000000000000000, 7.000000000000000000 ) ) ;
#34 = CARTESIAN_POINT ( 'NONE',  ( 0.000000000000000000, 0.000000000000000000, 807.0000000000000000 ) ) ;
#35 = CC_DESIGN_APPROVAL ( #287, ( #367 ) ) ;
#36 = ORIENTED_EDGE ( 'NONE', *, *, #310, .T. ) ;
#37 = EDGE_CURVE ( 'NONE', #170, #249, #323, .T. ) ;
#38 = CARTESIAN_POINT ( 'NONE',  ( -2.750000000000000000, 0.000000000000000000, 807.0000000000000000 ) ) ;
#39 = CARTESIAN_POINT ( 'NONE',  ( -6.000000000000000888, 0.000000000000000000, 7.499999999999951150 ) ) ;
#40 = EDGE_CURVE ( 'NONE', #82, #373, #290, .T. ) ;
#41 = DIRECTION ( 'NONE',  ( -0.000000000000000000, -0.000000000000000000, -1.000000000000000000 ) ) ;
#42 = AXIS2_PLACEMENT_3D ( 'NONE', #34, #7, #58 ) ;
#43 = EDGE_LOOP ( 'NONE', ( #365, #313, #304, #11 ) ) ;
#44 = CARTESIAN_POINT ( 'NONE',  ( 0.000000000000000000, 0.000000000000000000, 0.000000000000000000 ) ) ;
#45 = ORIENTED_EDGE ( 'NONE', *, *, #113, .F. ) ;
#46 = DIRECTION ( 'NONE',  ( 0.000000000000000000, 0.000000000000000000, 1.000000000000000000 ) ) ;
#47 = ORIENTED_EDGE ( 'NONE', *, *, #122, .T. ) ;
#48 = EDGE_CURVE ( 'NONE', #144, #163, #161, .T. ) ;
#49 = DIRECTION ( 'NONE',  ( 0.000000000000000000, 0.000000000000000000, -1.000000000000000000 ) ) ;
#50 = ORIENTED_EDGE ( 'NONE', *, *, #303, .F. ) ;
#51 = ORIENTED_EDGE ( 'NONE', *, *, #203, .T. ) ;
#52 = ORGANIZATION ( 'NEURÈENÝ', 'NEURÈENÝ', '' ) ;
#53 = PERSON_AND_ORGANIZATION_ROLE ( 'design_owner' ) ;
#54 = FACE_OUTER_BOUND ( 'NONE', #43, .T. ) ;
#55 = SHAPE_DEFINITION_REPRESENTATION ( #337, #87 ) ;
#56 = CARTESIAN_POINT ( 'NONE',  ( 6.000000000000000888, 7.347880794884120722E-16, 807.0000000000000000 ) ) ;
#57 = COORDINATED_UNIVERSAL_TIME_OFFSET ( 1, 0, .AHEAD. ) ;
#58 = DIRECTION ( 'NONE',  ( -1.000000000000000000, 0.000000000000000000, 0.000000000000000000 ) ) ;
#59 = CIRCLE ( 'NONE', #332, 6.000000000000000888 ) ;
#60 = LOCAL_TIME ( 16, 59, 25.00000000000000000, #85 ) ;
#61 = APPROVAL_DATE_TIME ( #201, #8 ) ;
#62 = CARTESIAN_POINT ( 'NONE',  ( 2.750000000000000000, 3.367778697655221012E-16, 807.0000000000000000 ) ) ;
#63 = DIRECTION ( 'NONE',  ( 1.000000000000000000, 0.000000000000000000, -0.000000000000000000 ) ) ;
#64 = AXIS2_PLACEMENT_3D ( 'NONE', #155, #324, #239 ) ;
#65 = DIRECTION ( 'NONE',  ( -0.000000000000000000, -0.000000000000000000, -1.000000000000000000 ) ) ;
#66 = VECTOR ( 'NONE', #41, 1000.000000000000000 ) ;
#67 = CARTESIAN_POINT ( 'NONE',  ( 0.000000000000000000, 0.000000000000000000, 7.499999999999951150 ) ) ;
#68 = ADVANCED_FACE ( 'NONE', ( #84, #355 ), #296, .T. ) ;
#69 = DIRECTION ( 'NONE',  ( 0.000000000000000000, 0.000000000000000000, 1.000000000000000000 ) ) ;
#70 = EDGE_CURVE ( 'NONE', #225, #346, #185, .T. ) ;
#71 = CIRCLE ( 'NONE', #148, 6.000000000000000888 ) ;
#72 = CARTESIAN_POINT ( 'NONE',  ( -2.750000000000000000, 0.000000000000000000, 807.0000000000000000 ) ) ;
#73 = DIRECTION ( 'NONE',  ( 1.000000000000000000, 0.000000000000000000, 0.000000000000000000 ) ) ;
#74 = ORIENTED_EDGE ( 'NONE', *, *, #184, .T. ) ;
#75 = CARTESIAN_POINT ( 'NONE',  ( 0.000000000000000000, 0.000000000000000000, 0.000000000000000000 ) ) ;
#76 = DIRECTION ( 'NONE',  ( 1.000000000000000000, 0.000000000000000000, -0.000000000000000000 ) ) ;
#77 = EDGE_LOOP ( 'NONE', ( #94, #47, #291, #308 ) ) ;
#78 = ADVANCED_FACE ( 'NONE', ( #54 ), #178, .F. ) ;
#79 = CARTESIAN_POINT ( 'NONE',  ( -6.000000000000000888, 0.000000000000000000, 807.0000000000000000 ) ) ;
#80 = ORIENTED_EDGE ( 'NONE', *, *, #122, .F. ) ;
#81 = LINE ( 'NONE', #377, #235 ) ;
#82 = VERTEX_POINT ( 'NONE', #379 ) ;
#83 = CC_DESIGN_PERSON_AND_ORGANIZATION_ASSIGNMENT ( #273, #380, ( #367 ) ) ;
#84 = FACE_BOUND ( 'NONE', #174, .T. ) ;
#85 = COORDINATED_UNIVERSAL_TIME_OFFSET ( 1, 0, .AHEAD. ) ;
#86 = DIRECTION ( 'NONE',  ( -0.000000000000000000, -0.000000000000000000, -1.000000000000000000 ) ) ;
#87 = ADVANCED_BREP_SHAPE_REPRESENTATION ( '8490', ( #316, #285 ), #101 ) ;
#88 = DESIGN_CONTEXT ( 'detailed design', #215, 'design' ) ;
#89 = DIRECTION ( 'NONE',  ( 0.000000000000000000, 0.000000000000000000, 1.000000000000000000 ) ) ;
#90 = CARTESIAN_POINT ( 'NONE',  ( 0.000000000000000000, 0.000000000000000000, 807.0000000000000000 ) ) ;
#91 = AXIS2_PLACEMENT_3D ( 'NONE', #186, #302, #363 ) ;
#92 = DIRECTION ( 'NONE',  ( 1.000000000000000000, 0.000000000000000000, 0.000000000000000000 ) ) ;
#93 = CYLINDRICAL_SURFACE ( 'NONE', #109, 10.00000000000000000 ) ;
#94 = ORIENTED_EDGE ( 'NONE', *, *, #184, .F. ) ;
#95 = AXIS2_PLACEMENT_3D ( 'NONE', #44, #46, #372 ) ;
#96 = DIRECTION ( 'NONE',  ( 0.000000000000000000, 0.000000000000000000, 1.000000000000000000 ) ) ;
#97 = CC_DESIGN_DATE_AND_TIME_ASSIGNMENT ( #234, #232, ( #28 ) ) ;
#98 = AXIS2_PLACEMENT_3D ( 'NONE', #119, #149, #329 ) ;
#99 = DIRECTION ( 'NONE',  ( 1.000000000000000000, 0.000000000000000000, 0.000000000000000000 ) ) ;
#100 = CIRCLE ( 'NONE', #358, 2.750000000000000000 ) ;
#101 =( GEOMETRIC_REPRESENTATION_CONTEXT ( 3 ) GLOBAL_UNCERTAINTY_ASSIGNED_CONTEXT ( ( #238 ) ) GLOBAL_UNIT_ASSIGNED_CONTEXT ( ( #191, #259, #162 ) ) REPRESENTATION_CONTEXT ( 'NONE', 'WORKASPACE' ) );
#102 = APPLICATION_PROTOCOL_DEFINITION ( 'international standard', 'config_control_design', 1994, #182 ) ;
#103 = EDGE_LOOP ( 'NONE', ( #36, #223 ) ) ;
#104 = ORIENTED_EDGE ( 'NONE', *, *, #242, .F. ) ;
#105 = FACE_OUTER_BOUND ( 'NONE', #139, .T. ) ;
#106 = ADVANCED_FACE ( 'NONE', ( #30, #116 ), #124, .T. ) ;
#107 = ORIENTED_EDGE ( 'NONE', *, *, #242, .T. ) ;
#108 = DIRECTION ( 'NONE',  ( -0.000000000000000000, -0.000000000000000000, -1.000000000000000000 ) ) ;
#109 = AXIS2_PLACEMENT_3D ( 'NONE', #331, #65, #333 ) ;
#110 = VERTEX_POINT ( 'NONE', #233 ) ;
#111 = CARTESIAN_POINT ( 'NONE',  ( 6.000000000000000888, 7.347880794884120722E-16, 807.0000000000000000 ) ) ;
#112 = VERTEX_POINT ( 'NONE', #153 ) ;
#113 = EDGE_CURVE ( 'NONE', #110, #373, #374, .T. ) ;
#114 = DIRECTION ( 'NONE',  ( -0.000000000000000000, -0.000000000000000000, -1.000000000000000000 ) ) ;
#115 = SECURITY_CLASSIFICATION_LEVEL ( 'unclassified' ) ;
#116 = FACE_OUTER_BOUND ( 'NONE', #103, .T. ) ;
#117 = LOCAL_TIME ( 16, 59, 25.00000000000000000, #57 ) ;
#118 = COORDINATED_UNIVERSAL_TIME_OFFSET ( 1, 0, .AHEAD. ) ;
#119 = CARTESIAN_POINT ( 'NONE',  ( 0.000000000000000000, 0.000000000000000000, 807.0000000000000000 ) ) ;
#120 = APPROVAL_DATE_TIME ( #145, #168 ) ;
#121 = CARTESIAN_POINT ( 'NONE',  ( -6.000000000000000888, 0.000000000000000000, 807.0000000000000000 ) ) ;
#122 = EDGE_CURVE ( 'NONE', #264, #110, #15, .T. ) ;
#123 = PERSON_AND_ORGANIZATION ( #328, #52 ) ;
#124 = PLANE ( 'NONE',  #190 ) ;
#125 = AXIS2_PLACEMENT_3D ( 'NONE', #90, #25, #327 ) ;
#126 = FACE_OUTER_BOUND ( 'NONE', #19, .T. ) ;
#127 = DIRECTION ( 'NONE',  ( 0.000000000000000000, 0.000000000000000000, -1.000000000000000000 ) ) ;
#128 = VECTOR ( 'NONE', #127, 1000.000000000000000 ) ;
#129 = LOCAL_TIME ( 16, 59, 25.00000000000000000, #118 ) ;
#130 = CARTESIAN_POINT ( 'NONE',  ( 2.750000000000000000, 3.367778697655221012E-16, 0.000000000000000000 ) ) ;
#131 = CARTESIAN_POINT ( 'NONE',  ( 0.000000000000000000, 0.000000000000000000, 7.499999999999951150 ) ) ;
#132 = CARTESIAN_POINT ( 'NONE',  ( 0.000000000000000000, 0.000000000000000000, 0.000000000000000000 ) ) ;
#133 = APPROVAL_PERSON_ORGANIZATION ( #352, #8, #171 ) ;
#134 = EDGE_LOOP ( 'NONE', ( #378, #137, #51, #341 ) ) ;
#135 = CC_DESIGN_PERSON_AND_ORGANIZATION_ASSIGNMENT ( #152, #240, ( #28 ) ) ;
#136 = CARTESIAN_POINT ( 'NONE',  ( 0.000000000000000000, 0.000000000000000000, 7.499999999999951150 ) ) ;
#137 = ORIENTED_EDGE ( 'NONE', *, *, #37, .T. ) ;
#138 = CARTESIAN_POINT ( 'NONE',  ( -2.750000000000000000, 0.000000000000000000, 0.000000000000000000 ) ) ;
#139 = EDGE_LOOP ( 'NONE', ( #104, #50 ) ) ;
#140 = DIRECTION ( 'NONE',  ( -0.000000000000000000, -0.000000000000000000, -1.000000000000000000 ) ) ;
#141 = APPROVAL_PERSON_ORGANIZATION ( #123, #287, #24 ) ;
#142 = ORIENTED_EDGE ( 'NONE', *, *, #37, .F. ) ;
#143 = EDGE_CURVE ( 'NONE', #163, #144, #71, .T. ) ;
#144 = VERTEX_POINT ( 'NONE', #121 ) ;
#145 = DATE_AND_TIME ( #297, #117 ) ;
#146 = FACE_OUTER_BOUND ( 'NONE', #311, .T. ) ;
#147 = PERSON_AND_ORGANIZATION ( #328, #52 ) ;
#148 = AXIS2_PLACEMENT_3D ( 'NONE', #351, #357, #176 ) ;
#149 = DIRECTION ( 'NONE',  ( 0.000000000000000000, 0.000000000000000000, 1.000000000000000000 ) ) ;
#150 = AXIS2_PLACEMENT_3D ( 'NONE', #20, #307, #76 ) ;
#151 = ADVANCED_FACE ( 'NONE', ( #241 ), #294, .F. ) ;
#152 = PERSON_AND_ORGANIZATION ( #328, #52 ) ;
#153 = CARTESIAN_POINT ( 'NONE',  ( -10.00000000000000000, 0.000000000000000000, 0.000000000000000000 ) ) ;
#154 = FACE_OUTER_BOUND ( 'NONE', #281, .T. ) ;
#155 = CARTESIAN_POINT ( 'NONE',  ( 6.500000000000000888, 0.000000000000000000, 7.499999999999951150 ) ) ;
#156 = ADVANCED_FACE ( 'NONE', ( #146 ), #268, .T. ) ;
#157 = AXIS2_PLACEMENT_3D ( 'NONE', #306, #213, #335 ) ;
#158 = ORIENTED_EDGE ( 'NONE', *, *, #330, .T. ) ;
#159 = VECTOR ( 'NONE', #301, 1000.000000000000000 ) ;
#160 = CC_DESIGN_PERSON_AND_ORGANIZATION_ASSIGNMENT ( #325, #180, ( #252 ) ) ;
#161 = CIRCLE ( 'NONE', #253, 6.000000000000000888 ) ;
#162 =( NAMED_UNIT ( * ) SI_UNIT ( $, .STERADIAN. ) SOLID_ANGLE_UNIT ( ) );
#163 = VERTEX_POINT ( 'NONE', #56 ) ;
#164 = LINE ( 'NONE', #261, #360 ) ;
#165 = EDGE_LOOP ( 'NONE', ( #286, #212 ) ) ;
#166 = FACE_BOUND ( 'NONE', #246, .T. ) ;
#167 = ORIENTED_EDGE ( 'NONE', *, *, #70, .T. ) ;
#168 = APPROVAL ( #3, 'NEURÈENÝ' ) ;
#169 = AXIS2_PLACEMENT_3D ( 'NONE', #321, #89, #181 ) ;
#170 = VERTEX_POINT ( 'NONE', #62 ) ;
#171 = APPROVAL_ROLE ( '' ) ;
#172 = CIRCLE ( 'NONE', #366, 6.000000000000000888 ) ;
#173 = VECTOR ( 'NONE', #140, 1000.000000000000000 ) ;
#174 = EDGE_LOOP ( 'NONE', ( #228, #142 ) ) ;
#175 = CALENDAR_DATE ( 2022, 8, 7 ) ;
#176 = DIRECTION ( 'NONE',  ( 1.000000000000000000, 0.000000000000000000, 0.000000000000000000 ) ) ;
#177 = CALENDAR_DATE ( 2022, 8, 7 ) ;
#178 = CYLINDRICAL_SURFACE ( 'NONE', #42, 2.750000000000000000 ) ;
#179 = EDGE_CURVE ( 'NONE', #82, #264, #59, .T. ) ;
#180 = PERSON_AND_ORGANIZATION_ROLE ( 'creator' ) ;
#181 = DIRECTION ( 'NONE',  ( 1.000000000000000000, 0.000000000000000000, 0.000000000000000000 ) ) ;
#182 = APPLICATION_CONTEXT ( 'configuration controlled 3d designs of mechanical parts and assemblies' ) ;
#183 = DIRECTION ( 'NONE',  ( 1.000000000000000000, 0.000000000000000000, 0.000000000000000000 ) ) ;
#184 = EDGE_CURVE ( 'NONE', #264, #82, #172, .T. ) ;
#185 = LINE ( 'NONE', #298, #159 ) ;
#186 = CARTESIAN_POINT ( 'NONE',  ( 0.000000000000000000, 0.000000000000000000, 0.000000000000000000 ) ) ;
#187 = DIRECTION ( 'NONE',  ( 1.000000000000000000, 0.000000000000000000, 0.000000000000000000 ) ) ;
#188 = DIRECTION ( 'NONE',  ( 1.000000000000000000, 0.000000000000000000, 0.000000000000000000 ) ) ;
#189 = VERTEX_POINT ( 'NONE', #130 ) ;
#190 = AXIS2_PLACEMENT_3D ( 'NONE', #200, #353, #244 ) ;
#191 =( LENGTH_UNIT ( ) NAMED_UNIT ( * ) SI_UNIT ( .MILLI., .METRE. ) );
#192 = ORIENTED_EDGE ( 'NONE', *, *, #310, .F. ) ;
#193 = TOROIDAL_SURFACE ( 'NONE', #248, 6.500000000000000888, 0.5000000000000000000 ) ;
#194 = LOCAL_TIME ( 16, 59, 25.00000000000000000, #269 ) ;
#195 = CARTESIAN_POINT ( 'NONE',  ( 0.000000000000000000, 0.000000000000000000, 7.000000000000000000 ) ) ;
#196 = EDGE_LOOP ( 'NONE', ( #221, #198 ) ) ;
#197 = ORIENTED_EDGE ( 'NONE', *, *, #2, .F. ) ;
#198 = ORIENTED_EDGE ( 'NONE', *, *, #113, .T. ) ;
#199 = AXIS2_PLACEMENT_3D ( 'NONE', #195, #222, #188 ) ;
#200 = CARTESIAN_POINT ( 'NONE',  ( 0.000000000000000000, 0.000000000000000000, 7.000000000000000000 ) ) ;
#201 = DATE_AND_TIME ( #177, #60 ) ;
#202 = DIRECTION ( 'NONE',  ( -1.000000000000000000, 0.000000000000000000, 0.000000000000000000 ) ) ;
#203 = EDGE_CURVE ( 'NONE', #249, #344, #10, .T. ) ;
#204 = CALENDAR_DATE ( 2022, 8, 7 ) ;
#205 = DIRECTION ( 'NONE',  ( 0.000000000000000000, 0.000000000000000000, 1.000000000000000000 ) ) ;
#206 = DATE_AND_TIME ( #204, #194 ) ;
#207 = DIRECTION ( 'NONE',  ( -0.000000000000000000, -0.000000000000000000, -1.000000000000000000 ) ) ;
#208 = AXIS2_PLACEMENT_3D ( 'NONE', #227, #345, #220 ) ;
#209 = ADVANCED_FACE ( 'NONE', ( #368 ), #193, .F. ) ;
#210 = DIRECTION ( 'NONE',  ( -1.000000000000000000, 1.224646799147351482E-16, 0.000000000000000000 ) ) ;
#211 = DIRECTION ( 'NONE',  ( 1.000000000000000000, 0.000000000000000000, 0.000000000000000000 ) ) ;
#212 = ORIENTED_EDGE ( 'NONE', *, *, #143, .T. ) ;
#213 = DIRECTION ( 'NONE',  ( 0.000000000000000000, 0.000000000000000000, 1.000000000000000000 ) ) ;
#214 = CC_DESIGN_PERSON_AND_ORGANIZATION_ASSIGNMENT ( #147, #266, ( #367 ) ) ;
#215 = APPLICATION_CONTEXT ( 'configuration controlled 3d designs of mechanical parts and assemblies' ) ;
#216 = AXIS2_PLACEMENT_3D ( 'NONE', #361, #207, #27 ) ;
#217 = CLOSED_SHELL ( 'NONE', ( #78, #299, #315, #26, #265, #106, #336, #156, #68, #209, #151 ) ) ;
#218 = CARTESIAN_POINT ( 'NONE',  ( -10.00000000000000000, 0.000000000000000000, 7.000000000000000000 ) ) ;
#219 = TOROIDAL_SURFACE ( 'NONE', #318, 6.500000000000000888, 0.5000000000000000000 ) ;
#220 = DIRECTION ( 'NONE',  ( -1.000000000000000000, 0.000000000000000000, 0.000000000000000000 ) ) ;
#221 = ORIENTED_EDGE ( 'NONE', *, *, #280, .T. ) ;
#222 = DIRECTION ( 'NONE',  ( 0.000000000000000000, 0.000000000000000000, 1.000000000000000000 ) ) ;
#223 = ORIENTED_EDGE ( 'NONE', *, *, #229, .T. ) ;
#224 = CARTESIAN_POINT ( 'NONE',  ( 10.00000000000000000, 1.224646799147353256E-15, 0.000000000000000000 ) ) ;
#225 = VERTEX_POINT ( 'NONE', #279 ) ;
#226 = CC_DESIGN_APPROVAL ( #168, ( #252 ) ) ;
#227 = CARTESIAN_POINT ( 'NONE',  ( 0.000000000000000000, 0.000000000000000000, 807.0000000000000000 ) ) ;
#228 = ORIENTED_EDGE ( 'NONE', *, *, #32, .F. ) ;
#229 = EDGE_CURVE ( 'NONE', #225, #256, #305, .T. ) ;
#230 = DIRECTION ( 'NONE',  ( 1.000000000000000000, 0.000000000000000000, 0.000000000000000000 ) ) ;
#231 = ORIENTED_EDGE ( 'NONE', *, *, #143, .F. ) ;
#232 = DATE_TIME_ROLE ( 'classification_date' ) ;
#233 = CARTESIAN_POINT ( 'NONE',  ( -6.500000000000000888, 7.960204194457796463E-16, 6.999999999999975131 ) ) ;
#234 = DATE_AND_TIME ( #175, #129 ) ;
#235 = VECTOR ( 'NONE', #49, 1000.000000000000000 ) ;
#236 = CARTESIAN_POINT ( 'NONE',  ( 0.000000000000000000, 0.000000000000000000, 807.0000000000000000 ) ) ;
#237 = DATE_TIME_ROLE ( 'creation_date' ) ;
#238 = UNCERTAINTY_MEASURE_WITH_UNIT (LENGTH_MEASURE( 1.000000000000000082E-05 ), #191, 'distance_accuracy_value', 'NONE');
#239 = DIRECTION ( 'NONE',  ( 0.000000000000000000, 0.000000000000000000, -1.000000000000000000 ) ) ;
#240 = PERSON_AND_ORGANIZATION_ROLE ( 'classification_officer' ) ;
#241 = FACE_OUTER_BOUND ( 'NONE', #134, .T. ) ;
#242 = EDGE_CURVE ( 'NONE', #112, #346, #370, .T. ) ;
#243 = AXIS2_PLACEMENT_3D ( 'NONE', #272, #5, #210 ) ;
#244 = DIRECTION ( 'NONE',  ( 1.000000000000000000, 0.000000000000000000, -0.000000000000000000 ) ) ;
#245 = DIRECTION ( 'NONE',  ( 0.000000000000000000, 0.000000000000000000, 1.000000000000000000 ) ) ;
#246 = EDGE_LOOP ( 'NONE', ( #197, #371 ) ) ;
#247 = EDGE_CURVE ( 'NONE', #189, #344, #255, .T. ) ;
#248 = AXIS2_PLACEMENT_3D ( 'NONE', #67, #96, #211 ) ;
#249 = VERTEX_POINT ( 'NONE', #72 ) ;
#250 = CC_DESIGN_APPROVAL ( #8, ( #28 ) ) ;
#251 = DIRECTION ( 'NONE',  ( -0.000000000000000000, -0.000000000000000000, -1.000000000000000000 ) ) ;
#252 = PRODUCT_DEFINITION ( 'NEZNÁMÝ', '', #367, #88 ) ;
#253 = AXIS2_PLACEMENT_3D ( 'NONE', #274, #320, #183 ) ;
#254 = DIRECTION ( 'NONE',  ( 1.000000000000000000, 0.000000000000000000, 0.000000000000000000 ) ) ;
#255 = CIRCLE ( 'NONE', #339, 2.750000000000000000 ) ;
#256 = VERTEX_POINT ( 'NONE', #218 ) ;
#257 = DIRECTION ( 'NONE',  ( 0.000000000000000000, 0.000000000000000000, 1.000000000000000000 ) ) ;
#258 = ORIENTED_EDGE ( 'NONE', *, *, #277, .T. ) ;
#259 =( NAMED_UNIT ( * ) PLANE_ANGLE_UNIT ( ) SI_UNIT ( $, .RADIAN. ) );
#260 = ORIENTED_EDGE ( 'NONE', *, *, #303, .T. ) ;
#261 = CARTESIAN_POINT ( 'NONE',  ( -10.00000000000000000, 0.000000000000000000, 7.000000000000000000 ) ) ;
#262 = ORIENTED_EDGE ( 'NONE', *, *, #277, .F. ) ;
#263 = APPROVAL_STATUS ( 'not_yet_approved' ) ;
#264 = VERTEX_POINT ( 'NONE', #39 ) ;
#265 = ADVANCED_FACE ( 'NONE', ( #126 ), #93, .T. ) ;
#266 = PERSON_AND_ORGANIZATION_ROLE ( 'creator' ) ;
#267 = AXIS2_PLACEMENT_3D ( 'NONE', #33, #114, #92 ) ;
#268 = CYLINDRICAL_SURFACE ( 'NONE', #275, 6.000000000000000888 ) ;
#269 = COORDINATED_UNIVERSAL_TIME_OFFSET ( 1, 0, .AHEAD. ) ;
#270 = CIRCLE ( 'NONE', #95, 10.00000000000000000 ) ;
#271 = DIRECTION ( 'NONE',  ( 1.000000000000000000, 0.000000000000000000, 0.000000000000000000 ) ) ;
#272 = CARTESIAN_POINT ( 'NONE',  ( -6.500000000000000888, 7.960204194457796463E-16, 7.499999999999951150 ) ) ;
#273 = PERSON_AND_ORGANIZATION ( #328, #52 ) ;
#274 = CARTESIAN_POINT ( 'NONE',  ( 0.000000000000000000, 0.000000000000000000, 807.0000000000000000 ) ) ;
#275 = AXIS2_PLACEMENT_3D ( 'NONE', #236, #86, #202 ) ;
#276 = AXIS2_PLACEMENT_3D ( 'NONE', #340, #108, #73 ) ;
#277 = EDGE_CURVE ( 'NONE', #163, #82, #364, .T. ) ;
#278 = CARTESIAN_POINT ( 'NONE',  ( 0.000000000000000000, 0.000000000000000000, 0.000000000000000000 ) ) ;
#279 = CARTESIAN_POINT ( 'NONE',  ( 10.00000000000000000, 1.224646799147353256E-15, 7.000000000000000000 ) ) ;
#280 = EDGE_CURVE ( 'NONE', #373, #110, #326, .T. ) ;
#281 = EDGE_LOOP ( 'NONE', ( #284, #167, #260, #317 ) ) ;
#282 = AXIS2_PLACEMENT_3D ( 'NONE', #381, #205, #63 ) ;
#283 = CARTESIAN_POINT ( 'NONE',  ( 6.500000000000000888, 0.000000000000000000, 6.999999999999975131 ) ) ;
#284 = ORIENTED_EDGE ( 'NONE', *, *, #229, .F. ) ;
#285 = AXIS2_PLACEMENT_3D ( 'NONE', #132, #257, #254 ) ;
#286 = ORIENTED_EDGE ( 'NONE', *, *, #48, .T. ) ;
#287 = APPROVAL ( #263, 'NEURÈENÝ' ) ;
#288 = PLANE ( 'NONE',  #150 ) ;
#289 = ORIENTED_EDGE ( 'NONE', *, *, #343, .T. ) ;
#290 = CIRCLE ( 'NONE', #64, 0.5000000000000004441 ) ;
#291 = ORIENTED_EDGE ( 'NONE', *, *, #280, .F. ) ;
#292 = EDGE_LOOP ( 'NONE', ( #231, #258, #376, #21 ) ) ;
#293 = CALENDAR_DATE ( 2022, 8, 7 ) ;
#294 = CYLINDRICAL_SURFACE ( 'NONE', #125, 2.750000000000000000 ) ;
#295 = COORDINATED_UNIVERSAL_TIME_OFFSET ( 1, 0, .AHEAD. ) ;
#296 = PLANE ( 'NONE',  #282 ) ;
#297 = CALENDAR_DATE ( 2022, 8, 7 ) ;
#298 = CARTESIAN_POINT ( 'NONE',  ( 10.00000000000000000, 1.224646799147353256E-15, 7.000000000000000000 ) ) ;
#299 = ADVANCED_FACE ( 'NONE', ( #375 ), #219, .F. ) ;
#300 = CARTESIAN_POINT ( 'NONE',  ( 0.000000000000000000, 0.000000000000000000, 7.499999999999951150 ) ) ;
#301 = DIRECTION ( 'NONE',  ( -0.000000000000000000, -0.000000000000000000, -1.000000000000000000 ) ) ;
#302 = DIRECTION ( 'NONE',  ( 0.000000000000000000, 0.000000000000000000, 1.000000000000000000 ) ) ;
#303 = EDGE_CURVE ( 'NONE', #346, #112, #270, .T. ) ;
#304 = ORIENTED_EDGE ( 'NONE', *, *, #247, .T. ) ;
#305 = CIRCLE ( 'NONE', #157, 10.00000000000000000 ) ;
#306 = CARTESIAN_POINT ( 'NONE',  ( 0.000000000000000000, 0.000000000000000000, 7.000000000000000000 ) ) ;
#307 = DIRECTION ( 'NONE',  ( 0.000000000000000000, 0.000000000000000000, 1.000000000000000000 ) ) ;
#308 = ORIENTED_EDGE ( 'NONE', *, *, #40, .F. ) ;
#309 = ORIENTED_EDGE ( 'NONE', *, *, #40, .T. ) ;
#310 = EDGE_CURVE ( 'NONE', #256, #225, #1, .T. ) ;
#311 = EDGE_LOOP ( 'NONE', ( #262, #23, #289, #74 ) ) ;
#312 = DIRECTION ( 'NONE',  ( 0.000000000000000000, 0.000000000000000000, 1.000000000000000000 ) ) ;
#313 = ORIENTED_EDGE ( 'NONE', *, *, #369, .T. ) ;
#314 = CIRCLE ( 'NONE', #169, 2.750000000000000000 ) ;
#315 = ADVANCED_FACE ( 'NONE', ( #347 ), #18, .T. ) ;
#316 = MANIFOLD_SOLID_BREP ( 'Odebrat vysunutím3', #217 ) ;
#317 = ORIENTED_EDGE ( 'NONE', *, *, #330, .F. ) ;
#318 = AXIS2_PLACEMENT_3D ( 'NONE', #136, #312, #230 ) ;
#319 = APPROVAL_DATE_TIME ( #206, #287 ) ;
#320 = DIRECTION ( 'NONE',  ( 0.000000000000000000, 0.000000000000000000, 1.000000000000000000 ) ) ;
#321 = CARTESIAN_POINT ( 'NONE',  ( 0.000000000000000000, 0.000000000000000000, 807.0000000000000000 ) ) ;
#322 = PERSON_AND_ORGANIZATION ( #328, #52 ) ;
#323 = CIRCLE ( 'NONE', #98, 2.750000000000000000 ) ;
#324 = DIRECTION ( 'NONE',  ( 0.000000000000000000, -1.000000000000000000, 0.000000000000000000 ) ) ;
#325 = PERSON_AND_ORGANIZATION ( #328, #52 ) ;
#326 = CIRCLE ( 'NONE', #276, 6.500000000000000888 ) ;
#327 = DIRECTION ( 'NONE',  ( -1.000000000000000000, 0.000000000000000000, 0.000000000000000000 ) ) ;
#328 = PERSON ( 'NEURÈENÝ', 'NEURÈENÝ', 'NEURÈENÝ', ('NEURÈENÝ'), ('NEURÈENÝ'), ('NEURÈENÝ') ) ;
#329 = DIRECTION ( 'NONE',  ( 1.000000000000000000, 0.000000000000000000, 0.000000000000000000 ) ) ;
#330 = EDGE_CURVE ( 'NONE', #256, #112, #164, .T. ) ;
#331 = CARTESIAN_POINT ( 'NONE',  ( 0.000000000000000000, 0.000000000000000000, 7.000000000000000000 ) ) ;
#332 = AXIS2_PLACEMENT_3D ( 'NONE', #300, #245, #187 ) ;
#333 = DIRECTION ( 'NONE',  ( -1.000000000000000000, 0.000000000000000000, 0.000000000000000000 ) ) ;
#334 = CC_DESIGN_SECURITY_CLASSIFICATION ( #28, ( #367 ) ) ;
#335 = DIRECTION ( 'NONE',  ( 1.000000000000000000, 0.000000000000000000, 0.000000000000000000 ) ) ;
#336 = ADVANCED_FACE ( 'NONE', ( #166, #105 ), #288, .F. ) ;
#337 = PRODUCT_DEFINITION_SHAPE ( 'NONE', 'NONE',  #252 ) ;
#338 = DIRECTION ( 'NONE',  ( 1.000000000000000000, 0.000000000000000000, 0.000000000000000000 ) ) ;
#339 = AXIS2_PLACEMENT_3D ( 'NONE', #278, #251, #99 ) ;
#340 = CARTESIAN_POINT ( 'NONE',  ( 0.000000000000000000, 0.000000000000000000, 7.000000000000000000 ) ) ;
#341 = ORIENTED_EDGE ( 'NONE', *, *, #2, .T. ) ;
#342 = LINE ( 'NONE', #79, #173 ) ;
#343 = EDGE_CURVE ( 'NONE', #144, #264, #342, .T. ) ;
#344 = VERTEX_POINT ( 'NONE', #138 ) ;
#345 = DIRECTION ( 'NONE',  ( -0.000000000000000000, -0.000000000000000000, -1.000000000000000000 ) ) ;
#346 = VERTEX_POINT ( 'NONE', #224 ) ;
#347 = FACE_OUTER_BOUND ( 'NONE', #292, .T. ) ;
#348 = ORIENTED_EDGE ( 'NONE', *, *, #179, .F. ) ;
#349 = DIRECTION ( 'NONE',  ( -0.000000000000000000, -0.000000000000000000, -1.000000000000000000 ) ) ;
#350 = ORIENTED_EDGE ( 'NONE', *, *, #70, .F. ) ;
#351 = CARTESIAN_POINT ( 'NONE',  ( 0.000000000000000000, 0.000000000000000000, 807.0000000000000000 ) ) ;
#352 = PERSON_AND_ORGANIZATION ( #328, #52 ) ;
#353 = DIRECTION ( 'NONE',  ( 0.000000000000000000, 0.000000000000000000, 1.000000000000000000 ) ) ;
#354 = APPROVAL_STATUS ( 'not_yet_approved' ) ;
#355 = FACE_OUTER_BOUND ( 'NONE', #165, .T. ) ;
#356 = CC_DESIGN_DATE_AND_TIME_ASSIGNMENT ( #31, #237, ( #252 ) ) ;
#357 = DIRECTION ( 'NONE',  ( 0.000000000000000000, 0.000000000000000000, 1.000000000000000000 ) ) ;
#358 = AXIS2_PLACEMENT_3D ( 'NONE', #75, #17, #271 ) ;
#359 = PERSON_AND_ORGANIZATION ( #328, #52 ) ;
#360 = VECTOR ( 'NONE', #349, 1000.000000000000000 ) ;
#361 = CARTESIAN_POINT ( 'NONE',  ( 0.000000000000000000, 0.000000000000000000, 7.000000000000000000 ) ) ;
#362 = PRODUCT_RELATED_PRODUCT_CATEGORY ( 'detail', '', ( #13 ) ) ;
#363 = DIRECTION ( 'NONE',  ( 1.000000000000000000, 0.000000000000000000, 0.000000000000000000 ) ) ;
#364 = LINE ( 'NONE', #111, #66 ) ;
#365 = ORIENTED_EDGE ( 'NONE', *, *, #32, .T. ) ;
#366 = AXIS2_PLACEMENT_3D ( 'NONE', #131, #69, #338 ) ;
#367 = PRODUCT_DEFINITION_FORMATION_WITH_SPECIFIED_SOURCE ( 'LIBOVOLNÝ', '', #13, .NOT_KNOWN. ) ;
#368 = FACE_OUTER_BOUND ( 'NONE', #16, .T. ) ;
#369 = EDGE_CURVE ( 'NONE', #170, #189, #81, .T. ) ;
#370 = CIRCLE ( 'NONE', #91, 10.00000000000000000 ) ;
#371 = ORIENTED_EDGE ( 'NONE', *, *, #247, .F. ) ;
#372 = DIRECTION ( 'NONE',  ( 1.000000000000000000, 0.000000000000000000, 0.000000000000000000 ) ) ;
#373 = VERTEX_POINT ( 'NONE', #283 ) ;
#374 = CIRCLE ( 'NONE', #267, 6.500000000000000888 ) ;
#375 = FACE_OUTER_BOUND ( 'NONE', #77, .T. ) ;
#376 = ORIENTED_EDGE ( 'NONE', *, *, #179, .T. ) ;
#377 = CARTESIAN_POINT ( 'NONE',  ( 2.750000000000000000, 3.367778697655221012E-16, 807.0000000000000000 ) ) ;
#378 = ORIENTED_EDGE ( 'NONE', *, *, #369, .F. ) ;
#379 = CARTESIAN_POINT ( 'NONE',  ( 6.000000000000000888, 7.347880794884120722E-16, 7.499999999999951150 ) ) ;
#380 = PERSON_AND_ORGANIZATION_ROLE ( 'design_supplier' ) ;
#381 = CARTESIAN_POINT ( 'NONE',  ( 0.000000000000000000, 0.000000000000000000, 807.0000000000000000 ) ) ;
ENDSEC;
END-ISO-10303-21;
