ISO-10303-21;
HEADER;
FILE_DESCRIPTION (( 'STEP AP203' ),
    '1' );
FILE_NAME ('4951.STEP',
    '2022-07-08T15:27:02',
    ( '' ),
    ( '' ),
    'SwSTEP 2.0',
    'SolidWorks 2019',
    '' );
FILE_SCHEMA (( 'CONFIG_CONTROL_DESIGN' ));
ENDSEC;

DATA;
#1 = CLOSED_SHELL ( 'NONE', ( #85, #90, #316, #181, #80, #135, #235, #224, #221, #229, #165 ) ) ;
#2 = ORIENTED_EDGE ( 'NONE', *, *, #12, .F. ) ;
#3 = CIRCLE ( 'NONE', #199, 0.5000000000000004441 ) ;
#4 = APPROVAL ( #324, 'NEURÈENÝ' ) ;
#5 = EDGE_LOOP ( 'NONE', ( #121, #66, #237, #354 ) ) ;
#6 = ORIENTED_EDGE ( 'NONE', *, *, #174, .T. ) ;
#7 = PERSON_AND_ORGANIZATION_ROLE ( 'design_owner' ) ;
#8 = ORIENTED_EDGE ( 'NONE', *, *, #349, .T. ) ;
#9 = DATE_TIME_ROLE ( 'creation_date' ) ;
#10 = EDGE_LOOP ( 'NONE', ( #265, #296, #8, #162 ) ) ;
#11 = CARTESIAN_POINT ( 'NONE',  ( 0.000000000000000000, 0.000000000000000000, 5.000000000000000000 ) ) ;
#12 = EDGE_CURVE ( 'NONE', #35, #230, #279, .T. ) ;
#13 = CARTESIAN_POINT ( 'NONE',  ( 0.000000000000000000, 0.000000000000000000, 0.000000000000000000 ) ) ;
#14 = CC_DESIGN_PERSON_AND_ORGANIZATION_ASSIGNMENT ( #303, #55, ( #70 ) ) ;
#15 = CARTESIAN_POINT ( 'NONE',  ( 0.000000000000000000, 0.000000000000000000, 5.000000000000000000 ) ) ;
#16 = PRODUCT_RELATED_PRODUCT_CATEGORY ( 'detail', '', ( #64 ) ) ;
#17 = DIRECTION ( 'NONE',  ( 0.000000000000000000, 0.000000000000000000, -1.000000000000000000 ) ) ;
#18 = EDGE_CURVE ( 'NONE', #36, #153, #359, .T. ) ;
#19 = DIRECTION ( 'NONE',  ( -0.000000000000000000, -0.000000000000000000, -1.000000000000000000 ) ) ;
#20 = AXIS2_PLACEMENT_3D ( 'NONE', #25, #120, #261 ) ;
#21 = DIRECTION ( 'NONE',  ( 1.000000000000000000, 0.000000000000000000, 0.000000000000000000 ) ) ;
#22 = PERSON_AND_ORGANIZATION ( #288, #158 ) ;
#23 = CC_DESIGN_DATE_AND_TIME_ASSIGNMENT ( #280, #9, ( #70 ) ) ;
#24 = LINE ( 'NONE', #118, #269 ) ;
#25 = CARTESIAN_POINT ( 'NONE',  ( 0.000000000000000000, 0.000000000000000000, 5.500000000000005329 ) ) ;
#26 = CIRCLE ( 'NONE', #214, 7.000000000000000000 ) ;
#27 = PRODUCT_DEFINITION_FORMATION_WITH_SPECIFIED_SOURCE ( 'LIBOVOLNÝ', '', #64, .NOT_KNOWN. ) ;
#28 = APPROVAL_DATE_TIME ( #207, #163 ) ;
#29 = CARTESIAN_POINT ( 'NONE',  ( 0.000000000000000000, 0.000000000000000000, 355.0000000000000000 ) ) ;
#30 = ORIENTED_EDGE ( 'NONE', *, *, #45, .F. ) ;
#31 = COORDINATED_UNIVERSAL_TIME_OFFSET ( 1, 0, .AHEAD. ) ;
#32 = DIRECTION ( 'NONE',  ( -0.000000000000000000, -0.000000000000000000, -1.000000000000000000 ) ) ;
#33 = CARTESIAN_POINT ( 'NONE',  ( 0.000000000000000000, 0.000000000000000000, 355.0000000000000000 ) ) ;
#34 = DIRECTION ( 'NONE',  ( 1.000000000000000000, 0.000000000000000000, 0.000000000000000000 ) ) ;
#35 = VERTEX_POINT ( 'NONE', #364 ) ;
#36 = VERTEX_POINT ( 'NONE', #356 ) ;
#37 = AXIS2_PLACEMENT_3D ( 'NONE', #195, #17, #170 ) ;
#38 = SECURITY_CLASSIFICATION ( '', '', #175 ) ;
#39 = DIRECTION ( 'NONE',  ( -0.000000000000000000, -0.000000000000000000, -1.000000000000000000 ) ) ;
#40 = CYLINDRICAL_SURFACE ( 'NONE', #37, 2.100000000000000089 ) ;
#41 = AXIS2_PLACEMENT_3D ( 'NONE', #370, #222, #311 ) ;
#42 = DIRECTION ( 'NONE',  ( -1.000000000000000000, 0.000000000000000000, 0.000000000000000000 ) ) ;
#43 = CARTESIAN_POINT ( 'NONE',  ( 0.000000000000000000, 0.000000000000000000, 5.000000000000000000 ) ) ;
#44 = CARTESIAN_POINT ( 'NONE',  ( 7.000000000000000000, 8.572527594031473190E-16, 5.000000000000000000 ) ) ;
#45 = EDGE_CURVE ( 'NONE', #213, #57, #79, .T. ) ;
#46 = CYLINDRICAL_SURFACE ( 'NONE', #150, 4.000000000000000000 ) ;
#47 = DIRECTION ( 'NONE',  ( 0.000000000000000000, 0.000000000000000000, 1.000000000000000000 ) ) ;
#48 =( GEOMETRIC_REPRESENTATION_CONTEXT ( 3 ) GLOBAL_UNCERTAINTY_ASSIGNED_CONTEXT ( ( #243 ) ) GLOBAL_UNIT_ASSIGNED_CONTEXT ( ( #300, #122, #166 ) ) REPRESENTATION_CONTEXT ( 'NONE', 'WORKASPACE' ) );
#49 = CC_DESIGN_DATE_AND_TIME_ASSIGNMENT ( #149, #54, ( #38 ) ) ;
#50 = EDGE_CURVE ( 'NONE', #35, #271, #212, .T. ) ;
#51 = DIRECTION ( 'NONE',  ( 1.000000000000000000, 0.000000000000000000, -0.000000000000000000 ) ) ;
#52 = ORIENTED_EDGE ( 'NONE', *, *, #176, .T. ) ;
#53 = DIRECTION ( 'NONE',  ( -1.000000000000000000, 0.000000000000000000, 0.000000000000000000 ) ) ;
#54 = DATE_TIME_ROLE ( 'classification_date' ) ;
#55 = PERSON_AND_ORGANIZATION_ROLE ( 'creator' ) ;
#56 = ORIENTED_EDGE ( 'NONE', *, *, #18, .T. ) ;
#57 = VERTEX_POINT ( 'NONE', #217 ) ;
#58 = AXIS2_PLACEMENT_3D ( 'NONE', #310, #141, #283 ) ;
#59 = CARTESIAN_POINT ( 'NONE',  ( 0.000000000000000000, 0.000000000000000000, 0.000000000000000000 ) ) ;
#60 = ORIENTED_EDGE ( 'NONE', *, *, #45, .T. ) ;
#61 = AXIS2_PLACEMENT_3D ( 'NONE', #15, #105, #134 ) ;
#62 = APPROVAL_DATE_TIME ( #332, #276 ) ;
#63 = ORIENTED_EDGE ( 'NONE', *, *, #371, .F. ) ;
#64 = PRODUCT ( '4951', '4951', '', ( #241 ) ) ;
#65 = CALENDAR_DATE ( 2022, 8, 7 ) ;
#66 = ORIENTED_EDGE ( 'NONE', *, *, #186, .T. ) ;
#67 = PERSON_AND_ORGANIZATION ( #288, #158 ) ;
#68 = ORIENTED_EDGE ( 'NONE', *, *, #319, .F. ) ;
#69 = FACE_BOUND ( 'NONE', #238, .T. ) ;
#70 = PRODUCT_DEFINITION ( 'NEZNÁMÝ', '', #27, #357 ) ;
#71 = DIRECTION ( 'NONE',  ( -0.000000000000000000, -0.000000000000000000, -1.000000000000000000 ) ) ;
#72 = AXIS2_PLACEMENT_3D ( 'NONE', #242, #347, #168 ) ;
#73 = DIRECTION ( 'NONE',  ( 0.000000000000000000, 0.000000000000000000, 1.000000000000000000 ) ) ;
#74 = AXIS2_PLACEMENT_3D ( 'NONE', #270, #351, #381 ) ;
#75 = CARTESIAN_POINT ( 'NONE',  ( 0.000000000000000000, 0.000000000000000000, 355.0000000000000000 ) ) ;
#76 = MANIFOLD_SOLID_BREP ( 'Odebrat vysunutím3', #1 ) ;
#77 = FACE_OUTER_BOUND ( 'NONE', #5, .T. ) ;
#78 = CARTESIAN_POINT ( 'NONE',  ( 4.500000000000000888, 0.000000000000000000, 5.000000000000002665 ) ) ;
#79 = CIRCLE ( 'NONE', #257, 2.100000000000000089 ) ;
#80 = ADVANCED_FACE ( 'NONE', ( #335 ), #159, .T. ) ;
#81 = DIRECTION ( 'NONE',  ( 0.000000000000000000, 0.000000000000000000, -1.000000000000000000 ) ) ;
#82 = CIRCLE ( 'NONE', #189, 4.000000000000000000 ) ;
#83 = DIRECTION ( 'NONE',  ( 0.000000000000000000, 0.000000000000000000, 1.000000000000000000 ) ) ;
#84 = CC_DESIGN_PERSON_AND_ORGANIZATION_ASSIGNMENT ( #67, #314, ( #38 ) ) ;
#85 = ADVANCED_FACE ( 'NONE', ( #284 ), #251, .F. ) ;
#86 = DIRECTION ( 'NONE',  ( 1.000000000000000000, 0.000000000000000000, -0.000000000000000000 ) ) ;
#87 = COORDINATED_UNIVERSAL_TIME_OFFSET ( 1, 0, .AHEAD. ) ;
#88 = CARTESIAN_POINT ( 'NONE',  ( 0.000000000000000000, 0.000000000000000000, 355.0000000000000000 ) ) ;
#89 = CARTESIAN_POINT ( 'NONE',  ( 0.000000000000000000, 0.000000000000000000, 5.000000000000000000 ) ) ;
#90 = ADVANCED_FACE ( 'NONE', ( #77 ), #350, .F. ) ;
#91 = APPROVAL_ROLE ( '' ) ;
#92 = ORIENTED_EDGE ( 'NONE', *, *, #282, .T. ) ;
#93 = VECTOR ( 'NONE', #39, 1000.000000000000000 ) ;
#94 = APPROVAL_ROLE ( '' ) ;
#95 = ORIENTED_EDGE ( 'NONE', *, *, #349, .F. ) ;
#96 = DIRECTION ( 'NONE',  ( 0.000000000000000000, 0.000000000000000000, 1.000000000000000000 ) ) ;
#97 = PERSON_AND_ORGANIZATION ( #288, #158 ) ;
#98 = ORIENTED_EDGE ( 'NONE', *, *, #142, .F. ) ;
#99 = DIRECTION ( 'NONE',  ( 1.000000000000000000, 0.000000000000000000, 0.000000000000000000 ) ) ;
#100 = AXIS2_PLACEMENT_3D ( 'NONE', #59, #365, #188 ) ;
#101 = LINE ( 'NONE', #227, #123 ) ;
#102 = CARTESIAN_POINT ( 'NONE',  ( 2.100000000000000089, 2.571758278209441957E-16, 0.000000000000000000 ) ) ;
#103 = AXIS2_PLACEMENT_3D ( 'NONE', #342, #71, #286 ) ;
#104 = DIRECTION ( 'NONE',  ( -1.000000000000000000, 0.000000000000000000, 0.000000000000000000 ) ) ;
#105 = DIRECTION ( 'NONE',  ( -0.000000000000000000, -0.000000000000000000, -1.000000000000000000 ) ) ;
#106 = DIRECTION ( 'NONE',  ( 1.000000000000000000, 0.000000000000000000, 0.000000000000000000 ) ) ;
#107 = ORIENTED_EDGE ( 'NONE', *, *, #341, .T. ) ;
#108 = DIRECTION ( 'NONE',  ( 1.000000000000000000, 0.000000000000000000, 0.000000000000000000 ) ) ;
#109 = CIRCLE ( 'NONE', #103, 4.500000000000000888 ) ;
#110 = EDGE_CURVE ( 'NONE', #271, #244, #138, .T. ) ;
#111 = APPLICATION_CONTEXT ( 'configuration controlled 3d designs of mechanical parts and assemblies' ) ;
#112 = SHAPE_DEFINITION_REPRESENTATION ( #113, #133 ) ;
#113 = PRODUCT_DEFINITION_SHAPE ( 'NONE', 'NONE',  #70 ) ;
#114 = FACE_BOUND ( 'NONE', #148, .T. ) ;
#115 = TOROIDAL_SURFACE ( 'NONE', #20, 4.500000000000000888, 0.5000000000000000000 ) ;
#116 = CC_DESIGN_APPROVAL ( #4, ( #27 ) ) ;
#117 = VERTEX_POINT ( 'NONE', #102 ) ;
#118 = CARTESIAN_POINT ( 'NONE',  ( 2.100000000000000089, 2.571758278209441957E-16, 355.0000000000000000 ) ) ;
#119 = ORIENTED_EDGE ( 'NONE', *, *, #250, .T. ) ;
#120 = DIRECTION ( 'NONE',  ( 0.000000000000000000, 0.000000000000000000, 1.000000000000000000 ) ) ;
#121 = ORIENTED_EDGE ( 'NONE', *, *, #299, .F. ) ;
#122 =( NAMED_UNIT ( * ) PLANE_ANGLE_UNIT ( ) SI_UNIT ( $, .RADIAN. ) );
#123 = VECTOR ( 'NONE', #376, 1000.000000000000000 ) ;
#124 = EDGE_LOOP ( 'NONE', ( #92, #180 ) ) ;
#125 = COORDINATED_UNIVERSAL_TIME_OFFSET ( 1, 0, .AHEAD. ) ;
#126 = CARTESIAN_POINT ( 'NONE',  ( 4.000000000000000000, 4.898587196589412829E-16, 355.0000000000000000 ) ) ;
#127 = APPLICATION_PROTOCOL_DEFINITION ( 'international standard', 'config_control_design', 1994, #111 ) ;
#128 = VERTEX_POINT ( 'NONE', #200 ) ;
#129 = CIRCLE ( 'NONE', #344, 7.000000000000000000 ) ;
#130 = ORIENTED_EDGE ( 'NONE', *, *, #110, .F. ) ;
#131 = AXIS2_PLACEMENT_3D ( 'NONE', #13, #255, #136 ) ;
#132 = EDGE_LOOP ( 'NONE', ( #63, #30 ) ) ;
#133 = ADVANCED_BREP_SHAPE_REPRESENTATION ( '4951', ( #76, #100 ), #48 ) ;
#134 = DIRECTION ( 'NONE',  ( 1.000000000000000000, 0.000000000000000000, 0.000000000000000000 ) ) ;
#135 = ADVANCED_FACE ( 'NONE', ( #69, #201 ), #343, .T. ) ;
#136 = DIRECTION ( 'NONE',  ( 1.000000000000000000, 0.000000000000000000, 0.000000000000000000 ) ) ;
#137 = AXIS2_PLACEMENT_3D ( 'NONE', #289, #340, #253 ) ;
#138 = LINE ( 'NONE', #44, #285 ) ;
#139 = CARTESIAN_POINT ( 'NONE',  ( 2.100000000000000089, 2.571758278209441957E-16, 355.0000000000000000 ) ) ;
#140 = AXIS2_PLACEMENT_3D ( 'NONE', #89, #96, #210 ) ;
#141 = DIRECTION ( 'NONE',  ( 0.000000000000000000, 0.000000000000000000, 1.000000000000000000 ) ) ;
#142 = EDGE_CURVE ( 'NONE', #271, #35, #129, .T. ) ;
#143 = CIRCLE ( 'NONE', #131, 2.100000000000000089 ) ;
#144 = LOCAL_TIME ( 17, 27, 2.000000000000000000, #31 ) ;
#145 = DATE_AND_TIME ( #337, #369 ) ;
#146 = CYLINDRICAL_SURFACE ( 'NONE', #74, 4.000000000000000000 ) ;
#147 = CARTESIAN_POINT ( 'NONE',  ( 7.000000000000000000, 8.572527594031473190E-16, 0.000000000000000000 ) ) ;
#148 = EDGE_LOOP ( 'NONE', ( #281, #302 ) ) ;
#149 = DATE_AND_TIME ( #161, #160 ) ;
#150 = AXIS2_PLACEMENT_3D ( 'NONE', #379, #234, #53 ) ;
#151 = DIRECTION ( 'NONE',  ( 0.000000000000000000, 0.000000000000000000, 1.000000000000000000 ) ) ;
#152 = CARTESIAN_POINT ( 'NONE',  ( 0.000000000000000000, 0.000000000000000000, 355.0000000000000000 ) ) ;
#153 = VERTEX_POINT ( 'NONE', #309 ) ;
#154 = APPROVAL_STATUS ( 'not_yet_approved' ) ;
#155 = APPROVAL_ROLE ( '' ) ;
#156 = EDGE_LOOP ( 'NONE', ( #307, #193, #107, #267 ) ) ;
#157 = EDGE_CURVE ( 'NONE', #304, #277, #109, .T. ) ;
#158 = ORGANIZATION ( 'NEURÈENÝ', 'NEURÈENÝ', '' ) ;
#159 = CYLINDRICAL_SURFACE ( 'NONE', #72, 7.000000000000000000 ) ;
#160 = LOCAL_TIME ( 17, 27, 2.000000000000000000, #87 ) ;
#161 = CALENDAR_DATE ( 2022, 8, 7 ) ;
#162 = ORIENTED_EDGE ( 'NONE', *, *, #299, .T. ) ;
#163 = APPROVAL ( #154, 'NEURÈENÝ' ) ;
#164 = ORIENTED_EDGE ( 'NONE', *, *, #371, .T. ) ;
#165 = ADVANCED_FACE ( 'NONE', ( #198 ), #40, .F. ) ;
#166 =( NAMED_UNIT ( * ) SI_UNIT ( $, .STERADIAN. ) SOLID_ANGLE_UNIT ( ) );
#167 = EDGE_LOOP ( 'NONE', ( #68, #60, #6, #52 ) ) ;
#168 = DIRECTION ( 'NONE',  ( -1.000000000000000000, 0.000000000000000000, 0.000000000000000000 ) ) ;
#169 = EDGE_CURVE ( 'NONE', #117, #128, #143, .T. ) ;
#170 = DIRECTION ( 'NONE',  ( -1.000000000000000000, 0.000000000000000000, 0.000000000000000000 ) ) ;
#171 = AXIS2_PLACEMENT_3D ( 'NONE', #152, #322, #378 ) ;
#172 = DIRECTION ( 'NONE',  ( -0.000000000000000000, -0.000000000000000000, -1.000000000000000000 ) ) ;
#173 = DIRECTION ( 'NONE',  ( -0.000000000000000000, -0.000000000000000000, -1.000000000000000000 ) ) ;
#174 = EDGE_CURVE ( 'NONE', #57, #128, #101, .T. ) ;
#175 = SECURITY_CLASSIFICATION_LEVEL ( 'unclassified' ) ;
#176 = EDGE_CURVE ( 'NONE', #128, #117, #312, .T. ) ;
#177 = CIRCLE ( 'NONE', #171, 4.000000000000000000 ) ;
#178 = FACE_OUTER_BOUND ( 'NONE', #156, .T. ) ;
#179 = CARTESIAN_POINT ( 'NONE',  ( 4.500000000000000888, 0.000000000000000000, 5.500000000000005329 ) ) ;
#180 = ORIENTED_EDGE ( 'NONE', *, *, #263, .T. ) ;
#181 = ADVANCED_FACE ( 'NONE', ( #196 ), #315, .T. ) ;
#182 = FACE_OUTER_BOUND ( 'NONE', #10, .T. ) ;
#183 = DIRECTION ( 'NONE',  ( 0.000000000000000000, -1.000000000000000000, 0.000000000000000000 ) ) ;
#184 = APPROVAL_PERSON_ORGANIZATION ( #360, #276, #94 ) ;
#185 = ORIENTED_EDGE ( 'NONE', *, *, #169, .T. ) ;
#186 = EDGE_CURVE ( 'NONE', #326, #277, #232, .T. ) ;
#187 = ORIENTED_EDGE ( 'NONE', *, *, #308, .F. ) ;
#188 = DIRECTION ( 'NONE',  ( 1.000000000000000000, 0.000000000000000000, 0.000000000000000000 ) ) ;
#189 = AXIS2_PLACEMENT_3D ( 'NONE', #374, #367, #99 ) ;
#190 = ORIENTED_EDGE ( 'NONE', *, *, #157, .T. ) ;
#191 = EDGE_LOOP ( 'NONE', ( #187, #366 ) ) ;
#192 = ORIENTED_EDGE ( 'NONE', *, *, #197, .T. ) ;
#193 = ORIENTED_EDGE ( 'NONE', *, *, #208, .F. ) ;
#194 = AXIS2_PLACEMENT_3D ( 'NONE', #75, #290, #86 ) ;
#195 = CARTESIAN_POINT ( 'NONE',  ( 0.000000000000000000, 0.000000000000000000, 355.0000000000000000 ) ) ;
#196 = FACE_OUTER_BOUND ( 'NONE', #334, .T. ) ;
#197 = EDGE_CURVE ( 'NONE', #277, #304, #352, .T. ) ;
#198 = FACE_OUTER_BOUND ( 'NONE', #167, .T. ) ;
#199 = AXIS2_PLACEMENT_3D ( 'NONE', #179, #183, #266 ) ;
#200 = CARTESIAN_POINT ( 'NONE',  ( -2.100000000000000089, 0.000000000000000000, 0.000000000000000000 ) ) ;
#201 = FACE_OUTER_BOUND ( 'NONE', #249, .T. ) ;
#202 = CARTESIAN_POINT ( 'NONE',  ( 0.000000000000000000, 0.000000000000000000, 0.000000000000000000 ) ) ;
#203 = ORIENTED_EDGE ( 'NONE', *, *, #12, .T. ) ;
#204 = CC_DESIGN_PERSON_AND_ORGANIZATION_ASSIGNMENT ( #22, #218, ( #27 ) ) ;
#205 = ORIENTED_EDGE ( 'NONE', *, *, #308, .T. ) ;
#206 = CARTESIAN_POINT ( 'NONE',  ( -7.000000000000000000, 0.000000000000000000, 0.000000000000000000 ) ) ;
#207 = DATE_AND_TIME ( #325, #333 ) ;
#208 = EDGE_CURVE ( 'NONE', #153, #326, #82, .T. ) ;
#209 = ORIENTED_EDGE ( 'NONE', *, *, #50, .T. ) ;
#210 = DIRECTION ( 'NONE',  ( 1.000000000000000000, 0.000000000000000000, 0.000000000000000000 ) ) ;
#211 = APPLICATION_PROTOCOL_DEFINITION ( 'international standard', 'config_control_design', 1994, #372 ) ;
#212 = CIRCLE ( 'NONE', #140, 7.000000000000000000 ) ;
#213 = VERTEX_POINT ( 'NONE', #139 ) ;
#214 = AXIS2_PLACEMENT_3D ( 'NONE', #202, #47, #21 ) ;
#215 = ORIENTED_EDGE ( 'NONE', *, *, #142, .T. ) ;
#216 = CALENDAR_DATE ( 2022, 8, 7 ) ;
#217 = CARTESIAN_POINT ( 'NONE',  ( -2.100000000000000089, 0.000000000000000000, 355.0000000000000000 ) ) ;
#218 = PERSON_AND_ORGANIZATION_ROLE ( 'design_supplier' ) ;
#219 = ORIENTED_EDGE ( 'NONE', *, *, #174, .F. ) ;
#220 = CARTESIAN_POINT ( 'NONE',  ( 0.000000000000000000, 0.000000000000000000, 355.0000000000000000 ) ) ;
#221 = ADVANCED_FACE ( 'NONE', ( #256, #225 ), #345, .T. ) ;
#222 = DIRECTION ( 'NONE',  ( 0.000000000000000000, 0.000000000000000000, 1.000000000000000000 ) ) ;
#223 = DIRECTION ( 'NONE',  ( 0.000000000000000000, 0.000000000000000000, -1.000000000000000000 ) ) ;
#224 = ADVANCED_FACE ( 'NONE', ( #182 ), #46, .T. ) ;
#225 = FACE_OUTER_BOUND ( 'NONE', #124, .T. ) ;
#226 = AXIS2_PLACEMENT_3D ( 'NONE', #373, #173, #313 ) ;
#227 = CARTESIAN_POINT ( 'NONE',  ( -2.100000000000000089, 0.000000000000000000, 355.0000000000000000 ) ) ;
#228 = CARTESIAN_POINT ( 'NONE',  ( -4.500000000000000888, 5.510910596163088569E-16, 5.000000000000002665 ) ) ;
#229 = ADVANCED_FACE ( 'NONE', ( #178 ), #115, .F. ) ;
#230 = VERTEX_POINT ( 'NONE', #206 ) ;
#231 = CARTESIAN_POINT ( 'NONE',  ( -4.000000000000000000, 0.000000000000000000, 355.0000000000000000 ) ) ;
#232 = CIRCLE ( 'NONE', #137, 0.5000000000000004441 ) ;
#233 = APPROVAL_PERSON_ORGANIZATION ( #97, #4, #155 ) ;
#234 = DIRECTION ( 'NONE',  ( -0.000000000000000000, -0.000000000000000000, -1.000000000000000000 ) ) ;
#235 = ADVANCED_FACE ( 'NONE', ( #114, #292 ), #317, .F. ) ;
#236 = DIRECTION ( 'NONE',  ( 0.000000000000000000, 0.000000000000000000, 1.000000000000000000 ) ) ;
#237 = ORIENTED_EDGE ( 'NONE', *, *, #157, .F. ) ;
#238 = EDGE_LOOP ( 'NONE', ( #190, #192 ) ) ;
#239 = AXIS2_PLACEMENT_3D ( 'NONE', #348, #151, #51 ) ;
#240 = ORIENTED_EDGE ( 'NONE', *, *, #110, .T. ) ;
#241 = MECHANICAL_CONTEXT ( 'NONE', #111, 'mechanical' ) ;
#242 = CARTESIAN_POINT ( 'NONE',  ( 0.000000000000000000, 0.000000000000000000, 5.000000000000000000 ) ) ;
#243 = UNCERTAINTY_MEASURE_WITH_UNIT (LENGTH_MEASURE( 1.000000000000000082E-05 ), #300, 'distance_accuracy_value', 'NONE');
#244 = VERTEX_POINT ( 'NONE', #147 ) ;
#245 = COORDINATED_UNIVERSAL_TIME_OFFSET ( 1, 0, .AHEAD. ) ;
#246 = CIRCLE ( 'NONE', #318, 2.100000000000000089 ) ;
#247 = LOCAL_TIME ( 17, 27, 2.000000000000000000, #245 ) ;
#248 = DIRECTION ( 'NONE',  ( -0.000000000000000000, -0.000000000000000000, -1.000000000000000000 ) ) ;
#249 = EDGE_LOOP ( 'NONE', ( #209, #215 ) ) ;
#250 = EDGE_CURVE ( 'NONE', #244, #230, #362, .T. ) ;
#251 = CYLINDRICAL_SURFACE ( 'NONE', #355, 2.100000000000000089 ) ;
#252 = PERSON_AND_ORGANIZATION ( #288, #158 ) ;
#253 = DIRECTION ( 'NONE',  ( -1.000000000000000000, 1.224646799147351482E-16, 0.000000000000000000 ) ) ;
#254 = CC_DESIGN_APPROVAL ( #163, ( #38 ) ) ;
#255 = DIRECTION ( 'NONE',  ( -0.000000000000000000, -0.000000000000000000, -1.000000000000000000 ) ) ;
#256 = FACE_BOUND ( 'NONE', #132, .T. ) ;
#257 = AXIS2_PLACEMENT_3D ( 'NONE', #33, #301, #34 ) ;
#258 = DIRECTION ( 'NONE',  ( 1.000000000000000000, 0.000000000000000000, 0.000000000000000000 ) ) ;
#259 = AXIS2_PLACEMENT_3D ( 'NONE', #11, #172, #42 ) ;
#260 = APPROVAL_PERSON_ORGANIZATION ( #268, #163, #91 ) ;
#261 = DIRECTION ( 'NONE',  ( 1.000000000000000000, 0.000000000000000000, 0.000000000000000000 ) ) ;
#262 = APPROVAL_DATE_TIME ( #145, #4 ) ;
#263 = EDGE_CURVE ( 'NONE', #36, #298, #330, .T. ) ;
#264 = DIRECTION ( 'NONE',  ( 1.000000000000000000, 0.000000000000000000, 0.000000000000000000 ) ) ;
#265 = ORIENTED_EDGE ( 'NONE', *, *, #18, .F. ) ;
#266 = DIRECTION ( 'NONE',  ( 0.000000000000000000, 0.000000000000000000, -1.000000000000000000 ) ) ;
#267 = ORIENTED_EDGE ( 'NONE', *, *, #197, .F. ) ;
#268 = PERSON_AND_ORGANIZATION ( #288, #158 ) ;
#269 = VECTOR ( 'NONE', #81, 1000.000000000000000 ) ;
#270 = CARTESIAN_POINT ( 'NONE',  ( 0.000000000000000000, 0.000000000000000000, 355.0000000000000000 ) ) ;
#271 = VERTEX_POINT ( 'NONE', #323 ) ;
#272 = FACE_OUTER_BOUND ( 'NONE', #275, .T. ) ;
#273 = COORDINATED_UNIVERSAL_TIME_OFFSET ( 1, 0, .AHEAD. ) ;
#274 = ORIENTED_EDGE ( 'NONE', *, *, #208, .T. ) ;
#275 = EDGE_LOOP ( 'NONE', ( #336, #56, #274, #95 ) ) ;
#276 = APPROVAL ( #327, 'NEURÈENÝ' ) ;
#277 = VERTEX_POINT ( 'NONE', #228 ) ;
#278 = DIRECTION ( 'NONE',  ( 1.000000000000000000, 0.000000000000000000, 0.000000000000000000 ) ) ;
#279 = LINE ( 'NONE', #328, #375 ) ;
#280 = DATE_AND_TIME ( #65, #247 ) ;
#281 = ORIENTED_EDGE ( 'NONE', *, *, #176, .F. ) ;
#282 = EDGE_CURVE ( 'NONE', #298, #36, #177, .T. ) ;
#283 = DIRECTION ( 'NONE',  ( 1.000000000000000000, 0.000000000000000000, 0.000000000000000000 ) ) ;
#284 = FACE_OUTER_BOUND ( 'NONE', #306, .T. ) ;
#285 = VECTOR ( 'NONE', #19, 1000.000000000000000 ) ;
#286 = DIRECTION ( 'NONE',  ( 1.000000000000000000, 0.000000000000000000, 0.000000000000000000 ) ) ;
#287 = CC_DESIGN_SECURITY_CLASSIFICATION ( #38, ( #27 ) ) ;
#288 = PERSON ( 'NEURÈENÝ', 'NEURÈENÝ', 'NEURÈENÝ', ('NEURÈENÝ'), ('NEURÈENÝ'), ('NEURÈENÝ') ) ;
#289 = CARTESIAN_POINT ( 'NONE',  ( -4.500000000000000888, 5.510910596163089556E-16, 5.500000000000005329 ) ) ;
#290 = DIRECTION ( 'NONE',  ( 0.000000000000000000, 0.000000000000000000, 1.000000000000000000 ) ) ;
#291 = AXIS2_PLACEMENT_3D ( 'NONE', #29, #83, #264 ) ;
#292 = FACE_OUTER_BOUND ( 'NONE', #191, .T. ) ;
#293 = CARTESIAN_POINT ( 'NONE',  ( 0.000000000000000000, 0.000000000000000000, 5.500000000000005329 ) ) ;
#294 = ORIENTED_EDGE ( 'NONE', *, *, #50, .F. ) ;
#295 = LINE ( 'NONE', #363, #346 ) ;
#296 = ORIENTED_EDGE ( 'NONE', *, *, #282, .F. ) ;
#297 = DIRECTION ( 'NONE',  ( 0.000000000000000000, 0.000000000000000000, 1.000000000000000000 ) ) ;
#298 = VERTEX_POINT ( 'NONE', #231 ) ;
#299 = EDGE_CURVE ( 'NONE', #326, #153, #380, .T. ) ;
#300 =( LENGTH_UNIT ( ) NAMED_UNIT ( * ) SI_UNIT ( .MILLI., .METRE. ) );
#301 = DIRECTION ( 'NONE',  ( 0.000000000000000000, 0.000000000000000000, 1.000000000000000000 ) ) ;
#302 = ORIENTED_EDGE ( 'NONE', *, *, #169, .F. ) ;
#303 = PERSON_AND_ORGANIZATION ( #288, #158 ) ;
#304 = VERTEX_POINT ( 'NONE', #78 ) ;
#305 = PERSON_AND_ORGANIZATION ( #288, #158 ) ;
#306 = EDGE_LOOP ( 'NONE', ( #164, #361, #185, #219 ) ) ;
#307 = ORIENTED_EDGE ( 'NONE', *, *, #186, .F. ) ;
#308 = EDGE_CURVE ( 'NONE', #230, #244, #26, .T. ) ;
#309 = CARTESIAN_POINT ( 'NONE',  ( 4.000000000000000000, 4.898587196589412829E-16, 5.500000000000005329 ) ) ;
#310 = CARTESIAN_POINT ( 'NONE',  ( 0.000000000000000000, 0.000000000000000000, 5.500000000000005329 ) ) ;
#311 = DIRECTION ( 'NONE',  ( 1.000000000000000000, 0.000000000000000000, -0.000000000000000000 ) ) ;
#312 = CIRCLE ( 'NONE', #226, 2.100000000000000089 ) ;
#313 = DIRECTION ( 'NONE',  ( 1.000000000000000000, 0.000000000000000000, 0.000000000000000000 ) ) ;
#314 = PERSON_AND_ORGANIZATION_ROLE ( 'classification_officer' ) ;
#315 = CYLINDRICAL_SURFACE ( 'NONE', #259, 7.000000000000000000 ) ;
#316 = ADVANCED_FACE ( 'NONE', ( #272 ), #146, .T. ) ;
#317 = PLANE ( 'NONE',  #239 ) ;
#318 = AXIS2_PLACEMENT_3D ( 'NONE', #88, #297, #278 ) ;
#319 = EDGE_CURVE ( 'NONE', #213, #117, #24, .T. ) ;
#320 = CARTESIAN_POINT ( 'NONE',  ( -4.000000000000000000, 0.000000000000000000, 5.500000000000005329 ) ) ;
#321 = EDGE_LOOP ( 'NONE', ( #130, #294, #203, #205 ) ) ;
#322 = DIRECTION ( 'NONE',  ( 0.000000000000000000, 0.000000000000000000, 1.000000000000000000 ) ) ;
#323 = CARTESIAN_POINT ( 'NONE',  ( 7.000000000000000000, 8.572527594031473190E-16, 5.000000000000000000 ) ) ;
#324 = APPROVAL_STATUS ( 'not_yet_approved' ) ;
#325 = CALENDAR_DATE ( 2022, 8, 7 ) ;
#326 = VERTEX_POINT ( 'NONE', #320 ) ;
#327 = APPROVAL_STATUS ( 'not_yet_approved' ) ;
#328 = CARTESIAN_POINT ( 'NONE',  ( -7.000000000000000000, 0.000000000000000000, 5.000000000000000000 ) ) ;
#329 = CC_DESIGN_PERSON_AND_ORGANIZATION_ASSIGNMENT ( #252, #368, ( #27 ) ) ;
#330 = CIRCLE ( 'NONE', #291, 4.000000000000000000 ) ;
#331 = AXIS2_PLACEMENT_3D ( 'NONE', #353, #377, #106 ) ;
#332 = DATE_AND_TIME ( #216, #144 ) ;
#333 = LOCAL_TIME ( 17, 27, 2.000000000000000000, #125 ) ;
#334 = EDGE_LOOP ( 'NONE', ( #98, #240, #119, #2 ) ) ;
#335 = FACE_OUTER_BOUND ( 'NONE', #321, .T. ) ;
#336 = ORIENTED_EDGE ( 'NONE', *, *, #263, .F. ) ;
#337 = CALENDAR_DATE ( 2022, 8, 7 ) ;
#338 = AXIS2_PLACEMENT_3D ( 'NONE', #293, #236, #108 ) ;
#339 = CC_DESIGN_APPROVAL ( #276, ( #70 ) ) ;
#340 = DIRECTION ( 'NONE',  ( 1.224646799147353207E-16, 1.000000000000000000, -0.000000000000000000 ) ) ;
#341 = EDGE_CURVE ( 'NONE', #153, #304, #3, .T. ) ;
#342 = CARTESIAN_POINT ( 'NONE',  ( 0.000000000000000000, 0.000000000000000000, 5.000000000000000000 ) ) ;
#343 = PLANE ( 'NONE',  #41 ) ;
#344 = AXIS2_PLACEMENT_3D ( 'NONE', #43, #73, #258 ) ;
#345 = PLANE ( 'NONE',  #194 ) ;
#346 = VECTOR ( 'NONE', #32, 1000.000000000000000 ) ;
#347 = DIRECTION ( 'NONE',  ( -0.000000000000000000, -0.000000000000000000, -1.000000000000000000 ) ) ;
#348 = CARTESIAN_POINT ( 'NONE',  ( 0.000000000000000000, 0.000000000000000000, 0.000000000000000000 ) ) ;
#349 = EDGE_CURVE ( 'NONE', #298, #326, #295, .T. ) ;
#350 = TOROIDAL_SURFACE ( 'NONE', #58, 4.500000000000000888, 0.5000000000000000000 ) ;
#351 = DIRECTION ( 'NONE',  ( -0.000000000000000000, -0.000000000000000000, -1.000000000000000000 ) ) ;
#352 = CIRCLE ( 'NONE', #61, 4.500000000000000888 ) ;
#353 = CARTESIAN_POINT ( 'NONE',  ( 0.000000000000000000, 0.000000000000000000, 0.000000000000000000 ) ) ;
#354 = ORIENTED_EDGE ( 'NONE', *, *, #341, .F. ) ;
#355 = AXIS2_PLACEMENT_3D ( 'NONE', #220, #223, #104 ) ;
#356 = CARTESIAN_POINT ( 'NONE',  ( 4.000000000000000000, 4.898587196589412829E-16, 355.0000000000000000 ) ) ;
#357 = DESIGN_CONTEXT ( 'detailed design', #372, 'design' ) ;
#358 = CC_DESIGN_PERSON_AND_ORGANIZATION_ASSIGNMENT ( #305, #7, ( #64 ) ) ;
#359 = LINE ( 'NONE', #126, #93 ) ;
#360 = PERSON_AND_ORGANIZATION ( #288, #158 ) ;
#361 = ORIENTED_EDGE ( 'NONE', *, *, #319, .T. ) ;
#362 = CIRCLE ( 'NONE', #331, 7.000000000000000000 ) ;
#363 = CARTESIAN_POINT ( 'NONE',  ( -4.000000000000000000, 0.000000000000000000, 355.0000000000000000 ) ) ;
#364 = CARTESIAN_POINT ( 'NONE',  ( -7.000000000000000000, 0.000000000000000000, 5.000000000000000000 ) ) ;
#365 = DIRECTION ( 'NONE',  ( 0.000000000000000000, 0.000000000000000000, 1.000000000000000000 ) ) ;
#366 = ORIENTED_EDGE ( 'NONE', *, *, #250, .F. ) ;
#367 = DIRECTION ( 'NONE',  ( 0.000000000000000000, 0.000000000000000000, 1.000000000000000000 ) ) ;
#368 = PERSON_AND_ORGANIZATION_ROLE ( 'creator' ) ;
#369 = LOCAL_TIME ( 17, 27, 2.000000000000000000, #273 ) ;
#370 = CARTESIAN_POINT ( 'NONE',  ( 0.000000000000000000, 0.000000000000000000, 5.000000000000000000 ) ) ;
#371 = EDGE_CURVE ( 'NONE', #57, #213, #246, .T. ) ;
#372 = APPLICATION_CONTEXT ( 'configuration controlled 3d designs of mechanical parts and assemblies' ) ;
#373 = CARTESIAN_POINT ( 'NONE',  ( 0.000000000000000000, 0.000000000000000000, 0.000000000000000000 ) ) ;
#374 = CARTESIAN_POINT ( 'NONE',  ( 0.000000000000000000, 0.000000000000000000, 5.500000000000005329 ) ) ;
#375 = VECTOR ( 'NONE', #248, 1000.000000000000000 ) ;
#376 = DIRECTION ( 'NONE',  ( 0.000000000000000000, 0.000000000000000000, -1.000000000000000000 ) ) ;
#377 = DIRECTION ( 'NONE',  ( 0.000000000000000000, 0.000000000000000000, 1.000000000000000000 ) ) ;
#378 = DIRECTION ( 'NONE',  ( 1.000000000000000000, 0.000000000000000000, 0.000000000000000000 ) ) ;
#379 = CARTESIAN_POINT ( 'NONE',  ( 0.000000000000000000, 0.000000000000000000, 355.0000000000000000 ) ) ;
#380 = CIRCLE ( 'NONE', #338, 4.000000000000000000 ) ;
#381 = DIRECTION ( 'NONE',  ( -1.000000000000000000, 0.000000000000000000, 0.000000000000000000 ) ) ;
ENDSEC;
END-ISO-10303-21;
