ISO-10303-21;
HEADER;
FILE_DESCRIPTION (( 'STEP AP203' ),
    '1' );
FILE_NAME ('5d98.STEP',
    '2022-07-08T15:27:56',
    ( '' ),
    ( '' ),
    'SwSTEP 2.0',
    'SolidWorks 2019',
    '' );
FILE_SCHEMA (( 'CONFIG_CONTROL_DESIGN' ));
ENDSEC;

DATA;
#1 = EDGE_CURVE ( 'NONE', #340, #164, #309, .T. ) ;
#2 = PERSON_AND_ORGANIZATION_ROLE ( 'creator' ) ;
#3 = CIRCLE ( 'NONE', #222, 2.100000000000000089 ) ;
#4 = ORIENTED_EDGE ( 'NONE', *, *, #333, .T. ) ;
#5 = COORDINATED_UNIVERSAL_TIME_OFFSET ( 1, 0, .AHEAD. ) ;
#6 = CARTESIAN_POINT ( 'NONE',  ( 0.000000000000000000, 0.000000000000000000, 5.500000000000005329 ) ) ;
#7 = ORIENTED_EDGE ( 'NONE', *, *, #29, .F. ) ;
#8 = FACE_BOUND ( 'NONE', #276, .T. ) ;
#9 = ORIENTED_EDGE ( 'NONE', *, *, #378, .F. ) ;
#10 = DIRECTION ( 'NONE',  ( -0.000000000000000000, -0.000000000000000000, -1.000000000000000000 ) ) ;
#11 = ORIENTED_EDGE ( 'NONE', *, *, #214, .F. ) ;
#12 = COORDINATED_UNIVERSAL_TIME_OFFSET ( 1, 0, .AHEAD. ) ;
#13 = CARTESIAN_POINT ( 'NONE',  ( -4.500000000000000888, 5.510910596163089556E-16, 5.500000000000005329 ) ) ;
#14 = EDGE_LOOP ( 'NONE', ( #265, #350, #184, #334 ) ) ;
#15 = CARTESIAN_POINT ( 'NONE',  ( 4.500000000000000888, 0.000000000000000000, 5.000000000000002665 ) ) ;
#16 = DIRECTION ( 'NONE',  ( -0.000000000000000000, -0.000000000000000000, -1.000000000000000000 ) ) ;
#17 = DIRECTION ( 'NONE',  ( 0.000000000000000000, 0.000000000000000000, 1.000000000000000000 ) ) ;
#18 = CARTESIAN_POINT ( 'NONE',  ( 4.000000000000000000, 4.898587196589412829E-16, 5.500000000000005329 ) ) ;
#19 = DIRECTION ( 'NONE',  ( 1.000000000000000000, 0.000000000000000000, 0.000000000000000000 ) ) ;
#20 = CARTESIAN_POINT ( 'NONE',  ( 0.000000000000000000, 0.000000000000000000, 5.000000000000000000 ) ) ;
#21 = SECURITY_CLASSIFICATION ( '', '', #216 ) ;
#22 = CARTESIAN_POINT ( 'NONE',  ( 4.000000000000000000, 4.898587196589412829E-16, 205.0000000000000284 ) ) ;
#23 = APPROVAL ( #26, 'NEURÈENÝ' ) ;
#24 = APPROVAL_PERSON_ORGANIZATION ( #53, #291, #206 ) ;
#25 = ADVANCED_FACE ( 'NONE', ( #196 ), #39, .T. ) ;
#26 = APPROVAL_STATUS ( 'not_yet_approved' ) ;
#27 = APPROVAL_STATUS ( 'not_yet_approved' ) ;
#28 = CIRCLE ( 'NONE', #247, 7.000000000000000000 ) ;
#29 = EDGE_CURVE ( 'NONE', #263, #156, #316, .T. ) ;
#30 = VERTEX_POINT ( 'NONE', #198 ) ;
#31 = CC_DESIGN_APPROVAL ( #23, ( #133 ) ) ;
#32 = PERSON_AND_ORGANIZATION ( #88, #43 ) ;
#33 = CARTESIAN_POINT ( 'NONE',  ( -4.000000000000000000, 0.000000000000000000, 5.500000000000005329 ) ) ;
#34 = VERTEX_POINT ( 'NONE', #18 ) ;
#35 = PLANE ( 'NONE',  #372 ) ;
#36 = ORIENTED_EDGE ( 'NONE', *, *, #122, .F. ) ;
#37 = DIRECTION ( 'NONE',  ( 1.000000000000000000, 0.000000000000000000, 0.000000000000000000 ) ) ;
#38 = EDGE_LOOP ( 'NONE', ( #7, #248 ) ) ;
#39 = CYLINDRICAL_SURFACE ( 'NONE', #79, 4.000000000000000000 ) ;
#40 = FACE_OUTER_BOUND ( 'NONE', #362, .T. ) ;
#41 = CARTESIAN_POINT ( 'NONE',  ( 0.000000000000000000, 0.000000000000000000, 5.000000000000000000 ) ) ;
#42 = VECTOR ( 'NONE', #201, 1000.000000000000000 ) ;
#43 = ORGANIZATION ( 'NEURÈENÝ', 'NEURÈENÝ', '' ) ;
#44 = LINE ( 'NONE', #228, #62 ) ;
#45 = DIRECTION ( 'NONE',  ( 1.000000000000000000, 0.000000000000000000, 0.000000000000000000 ) ) ;
#46 = ADVANCED_FACE ( 'NONE', ( #224 ), #167, .T. ) ;
#47 = LINE ( 'NONE', #249, #306 ) ;
#48 = EDGE_LOOP ( 'NONE', ( #67, #223 ) ) ;
#49 = CARTESIAN_POINT ( 'NONE',  ( -4.000000000000000000, 0.000000000000000000, 205.0000000000000284 ) ) ;
#50 = DIRECTION ( 'NONE',  ( 1.000000000000000000, 0.000000000000000000, 0.000000000000000000 ) ) ;
#51 = AXIS2_PLACEMENT_3D ( 'NONE', #13, #301, #104 ) ;
#52 = ORIENTED_EDGE ( 'NONE', *, *, #284, .T. ) ;
#53 = PERSON_AND_ORGANIZATION ( #88, #43 ) ;
#54 = EDGE_CURVE ( 'NONE', #368, #34, #108, .T. ) ;
#55 = DATE_AND_TIME ( #208, #231 ) ;
#56 = AXIS2_PLACEMENT_3D ( 'NONE', #20, #147, #116 ) ;
#57 = ADVANCED_FACE ( 'NONE', ( #311 ), #144, .T. ) ;
#58 = DIRECTION ( 'NONE',  ( 1.000000000000000000, 0.000000000000000000, 0.000000000000000000 ) ) ;
#59 = VERTEX_POINT ( 'NONE', #374 ) ;
#60 = DIRECTION ( 'NONE',  ( -1.000000000000000000, 0.000000000000000000, 0.000000000000000000 ) ) ;
#61 = ORIENTED_EDGE ( 'NONE', *, *, #207, .T. ) ;
#62 = VECTOR ( 'NONE', #110, 1000.000000000000000 ) ;
#63 = UNCERTAINTY_MEASURE_WITH_UNIT (LENGTH_MEASURE( 1.000000000000000082E-05 ), #355, 'distance_accuracy_value', 'NONE');
#64 = EDGE_CURVE ( 'NONE', #340, #69, #337, .T. ) ;
#65 = DATE_AND_TIME ( #193, #240 ) ;
#66 = CARTESIAN_POINT ( 'NONE',  ( -4.500000000000000888, 5.510910596163088569E-16, 5.000000000000002665 ) ) ;
#67 = ORIENTED_EDGE ( 'NONE', *, *, #262, .T. ) ;
#68 = DIRECTION ( 'NONE',  ( 0.000000000000000000, 0.000000000000000000, 1.000000000000000000 ) ) ;
#69 = VERTEX_POINT ( 'NONE', #172 ) ;
#70 = AXIS2_PLACEMENT_3D ( 'NONE', #82, #146, #298 ) ;
#71 = CC_DESIGN_APPROVAL ( #379, ( #21 ) ) ;
#72 = DIRECTION ( 'NONE',  ( 0.000000000000000000, 0.000000000000000000, 1.000000000000000000 ) ) ;
#73 = DIRECTION ( 'NONE',  ( 0.000000000000000000, 0.000000000000000000, -1.000000000000000000 ) ) ;
#74 = DIRECTION ( 'NONE',  ( -1.000000000000000000, 0.000000000000000000, 0.000000000000000000 ) ) ;
#75 = PRODUCT_DEFINITION_SHAPE ( 'NONE', 'NONE',  #109 ) ;
#76 = CARTESIAN_POINT ( 'NONE',  ( -4.000000000000000000, 0.000000000000000000, 205.0000000000000284 ) ) ;
#77 = ADVANCED_FACE ( 'NONE', ( #376, #113 ), #227, .T. ) ;
#78 = DIRECTION ( 'NONE',  ( 1.000000000000000000, 0.000000000000000000, 0.000000000000000000 ) ) ;
#79 = AXIS2_PLACEMENT_3D ( 'NONE', #171, #139, #74 ) ;
#80 = CIRCLE ( 'NONE', #274, 7.000000000000000000 ) ;
#81 = DIRECTION ( 'NONE',  ( 1.000000000000000000, 0.000000000000000000, -0.000000000000000000 ) ) ;
#82 = CARTESIAN_POINT ( 'NONE',  ( 0.000000000000000000, 0.000000000000000000, 205.0000000000000284 ) ) ;
#83 = DIRECTION ( 'NONE',  ( 0.000000000000000000, 0.000000000000000000, 1.000000000000000000 ) ) ;
#84 = ORIENTED_EDGE ( 'NONE', *, *, #294, .T. ) ;
#85 = AXIS2_PLACEMENT_3D ( 'NONE', #365, #138, #37 ) ;
#86 = PERSON_AND_ORGANIZATION ( #88, #43 ) ;
#87 = CIRCLE ( 'NONE', #264, 0.5000000000000004441 ) ;
#88 = PERSON ( 'NEURÈENÝ', 'NEURÈENÝ', 'NEURÈENÝ', ('NEURÈENÝ'), ('NEURÈENÝ'), ('NEURÈENÝ') ) ;
#89 = COORDINATED_UNIVERSAL_TIME_OFFSET ( 1, 0, .AHEAD. ) ;
#90 = PERSON_AND_ORGANIZATION_ROLE ( 'design_owner' ) ;
#91 = CC_DESIGN_PERSON_AND_ORGANIZATION_ASSIGNMENT ( #32, #235, ( #21 ) ) ;
#92 = CARTESIAN_POINT ( 'NONE',  ( 0.000000000000000000, 0.000000000000000000, 5.000000000000000000 ) ) ;
#93 = AXIS2_PLACEMENT_3D ( 'NONE', #6, #361, #155 ) ;
#94 = ORIENTED_EDGE ( 'NONE', *, *, #1, .T. ) ;
#95 = ORIENTED_EDGE ( 'NONE', *, *, #212, .F. ) ;
#96 = PERSON_AND_ORGANIZATION ( #88, #43 ) ;
#97 = CYLINDRICAL_SURFACE ( 'NONE', #106, 2.100000000000000089 ) ;
#98 = ORIENTED_EDGE ( 'NONE', *, *, #221, .F. ) ;
#99 = AXIS2_PLACEMENT_3D ( 'NONE', #203, #346, #81 ) ;
#100 = CARTESIAN_POINT ( 'NONE',  ( 0.000000000000000000, 0.000000000000000000, 0.000000000000000000 ) ) ;
#101 = ORIENTED_EDGE ( 'NONE', *, *, #212, .T. ) ;
#102 = DIRECTION ( 'NONE',  ( -1.000000000000000000, 0.000000000000000000, 0.000000000000000000 ) ) ;
#103 = VERTEX_POINT ( 'NONE', #185 ) ;
#104 = DIRECTION ( 'NONE',  ( -1.000000000000000000, 1.224646799147351482E-16, 0.000000000000000000 ) ) ;
#105 = DIRECTION ( 'NONE',  ( -1.000000000000000000, 0.000000000000000000, 0.000000000000000000 ) ) ;
#106 = AXIS2_PLACEMENT_3D ( 'NONE', #140, #215, #60 ) ;
#107 = DIRECTION ( 'NONE',  ( 1.000000000000000000, 0.000000000000000000, 0.000000000000000000 ) ) ;
#108 = LINE ( 'NONE', #252, #258 ) ;
#109 = PRODUCT_DEFINITION ( 'NEZNÁMÝ', '', #133, #300 ) ;
#110 = DIRECTION ( 'NONE',  ( -0.000000000000000000, -0.000000000000000000, -1.000000000000000000 ) ) ;
#111 = DIRECTION ( 'NONE',  ( -0.000000000000000000, -0.000000000000000000, -1.000000000000000000 ) ) ;
#112 = FACE_OUTER_BOUND ( 'NONE', #189, .T. ) ;
#113 = FACE_OUTER_BOUND ( 'NONE', #327, .T. ) ;
#114 = AXIS2_PLACEMENT_3D ( 'NONE', #314, #348, #107 ) ;
#115 = DIRECTION ( 'NONE',  ( 0.000000000000000000, 0.000000000000000000, -1.000000000000000000 ) ) ;
#116 = DIRECTION ( 'NONE',  ( -1.000000000000000000, 0.000000000000000000, 0.000000000000000000 ) ) ;
#117 = APPLICATION_PROTOCOL_DEFINITION ( 'international standard', 'config_control_design', 1994, #317 ) ;
#118 = APPLICATION_CONTEXT ( 'configuration controlled 3d designs of mechanical parts and assemblies' ) ;
#119 =( GEOMETRIC_REPRESENTATION_CONTEXT ( 3 ) GLOBAL_UNCERTAINTY_ASSIGNED_CONTEXT ( ( #63 ) ) GLOBAL_UNIT_ASSIGNED_CONTEXT ( ( #355, #325, #289 ) ) REPRESENTATION_CONTEXT ( 'NONE', 'WORKASPACE' ) );
#120 = APPROVAL_DATE_TIME ( #176, #291 ) ;
#121 = CIRCLE ( 'NONE', #51, 0.5000000000000004441 ) ;
#122 = EDGE_CURVE ( 'NONE', #59, #30, #290, .T. ) ;
#123 = EDGE_LOOP ( 'NONE', ( #211, #236 ) ) ;
#124 = VERTEX_POINT ( 'NONE', #66 ) ;
#125 = CALENDAR_DATE ( 2022, 8, 7 ) ;
#126 = CARTESIAN_POINT ( 'NONE',  ( 0.000000000000000000, 0.000000000000000000, 205.0000000000000284 ) ) ;
#127 = ORIENTED_EDGE ( 'NONE', *, *, #221, .T. ) ;
#128 = DATE_TIME_ROLE ( 'classification_date' ) ;
#129 = FACE_OUTER_BOUND ( 'NONE', #278, .T. ) ;
#130 = AXIS2_PLACEMENT_3D ( 'NONE', #269, #10, #163 ) ;
#131 = VECTOR ( 'NONE', #287, 1000.000000000000000 ) ;
#132 = ORIENTED_EDGE ( 'NONE', *, *, #177, .T. ) ;
#133 = PRODUCT_DEFINITION_FORMATION_WITH_SPECIFIED_SOURCE ( 'LIBOVOLNÝ', '', #354, .NOT_KNOWN. ) ;
#134 = PERSON_AND_ORGANIZATION ( #88, #43 ) ;
#135 = CC_DESIGN_DATE_AND_TIME_ASSIGNMENT ( #331, #128, ( #21 ) ) ;
#136 = DIRECTION ( 'NONE',  ( 1.000000000000000000, 0.000000000000000000, -0.000000000000000000 ) ) ;
#137 = CALENDAR_DATE ( 2022, 8, 7 ) ;
#138 = DIRECTION ( 'NONE',  ( 0.000000000000000000, 0.000000000000000000, 1.000000000000000000 ) ) ;
#139 = DIRECTION ( 'NONE',  ( -0.000000000000000000, -0.000000000000000000, -1.000000000000000000 ) ) ;
#140 = CARTESIAN_POINT ( 'NONE',  ( 0.000000000000000000, 0.000000000000000000, 205.0000000000000284 ) ) ;
#141 = DIRECTION ( 'NONE',  ( -1.000000000000000000, 0.000000000000000000, 0.000000000000000000 ) ) ;
#142 = ADVANCED_FACE ( 'NONE', ( #275 ), #345, .F. ) ;
#143 = LOCAL_TIME ( 17, 27, 56.00000000000000000, #154 ) ;
#144 = CYLINDRICAL_SURFACE ( 'NONE', #305, 7.000000000000000000 ) ;
#145 = CARTESIAN_POINT ( 'NONE',  ( 0.000000000000000000, 0.000000000000000000, 5.500000000000005329 ) ) ;
#146 = DIRECTION ( 'NONE',  ( 0.000000000000000000, 0.000000000000000000, 1.000000000000000000 ) ) ;
#147 = DIRECTION ( 'NONE',  ( -0.000000000000000000, -0.000000000000000000, -1.000000000000000000 ) ) ;
#148 = DIRECTION ( 'NONE',  ( 1.000000000000000000, 0.000000000000000000, 0.000000000000000000 ) ) ;
#149 = ADVANCED_FACE ( 'NONE', ( #8, #182 ), #35, .F. ) ;
#150 = ORIENTED_EDGE ( 'NONE', *, *, #371, .T. ) ;
#151 = AXIS2_PLACEMENT_3D ( 'NONE', #313, #250, #141 ) ;
#152 = CIRCLE ( 'NONE', #338, 4.000000000000000000 ) ;
#153 = VERTEX_POINT ( 'NONE', #33 ) ;
#154 = COORDINATED_UNIVERSAL_TIME_OFFSET ( 1, 0, .AHEAD. ) ;
#155 = DIRECTION ( 'NONE',  ( 1.000000000000000000, 0.000000000000000000, 0.000000000000000000 ) ) ;
#156 = VERTEX_POINT ( 'NONE', #339 ) ;
#157 = PERSON_AND_ORGANIZATION_ROLE ( 'design_supplier' ) ;
#158 = DIRECTION ( 'NONE',  ( 0.000000000000000000, 0.000000000000000000, -1.000000000000000000 ) ) ;
#159 = ORIENTED_EDGE ( 'NONE', *, *, #279, .F. ) ;
#160 = AXIS2_PLACEMENT_3D ( 'NONE', #126, #218, #102 ) ;
#161 = APPROVAL_PERSON_ORGANIZATION ( #134, #379, #268 ) ;
#162 = ORIENTED_EDGE ( 'NONE', *, *, #356, .T. ) ;
#163 = DIRECTION ( 'NONE',  ( 1.000000000000000000, 0.000000000000000000, 0.000000000000000000 ) ) ;
#164 = VERTEX_POINT ( 'NONE', #190 ) ;
#165 = FACE_OUTER_BOUND ( 'NONE', #366, .T. ) ;
#166 = CC_DESIGN_DATE_AND_TIME_ASSIGNMENT ( #55, #179, ( #109 ) ) ;
#167 = CYLINDRICAL_SURFACE ( 'NONE', #151, 4.000000000000000000 ) ;
#168 = DIRECTION ( 'NONE',  ( 1.000000000000000000, 0.000000000000000000, 0.000000000000000000 ) ) ;
#169 = AXIS2_PLACEMENT_3D ( 'NONE', #282, #245, #78 ) ;
#170 = EDGE_CURVE ( 'NONE', #103, #164, #28, .T. ) ;
#171 = CARTESIAN_POINT ( 'NONE',  ( 0.000000000000000000, 0.000000000000000000, 205.0000000000000284 ) ) ;
#172 = CARTESIAN_POINT ( 'NONE',  ( -7.000000000000000000, 0.000000000000000000, 5.000000000000000000 ) ) ;
#173 = CARTESIAN_POINT ( 'NONE',  ( 7.000000000000000000, 8.572527594031473190E-16, 5.000000000000000000 ) ) ;
#174 = VECTOR ( 'NONE', #73, 1000.000000000000000 ) ;
#175 = DIRECTION ( 'NONE',  ( -0.000000000000000000, -0.000000000000000000, -1.000000000000000000 ) ) ;
#176 = DATE_AND_TIME ( #320, #292 ) ;
#177 = EDGE_CURVE ( 'NONE', #69, #340, #272, .T. ) ;
#178 = CIRCLE ( 'NONE', #209, 4.500000000000000888 ) ;
#179 = DATE_TIME_ROLE ( 'creation_date' ) ;
#180 = ORIENTED_EDGE ( 'NONE', *, *, #273, .F. ) ;
#181 = APPROVAL_DATE_TIME ( #65, #23 ) ;
#182 = FACE_OUTER_BOUND ( 'NONE', #123, .T. ) ;
#183 = CC_DESIGN_SECURITY_CLASSIFICATION ( #21, ( #133 ) ) ;
#184 = ORIENTED_EDGE ( 'NONE', *, *, #296, .T. ) ;
#185 = CARTESIAN_POINT ( 'NONE',  ( -7.000000000000000000, 0.000000000000000000, 0.000000000000000000 ) ) ;
#186 = ORIENTED_EDGE ( 'NONE', *, *, #371, .F. ) ;
#187 = DATE_AND_TIME ( #125, #352 ) ;
#188 = DIRECTION ( 'NONE',  ( 1.000000000000000000, 0.000000000000000000, 0.000000000000000000 ) ) ;
#189 = EDGE_LOOP ( 'NONE', ( #132, #299 ) ) ;
#190 = CARTESIAN_POINT ( 'NONE',  ( 7.000000000000000000, 8.572527594031473190E-16, 0.000000000000000000 ) ) ;
#191 = APPROVAL_PERSON_ORGANIZATION ( #293, #23, #260 ) ;
#192 = ORIENTED_EDGE ( 'NONE', *, *, #170, .T. ) ;
#193 = CALENDAR_DATE ( 2022, 8, 7 ) ;
#194 = ADVANCED_FACE ( 'NONE', ( #129 ), #242, .F. ) ;
#195 = DIRECTION ( 'NONE',  ( 0.000000000000000000, 0.000000000000000000, 1.000000000000000000 ) ) ;
#196 = FACE_OUTER_BOUND ( 'NONE', #14, .T. ) ;
#197 = DIRECTION ( 'NONE',  ( 0.000000000000000000, 0.000000000000000000, 1.000000000000000000 ) ) ;
#198 = CARTESIAN_POINT ( 'NONE',  ( 2.100000000000000089, 2.571758278209441957E-16, 0.000000000000000000 ) ) ;
#199 = DIRECTION ( 'NONE',  ( 0.000000000000000000, 0.000000000000000000, 1.000000000000000000 ) ) ;
#200 = AXIS2_PLACEMENT_3D ( 'NONE', #257, #210, #58 ) ;
#201 = DIRECTION ( 'NONE',  ( -0.000000000000000000, -0.000000000000000000, -1.000000000000000000 ) ) ;
#202 = CC_DESIGN_PERSON_AND_ORGANIZATION_ASSIGNMENT ( #213, #271, ( #133 ) ) ;
#203 = CARTESIAN_POINT ( 'NONE',  ( 0.000000000000000000, 0.000000000000000000, 5.000000000000000000 ) ) ;
#204 = DIRECTION ( 'NONE',  ( 1.000000000000000000, 0.000000000000000000, 0.000000000000000000 ) ) ;
#205 = CIRCLE ( 'NONE', #297, 2.100000000000000089 ) ;
#206 = APPROVAL_ROLE ( '' ) ;
#207 = EDGE_CURVE ( 'NONE', #153, #34, #322, .T. ) ;
#208 = CALENDAR_DATE ( 2022, 8, 7 ) ;
#209 = AXIS2_PLACEMENT_3D ( 'NONE', #92, #232, #148 ) ;
#210 = DIRECTION ( 'NONE',  ( 0.000000000000000000, 0.000000000000000000, 1.000000000000000000 ) ) ;
#211 = ORIENTED_EDGE ( 'NONE', *, *, #170, .F. ) ;
#212 = EDGE_CURVE ( 'NONE', #285, #368, #377, .T. ) ;
#213 = PERSON_AND_ORGANIZATION ( #88, #43 ) ;
#214 = EDGE_CURVE ( 'NONE', #153, #124, #121, .T. ) ;
#215 = DIRECTION ( 'NONE',  ( 0.000000000000000000, 0.000000000000000000, -1.000000000000000000 ) ) ;
#216 = SECURITY_CLASSIFICATION_LEVEL ( 'unclassified' ) ;
#217 = EDGE_LOOP ( 'NONE', ( #283, #335, #358, #98 ) ) ;
#218 = DIRECTION ( 'NONE',  ( 0.000000000000000000, 0.000000000000000000, -1.000000000000000000 ) ) ;
#219 = CARTESIAN_POINT ( 'NONE',  ( 0.000000000000000000, 0.000000000000000000, 0.000000000000000000 ) ) ;
#220 = ORIENTED_EDGE ( 'NONE', *, *, #279, .T. ) ;
#221 = EDGE_CURVE ( 'NONE', #34, #243, #87, .T. ) ;
#222 = AXIS2_PLACEMENT_3D ( 'NONE', #253, #175, #168 ) ;
#223 = ORIENTED_EDGE ( 'NONE', *, *, #378, .T. ) ;
#224 = FACE_OUTER_BOUND ( 'NONE', #280, .T. ) ;
#225 = PLANE ( 'NONE',  #99 ) ;
#226 = AXIS2_PLACEMENT_3D ( 'NONE', #344, #199, #45 ) ;
#227 = PLANE ( 'NONE',  #70 ) ;
#228 = CARTESIAN_POINT ( 'NONE',  ( -7.000000000000000000, 0.000000000000000000, 5.000000000000000000 ) ) ;
#229 = DIRECTION ( 'NONE',  ( 0.000000000000000000, 0.000000000000000000, 1.000000000000000000 ) ) ;
#230 = CC_DESIGN_PERSON_AND_ORGANIZATION_ASSIGNMENT ( #288, #2, ( #109 ) ) ;
#231 = LOCAL_TIME ( 17, 27, 56.00000000000000000, #89 ) ;
#232 = DIRECTION ( 'NONE',  ( -0.000000000000000000, -0.000000000000000000, -1.000000000000000000 ) ) ;
#233 = AXIS2_PLACEMENT_3D ( 'NONE', #277, #195, #237 ) ;
#234 = EDGE_LOOP ( 'NONE', ( #11, #241, #127, #9 ) ) ;
#235 = PERSON_AND_ORGANIZATION_ROLE ( 'classification_officer' ) ;
#236 = ORIENTED_EDGE ( 'NONE', *, *, #294, .F. ) ;
#237 = DIRECTION ( 'NONE',  ( 1.000000000000000000, 0.000000000000000000, 0.000000000000000000 ) ) ;
#238 = EDGE_LOOP ( 'NONE', ( #360, #94, #84, #302 ) ) ;
#239 = CLOSED_SHELL ( 'NONE', ( #256, #261, #25, #57, #341, #321, #149, #46, #77, #142, #194 ) ) ;
#240 = LOCAL_TIME ( 17, 27, 56.00000000000000000, #5 ) ;
#241 = ORIENTED_EDGE ( 'NONE', *, *, #296, .F. ) ;
#242 = CYLINDRICAL_SURFACE ( 'NONE', #160, 2.100000000000000089 ) ;
#243 = VERTEX_POINT ( 'NONE', #15 ) ;
#244 = CARTESIAN_POINT ( 'NONE',  ( 4.500000000000000888, 0.000000000000000000, 5.500000000000005329 ) ) ;
#245 = DIRECTION ( 'NONE',  ( 0.000000000000000000, 0.000000000000000000, 1.000000000000000000 ) ) ;
#246 = LINE ( 'NONE', #342, #174 ) ;
#247 = AXIS2_PLACEMENT_3D ( 'NONE', #100, #359, #266 ) ;
#248 = ORIENTED_EDGE ( 'NONE', *, *, #356, .F. ) ;
#249 = CARTESIAN_POINT ( 'NONE',  ( -2.100000000000000089, 0.000000000000000000, 205.0000000000000284 ) ) ;
#250 = DIRECTION ( 'NONE',  ( -0.000000000000000000, -0.000000000000000000, -1.000000000000000000 ) ) ;
#251 = DIRECTION ( 'NONE',  ( 1.000000000000000000, 0.000000000000000000, 0.000000000000000000 ) ) ;
#252 = CARTESIAN_POINT ( 'NONE',  ( 4.000000000000000000, 4.898587196589412829E-16, 205.0000000000000284 ) ) ;
#253 = CARTESIAN_POINT ( 'NONE',  ( 0.000000000000000000, 0.000000000000000000, 0.000000000000000000 ) ) ;
#254 = AXIS2_PLACEMENT_3D ( 'NONE', #308, #68, #188 ) ;
#255 = DIRECTION ( 'NONE',  ( 1.000000000000000000, 0.000000000000000000, 0.000000000000000000 ) ) ;
#256 = ADVANCED_FACE ( 'NONE', ( #165 ), #97, .F. ) ;
#257 = CARTESIAN_POINT ( 'NONE',  ( 0.000000000000000000, 0.000000000000000000, 0.000000000000000000 ) ) ;
#258 = VECTOR ( 'NONE', #16, 1000.000000000000000 ) ;
#259 = MECHANICAL_CONTEXT ( 'NONE', #317, 'mechanical' ) ;
#260 = APPROVAL_ROLE ( '' ) ;
#261 = ADVANCED_FACE ( 'NONE', ( #329 ), #318, .F. ) ;
#262 = EDGE_CURVE ( 'NONE', #243, #124, #373, .T. ) ;
#263 = VERTEX_POINT ( 'NONE', #281 ) ;
#264 = AXIS2_PLACEMENT_3D ( 'NONE', #244, #369, #158 ) ;
#265 = ORIENTED_EDGE ( 'NONE', *, *, #324, .F. ) ;
#266 = DIRECTION ( 'NONE',  ( 1.000000000000000000, 0.000000000000000000, 0.000000000000000000 ) ) ;
#267 = ORIENTED_EDGE ( 'NONE', *, *, #324, .T. ) ;
#268 = APPROVAL_ROLE ( '' ) ;
#269 = CARTESIAN_POINT ( 'NONE',  ( 0.000000000000000000, 0.000000000000000000, 0.000000000000000000 ) ) ;
#270 = ORIENTED_EDGE ( 'NONE', *, *, #177, .F. ) ;
#271 = PERSON_AND_ORGANIZATION_ROLE ( 'creator' ) ;
#272 = CIRCLE ( 'NONE', #85, 7.000000000000000000 ) ;
#273 = EDGE_CURVE ( 'NONE', #263, #59, #47, .T. ) ;
#274 = AXIS2_PLACEMENT_3D ( 'NONE', #312, #17, #255 ) ;
#275 = FACE_OUTER_BOUND ( 'NONE', #234, .T. ) ;
#276 = EDGE_LOOP ( 'NONE', ( #36, #159 ) ) ;
#277 = CARTESIAN_POINT ( 'NONE',  ( 0.000000000000000000, 0.000000000000000000, 205.0000000000000284 ) ) ;
#278 = EDGE_LOOP ( 'NONE', ( #186, #162, #319, #307 ) ) ;
#279 = EDGE_CURVE ( 'NONE', #30, #59, #3, .T. ) ;
#280 = EDGE_LOOP ( 'NONE', ( #326, #95, #4, #61 ) ) ;
#281 = CARTESIAN_POINT ( 'NONE',  ( -2.100000000000000089, 0.000000000000000000, 205.0000000000000284 ) ) ;
#282 = CARTESIAN_POINT ( 'NONE',  ( 0.000000000000000000, 0.000000000000000000, 205.0000000000000284 ) ) ;
#283 = ORIENTED_EDGE ( 'NONE', *, *, #207, .F. ) ;
#284 = EDGE_CURVE ( 'NONE', #69, #103, #44, .T. ) ;
#285 = VERTEX_POINT ( 'NONE', #76 ) ;
#286 = CYLINDRICAL_SURFACE ( 'NONE', #56, 7.000000000000000000 ) ;
#287 = DIRECTION ( 'NONE',  ( -0.000000000000000000, -0.000000000000000000, -1.000000000000000000 ) ) ;
#288 = PERSON_AND_ORGANIZATION ( #88, #43 ) ;
#289 =( NAMED_UNIT ( * ) SI_UNIT ( $, .STERADIAN. ) SOLID_ANGLE_UNIT ( ) );
#290 = CIRCLE ( 'NONE', #130, 2.100000000000000089 ) ;
#291 = APPROVAL ( #27, 'NEURÈENÝ' ) ;
#292 = LOCAL_TIME ( 17, 27, 56.00000000000000000, #380 ) ;
#293 = PERSON_AND_ORGANIZATION ( #88, #43 ) ;
#294 = EDGE_CURVE ( 'NONE', #164, #103, #80, .T. ) ;
#295 = MANIFOLD_SOLID_BREP ( 'Odebrat vysunutím3', #239 ) ;
#296 = EDGE_CURVE ( 'NONE', #34, #153, #152, .T. ) ;
#297 = AXIS2_PLACEMENT_3D ( 'NONE', #310, #83, #50 ) ;
#298 = DIRECTION ( 'NONE',  ( 1.000000000000000000, 0.000000000000000000, -0.000000000000000000 ) ) ;
#299 = ORIENTED_EDGE ( 'NONE', *, *, #64, .T. ) ;
#300 = DESIGN_CONTEXT ( 'detailed design', #118, 'design' ) ;
#301 = DIRECTION ( 'NONE',  ( 1.224646799147353207E-16, 1.000000000000000000, -0.000000000000000000 ) ) ;
#302 = ORIENTED_EDGE ( 'NONE', *, *, #284, .F. ) ;
#303 = CARTESIAN_POINT ( 'NONE',  ( 0.000000000000000000, 0.000000000000000000, 5.500000000000005329 ) ) ;
#304 = ORIENTED_EDGE ( 'NONE', *, *, #1, .F. ) ;
#305 = AXIS2_PLACEMENT_3D ( 'NONE', #41, #111, #105 ) ;
#306 = VECTOR ( 'NONE', #115, 1000.000000000000000 ) ;
#307 = ORIENTED_EDGE ( 'NONE', *, *, #122, .T. ) ;
#308 = CARTESIAN_POINT ( 'NONE',  ( 0.000000000000000000, 0.000000000000000000, 5.500000000000005329 ) ) ;
#309 = LINE ( 'NONE', #343, #42 ) ;
#310 = CARTESIAN_POINT ( 'NONE',  ( 0.000000000000000000, 0.000000000000000000, 205.0000000000000284 ) ) ;
#311 = FACE_OUTER_BOUND ( 'NONE', #238, .T. ) ;
#312 = CARTESIAN_POINT ( 'NONE',  ( 0.000000000000000000, 0.000000000000000000, 0.000000000000000000 ) ) ;
#313 = CARTESIAN_POINT ( 'NONE',  ( 0.000000000000000000, 0.000000000000000000, 205.0000000000000284 ) ) ;
#314 = CARTESIAN_POINT ( 'NONE',  ( 0.000000000000000000, 0.000000000000000000, 205.0000000000000284 ) ) ;
#315 = LINE ( 'NONE', #49, #131 ) ;
#316 = CIRCLE ( 'NONE', #169, 2.100000000000000089 ) ;
#317 = APPLICATION_CONTEXT ( 'configuration controlled 3d designs of mechanical parts and assemblies' ) ;
#318 = TOROIDAL_SURFACE ( 'NONE', #323, 4.500000000000000888, 0.5000000000000000000 ) ;
#319 = ORIENTED_EDGE ( 'NONE', *, *, #273, .T. ) ;
#320 = CALENDAR_DATE ( 2022, 8, 7 ) ;
#321 = ADVANCED_FACE ( 'NONE', ( #375, #112 ), #225, .T. ) ;
#322 = CIRCLE ( 'NONE', #93, 4.000000000000000000 ) ;
#323 = AXIS2_PLACEMENT_3D ( 'NONE', #303, #229, #19 ) ;
#324 = EDGE_CURVE ( 'NONE', #368, #285, #381, .T. ) ;
#325 =( NAMED_UNIT ( * ) PLANE_ANGLE_UNIT ( ) SI_UNIT ( $, .RADIAN. ) );
#326 = ORIENTED_EDGE ( 'NONE', *, *, #54, .F. ) ;
#327 = EDGE_LOOP ( 'NONE', ( #101, #267 ) ) ;
#328 = SHAPE_DEFINITION_REPRESENTATION ( #75, #370 ) ;
#329 = FACE_OUTER_BOUND ( 'NONE', #217, .T. ) ;
#330 = ORIENTED_EDGE ( 'NONE', *, *, #29, .T. ) ;
#331 = DATE_AND_TIME ( #137, #143 ) ;
#332 = CARTESIAN_POINT ( 'NONE',  ( 0.000000000000000000, 0.000000000000000000, 5.000000000000000000 ) ) ;
#333 = EDGE_CURVE ( 'NONE', #285, #153, #315, .T. ) ;
#334 = ORIENTED_EDGE ( 'NONE', *, *, #333, .F. ) ;
#335 = ORIENTED_EDGE ( 'NONE', *, *, #214, .T. ) ;
#336 = APPROVAL_STATUS ( 'not_yet_approved' ) ;
#337 = CIRCLE ( 'NONE', #226, 7.000000000000000000 ) ;
#338 = AXIS2_PLACEMENT_3D ( 'NONE', #145, #197, #251 ) ;
#339 = CARTESIAN_POINT ( 'NONE',  ( 2.100000000000000089, 2.571758278209441957E-16, 205.0000000000000284 ) ) ;
#340 = VERTEX_POINT ( 'NONE', #173 ) ;
#341 = ADVANCED_FACE ( 'NONE', ( #40 ), #286, .T. ) ;
#342 = CARTESIAN_POINT ( 'NONE',  ( 2.100000000000000089, 2.571758278209441957E-16, 205.0000000000000284 ) ) ;
#343 = CARTESIAN_POINT ( 'NONE',  ( 7.000000000000000000, 8.572527594031473190E-16, 5.000000000000000000 ) ) ;
#344 = CARTESIAN_POINT ( 'NONE',  ( 0.000000000000000000, 0.000000000000000000, 5.000000000000000000 ) ) ;
#345 = TOROIDAL_SURFACE ( 'NONE', #254, 4.500000000000000888, 0.5000000000000000000 ) ;
#346 = DIRECTION ( 'NONE',  ( 0.000000000000000000, 0.000000000000000000, 1.000000000000000000 ) ) ;
#347 = CC_DESIGN_PERSON_AND_ORGANIZATION_ASSIGNMENT ( #96, #157, ( #133 ) ) ;
#348 = DIRECTION ( 'NONE',  ( 0.000000000000000000, 0.000000000000000000, 1.000000000000000000 ) ) ;
#349 = DIRECTION ( 'NONE',  ( -0.000000000000000000, -0.000000000000000000, -1.000000000000000000 ) ) ;
#350 = ORIENTED_EDGE ( 'NONE', *, *, #54, .T. ) ;
#351 = APPLICATION_PROTOCOL_DEFINITION ( 'international standard', 'config_control_design', 1994, #118 ) ;
#352 = LOCAL_TIME ( 17, 27, 56.00000000000000000, #12 ) ;
#353 = PRODUCT_RELATED_PRODUCT_CATEGORY ( 'detail', '', ( #354 ) ) ;
#354 = PRODUCT ( '5d98', '5d98', '', ( #259 ) ) ;
#355 =( LENGTH_UNIT ( ) NAMED_UNIT ( * ) SI_UNIT ( .MILLI., .METRE. ) );
#356 = EDGE_CURVE ( 'NONE', #156, #263, #205, .T. ) ;
#357 = CC_DESIGN_APPROVAL ( #291, ( #109 ) ) ;
#358 = ORIENTED_EDGE ( 'NONE', *, *, #262, .F. ) ;
#359 = DIRECTION ( 'NONE',  ( 0.000000000000000000, 0.000000000000000000, 1.000000000000000000 ) ) ;
#360 = ORIENTED_EDGE ( 'NONE', *, *, #64, .F. ) ;
#361 = DIRECTION ( 'NONE',  ( 0.000000000000000000, 0.000000000000000000, 1.000000000000000000 ) ) ;
#362 = EDGE_LOOP ( 'NONE', ( #304, #270, #52, #192 ) ) ;
#363 = AXIS2_PLACEMENT_3D ( 'NONE', #332, #349, #204 ) ;
#364 = CC_DESIGN_PERSON_AND_ORGANIZATION_ASSIGNMENT ( #86, #90, ( #354 ) ) ;
#365 = CARTESIAN_POINT ( 'NONE',  ( 0.000000000000000000, 0.000000000000000000, 5.000000000000000000 ) ) ;
#366 = EDGE_LOOP ( 'NONE', ( #330, #150, #220, #180 ) ) ;
#367 = APPROVAL_DATE_TIME ( #187, #379 ) ;
#368 = VERTEX_POINT ( 'NONE', #22 ) ;
#369 = DIRECTION ( 'NONE',  ( 0.000000000000000000, -1.000000000000000000, 0.000000000000000000 ) ) ;
#370 = ADVANCED_BREP_SHAPE_REPRESENTATION ( '5d98', ( #295, #200 ), #119 ) ;
#371 = EDGE_CURVE ( 'NONE', #156, #30, #246, .T. ) ;
#372 = AXIS2_PLACEMENT_3D ( 'NONE', #219, #72, #136 ) ;
#373 = CIRCLE ( 'NONE', #363, 4.500000000000000888 ) ;
#374 = CARTESIAN_POINT ( 'NONE',  ( -2.100000000000000089, 0.000000000000000000, 0.000000000000000000 ) ) ;
#375 = FACE_BOUND ( 'NONE', #48, .T. ) ;
#376 = FACE_BOUND ( 'NONE', #38, .T. ) ;
#377 = CIRCLE ( 'NONE', #233, 4.000000000000000000 ) ;
#378 = EDGE_CURVE ( 'NONE', #124, #243, #178, .T. ) ;
#379 = APPROVAL ( #336, 'NEURÈENÝ' ) ;
#380 = COORDINATED_UNIVERSAL_TIME_OFFSET ( 1, 0, .AHEAD. ) ;
#381 = CIRCLE ( 'NONE', #114, 4.000000000000000000 ) ;
ENDSEC;
END-ISO-10303-21;
