ISO-10303-21;
HEADER;
FILE_DESCRIPTION (( 'STEP AP203' ),
    '1' );
FILE_NAME ('b77d.STEP',
    '2022-07-08T15:48:55',
    ( '' ),
    ( '' ),
    'SwSTEP 2.0',
    'SolidWorks 2019',
    '' );
FILE_SCHEMA (( 'CONFIG_CONTROL_DESIGN' ));
ENDSEC;

DATA;
#1 = DIRECTION ( 'NONE',  ( 0.000000000000000000, 0.000000000000000000, -1.000000000000000000 ) ) ;
#2 = DIRECTION ( 'NONE',  ( 0.000000000000000000, 0.000000000000000000, 1.000000000000000000 ) ) ;
#3 = CIRCLE ( 'NONE', #355, 5.000000000000000000 ) ;
#4 = CARTESIAN_POINT ( 'NONE',  ( 0.000000000000000000, 0.000000000000000000, 103.0000000000000142 ) ) ;
#5 = FACE_OUTER_BOUND ( 'NONE', #140, .T. ) ;
#6 = AXIS2_PLACEMENT_3D ( 'NONE', #150, #289, #332 ) ;
#7 = LOCAL_TIME ( 17, 48, 55.00000000000000000, #54 ) ;
#8 = PERSON_AND_ORGANIZATION ( #248, #299 ) ;
#9 = UNCERTAINTY_MEASURE_WITH_UNIT (LENGTH_MEASURE( 1.000000000000000082E-05 ), #245, 'distance_accuracy_value', 'NONE');
#10 = PRODUCT_RELATED_PRODUCT_CATEGORY ( 'detail', '', ( #373 ) ) ;
#11 = PERSON_AND_ORGANIZATION_ROLE ( 'design_supplier' ) ;
#12 = CARTESIAN_POINT ( 'NONE',  ( -5.000000000000000000, 0.000000000000000000, 0.000000000000000000 ) ) ;
#13 = CLOSED_SHELL ( 'NONE', ( #96, #298, #361, #187, #301, #36, #273, #334, #305, #200, #343 ) ) ;
#14 = CARTESIAN_POINT ( 'NONE',  ( 2.500000000000000000, 3.061616997868383141E-16, 3.299999999999997158 ) ) ;
#15 = VERTEX_POINT ( 'NONE', #46 ) ;
#16 = CARTESIAN_POINT ( 'NONE',  ( 2.799999999999999822, 0.000000000000000000, 2.999999999999998668 ) ) ;
#17 = ORIENTED_EDGE ( 'NONE', *, *, #331, .T. ) ;
#18 = AXIS2_PLACEMENT_3D ( 'NONE', #66, #2, #129 ) ;
#19 = DIRECTION ( 'NONE',  ( 0.000000000000000000, 0.000000000000000000, -1.000000000000000000 ) ) ;
#20 = ORIENTED_EDGE ( 'NONE', *, *, #124, .F. ) ;
#21 = EDGE_CURVE ( 'NONE', #286, #318, #344, .T. ) ;
#22 = PLANE ( 'NONE',  #329 ) ;
#23 = EDGE_LOOP ( 'NONE', ( #58, #104 ) ) ;
#24 = DATE_AND_TIME ( #290, #158 ) ;
#25 = DIRECTION ( 'NONE',  ( 0.000000000000000000, 0.000000000000000000, -1.000000000000000000 ) ) ;
#26 = AXIS2_PLACEMENT_3D ( 'NONE', #195, #362, #314 ) ;
#27 = DIRECTION ( 'NONE',  ( -0.000000000000000000, -0.000000000000000000, -1.000000000000000000 ) ) ;
#28 = ORIENTED_EDGE ( 'NONE', *, *, #133, .T. ) ;
#29 = PLANE ( 'NONE',  #6 ) ;
#30 = CARTESIAN_POINT ( 'NONE',  ( -5.000000000000000000, 0.000000000000000000, 3.000000000000000000 ) ) ;
#31 = ORIENTED_EDGE ( 'NONE', *, *, #325, .T. ) ;
#32 = TOROIDAL_SURFACE ( 'NONE', #368, 2.799999999999999822, 0.2999999999999999889 ) ;
#33 = CIRCLE ( 'NONE', #131, 1.250000000000000000 ) ;
#34 = CYLINDRICAL_SURFACE ( 'NONE', #189, 2.500000000000000000 ) ;
#35 = COORDINATED_UNIVERSAL_TIME_OFFSET ( 1, 0, .AHEAD. ) ;
#36 = ADVANCED_FACE ( 'NONE', ( #310, #169 ), #307, .T. ) ;
#37 = CALENDAR_DATE ( 2022, 8, 7 ) ;
#38 = LOCAL_TIME ( 17, 48, 55.00000000000000000, #35 ) ;
#39 = CARTESIAN_POINT ( 'NONE',  ( 0.000000000000000000, 0.000000000000000000, 103.0000000000000142 ) ) ;
#40 = ORIENTED_EDGE ( 'NONE', *, *, #256, .T. ) ;
#41 = DIRECTION ( 'NONE',  ( 0.000000000000000000, 0.000000000000000000, 1.000000000000000000 ) ) ;
#42 = ORIENTED_EDGE ( 'NONE', *, *, #325, .F. ) ;
#43 = AXIS2_PLACEMENT_3D ( 'NONE', #177, #232, #291 ) ;
#44 = CYLINDRICAL_SURFACE ( 'NONE', #288, 1.250000000000000000 ) ;
#45 = ORIENTED_EDGE ( 'NONE', *, *, #127, .F. ) ;
#46 = CARTESIAN_POINT ( 'NONE',  ( 1.250000000000000000, 1.530808498934191571E-16, 103.0000000000000142 ) ) ;
#47 = VERTEX_POINT ( 'NONE', #100 ) ;
#48 = CC_DESIGN_DATE_AND_TIME_ASSIGNMENT ( #156, #98, ( #292 ) ) ;
#49 = CARTESIAN_POINT ( 'NONE',  ( 0.000000000000000000, 0.000000000000000000, 3.000000000000000000 ) ) ;
#50 = ORIENTED_EDGE ( 'NONE', *, *, #256, .F. ) ;
#51 = CIRCLE ( 'NONE', #125, 5.000000000000000000 ) ;
#52 = AXIS2_PLACEMENT_3D ( 'NONE', #82, #143, #259 ) ;
#53 = DIRECTION ( 'NONE',  ( 1.000000000000000000, 0.000000000000000000, 0.000000000000000000 ) ) ;
#54 = COORDINATED_UNIVERSAL_TIME_OFFSET ( 1, 0, .AHEAD. ) ;
#55 = DIRECTION ( 'NONE',  ( -0.000000000000000000, -0.000000000000000000, -1.000000000000000000 ) ) ;
#56 = EDGE_CURVE ( 'NONE', #328, #76, #79, .T. ) ;
#57 = DIRECTION ( 'NONE',  ( -0.000000000000000000, -0.000000000000000000, -1.000000000000000000 ) ) ;
#58 = ORIENTED_EDGE ( 'NONE', *, *, #139, .F. ) ;
#59 = AXIS2_PLACEMENT_3D ( 'NONE', #354, #90, #349 ) ;
#60 = LINE ( 'NONE', #262, #178 ) ;
#61 = EDGE_LOOP ( 'NONE', ( #20, #50 ) ) ;
#62 = FACE_OUTER_BOUND ( 'NONE', #196, .T. ) ;
#63 = DIRECTION ( 'NONE',  ( -1.000000000000000000, 0.000000000000000000, 0.000000000000000000 ) ) ;
#64 = CC_DESIGN_PERSON_AND_ORGANIZATION_ASSIGNMENT ( #229, #277, ( #135 ) ) ;
#65 = AXIS2_PLACEMENT_3D ( 'NONE', #172, #27, #181 ) ;
#66 = CARTESIAN_POINT ( 'NONE',  ( 0.000000000000000000, 0.000000000000000000, 0.000000000000000000 ) ) ;
#67 = CC_DESIGN_PERSON_AND_ORGANIZATION_ASSIGNMENT ( #115, #11, ( #91 ) ) ;
#68 = APPLICATION_PROTOCOL_DEFINITION ( 'international standard', 'config_control_design', 1994, #159 ) ;
#69 = FACE_OUTER_BOUND ( 'NONE', #255, .T. ) ;
#70 = APPROVAL_STATUS ( 'not_yet_approved' ) ;
#71 = DIRECTION ( 'NONE',  ( 0.000000000000000000, 0.000000000000000000, 1.000000000000000000 ) ) ;
#72 = DIRECTION ( 'NONE',  ( 1.000000000000000000, 0.000000000000000000, 0.000000000000000000 ) ) ;
#73 = EDGE_CURVE ( 'NONE', #47, #324, #89, .T. ) ;
#74 = ORIENTED_EDGE ( 'NONE', *, *, #56, .T. ) ;
#75 = DIRECTION ( 'NONE',  ( 0.000000000000000000, 0.000000000000000000, -1.000000000000000000 ) ) ;
#76 = VERTEX_POINT ( 'NONE', #137 ) ;
#77 = AXIS2_PLACEMENT_3D ( 'NONE', #339, #71, #364 ) ;
#78 = EDGE_LOOP ( 'NONE', ( #194, #370 ) ) ;
#79 = LINE ( 'NONE', #304, #363 ) ;
#80 = SECURITY_CLASSIFICATION_LEVEL ( 'unclassified' ) ;
#81 = MANIFOLD_SOLID_BREP ( 'Odebrat vysunutím3', #13 ) ;
#82 = CARTESIAN_POINT ( 'NONE',  ( 0.000000000000000000, 0.000000000000000000, 103.0000000000000142 ) ) ;
#83 = ORIENTED_EDGE ( 'NONE', *, *, #184, .T. ) ;
#84 = FACE_BOUND ( 'NONE', #23, .T. ) ;
#85 = DATE_AND_TIME ( #215, #211 ) ;
#86 = CARTESIAN_POINT ( 'NONE',  ( 0.000000000000000000, 0.000000000000000000, 103.0000000000000142 ) ) ;
#87 = DIRECTION ( 'NONE',  ( 0.000000000000000000, 0.000000000000000000, 1.000000000000000000 ) ) ;
#88 = ORIENTED_EDGE ( 'NONE', *, *, #313, .T. ) ;
#89 = CIRCLE ( 'NONE', #303, 1.250000000000000000 ) ;
#90 = DIRECTION ( 'NONE',  ( 0.000000000000000000, 0.000000000000000000, 1.000000000000000000 ) ) ;
#91 = PRODUCT_DEFINITION_FORMATION_WITH_SPECIFIED_SOURCE ( 'LIBOVOLNÝ', '', #373, .NOT_KNOWN. ) ;
#92 = APPROVAL ( #70, 'NEURÈENÝ' ) ;
#93 = DIRECTION ( 'NONE',  ( 1.000000000000000000, 0.000000000000000000, 0.000000000000000000 ) ) ;
#94 = PERSON_AND_ORGANIZATION_ROLE ( 'design_owner' ) ;
#95 = VECTOR ( 'NONE', #25, 1000.000000000000000 ) ;
#96 = ADVANCED_FACE ( 'NONE', ( #161 ), #44, .F. ) ;
#97 = CARTESIAN_POINT ( 'NONE',  ( 0.000000000000000000, 0.000000000000000000, 103.0000000000000142 ) ) ;
#98 = DATE_TIME_ROLE ( 'creation_date' ) ;
#99 = DESIGN_CONTEXT ( 'detailed design', #176, 'design' ) ;
#100 = CARTESIAN_POINT ( 'NONE',  ( 1.250000000000000000, 1.530808498934191571E-16, 0.000000000000000000 ) ) ;
#101 = CC_DESIGN_PERSON_AND_ORGANIZATION_ASSIGNMENT ( #269, #94, ( #373 ) ) ;
#102 = CARTESIAN_POINT ( 'NONE',  ( 0.000000000000000000, 0.000000000000000000, 0.000000000000000000 ) ) ;
#103 = DIRECTION ( 'NONE',  ( 1.000000000000000000, 0.000000000000000000, 0.000000000000000000 ) ) ;
#104 = ORIENTED_EDGE ( 'NONE', *, *, #145, .F. ) ;
#105 = CARTESIAN_POINT ( 'NONE',  ( 0.000000000000000000, 0.000000000000000000, 103.0000000000000142 ) ) ;
#106 = ORIENTED_EDGE ( 'NONE', *, *, #250, .F. ) ;
#107 = AXIS2_PLACEMENT_3D ( 'NONE', #272, #240, #356 ) ;
#108 = DIRECTION ( 'NONE',  ( -0.000000000000000000, -0.000000000000000000, -1.000000000000000000 ) ) ;
#109 = PERSON_AND_ORGANIZATION ( #248, #299 ) ;
#110 = DIRECTION ( 'NONE',  ( -0.000000000000000000, -0.000000000000000000, -1.000000000000000000 ) ) ;
#111 = ORIENTED_EDGE ( 'NONE', *, *, #160, .T. ) ;
#112 = PERSON_AND_ORGANIZATION ( #248, #299 ) ;
#113 = DIRECTION ( 'NONE',  ( -0.000000000000000000, -0.000000000000000000, -1.000000000000000000 ) ) ;
#114 = VERTEX_POINT ( 'NONE', #12 ) ;
#115 = PERSON_AND_ORGANIZATION ( #248, #299 ) ;
#116 = CIRCLE ( 'NONE', #294, 1.250000000000000000 ) ;
#117 = AXIS2_PLACEMENT_3D ( 'NONE', #212, #333, #126 ) ;
#118 = EDGE_CURVE ( 'NONE', #76, #342, #280, .T. ) ;
#119 = LINE ( 'NONE', #323, #330 ) ;
#120 = ORIENTED_EDGE ( 'NONE', *, *, #250, .T. ) ;
#121 = DIRECTION ( 'NONE',  ( 0.000000000000000000, 0.000000000000000000, 1.000000000000000000 ) ) ;
#122 = VERTEX_POINT ( 'NONE', #16 ) ;
#123 = FACE_OUTER_BOUND ( 'NONE', #138, .T. ) ;
#124 = EDGE_CURVE ( 'NONE', #114, #268, #51, .T. ) ;
#125 = AXIS2_PLACEMENT_3D ( 'NONE', #102, #192, #285 ) ;
#126 = DIRECTION ( 'NONE',  ( -1.000000000000000000, 0.000000000000000000, 0.000000000000000000 ) ) ;
#127 = EDGE_CURVE ( 'NONE', #122, #342, #243, .T. ) ;
#128 = FACE_OUTER_BOUND ( 'NONE', #165, .T. ) ;
#129 = DIRECTION ( 'NONE',  ( 1.000000000000000000, 0.000000000000000000, 0.000000000000000000 ) ) ;
#130 = CIRCLE ( 'NONE', #65, 2.799999999999999822 ) ;
#131 = AXIS2_PLACEMENT_3D ( 'NONE', #175, #57, #93 ) ;
#132 = PERSON_AND_ORGANIZATION ( #248, #299 ) ;
#133 = EDGE_CURVE ( 'NONE', #318, #286, #3, .T. ) ;
#134 = CARTESIAN_POINT ( 'NONE',  ( -2.799999999999999822, 3.429011037612588783E-16, 3.299999999999997158 ) ) ;
#136 = ORIENTED_EDGE ( 'NONE', *, *, #118, .T. ) ;
#135 = SECURITY_CLASSIFICATION ( '', '', #80 ) ;
#137 = CARTESIAN_POINT ( 'NONE',  ( -2.500000000000000000, 0.000000000000000000, 3.299999999999997158 ) ) ;
#138 = EDGE_LOOP ( 'NONE', ( #347, #136, #45, #350 ) ) ;
#139 = EDGE_CURVE ( 'NONE', #251, #15, #116, .T. ) ;
#140 = EDGE_LOOP ( 'NONE', ( #106, #322, #233, #17 ) ) ;
#141 = ORIENTED_EDGE ( 'NONE', *, *, #204, .F. ) ;
#142 = APPROVAL_DATE_TIME ( #24, #180 ) ;
#143 = DIRECTION ( 'NONE',  ( 0.000000000000000000, 0.000000000000000000, 1.000000000000000000 ) ) ;
#144 = VERTEX_POINT ( 'NONE', #367 ) ;
#145 = EDGE_CURVE ( 'NONE', #15, #251, #335, .T. ) ;
#146 = LINE ( 'NONE', #205, #275 ) ;
#147 = AXIS2_PLACEMENT_3D ( 'NONE', #223, #218, #72 ) ;
#148 = FACE_OUTER_BOUND ( 'NONE', #222, .T. ) ;
#149 = VERTEX_POINT ( 'NONE', #14 ) ;
#150 = CARTESIAN_POINT ( 'NONE',  ( 0.000000000000000000, 0.000000000000000000, 0.000000000000000000 ) ) ;
#151 = CC_DESIGN_PERSON_AND_ORGANIZATION_ASSIGNMENT ( #8, #186, ( #292 ) ) ;
#152 =( NAMED_UNIT ( * ) PLANE_ANGLE_UNIT ( ) SI_UNIT ( $, .RADIAN. ) );
#153 =( NAMED_UNIT ( * ) SI_UNIT ( $, .STERADIAN. ) SOLID_ANGLE_UNIT ( ) );
#154 = CC_DESIGN_APPROVAL ( #92, ( #91 ) ) ;
#155 = CALENDAR_DATE ( 2022, 8, 7 ) ;
#156 = DATE_AND_TIME ( #37, #381 ) ;
#157 = AXIS2_PLACEMENT_3D ( 'NONE', #326, #110, #230 ) ;
#158 = LOCAL_TIME ( 17, 48, 55.00000000000000000, #374 ) ;
#159 = APPLICATION_CONTEXT ( 'configuration controlled 3d designs of mechanical parts and assemblies' ) ;
#160 = EDGE_CURVE ( 'NONE', #144, #149, #366, .T. ) ;
#161 = FACE_OUTER_BOUND ( 'NONE', #228, .T. ) ;
#162 = ORIENTED_EDGE ( 'NONE', *, *, #21, .T. ) ;
#163 = AXIS2_PLACEMENT_3D ( 'NONE', #105, #345, #197 ) ;
#165 = EDGE_LOOP ( 'NONE', ( #252, #231, #74, #171 ) ) ;
#164 = APPROVAL_PERSON_ORGANIZATION ( #336, #284, #185 ) ;
#166 = EDGE_CURVE ( 'NONE', #328, #144, #234, .T. ) ;
#167 = DIRECTION ( 'NONE',  ( -0.000000000000000000, -0.000000000000000000, -1.000000000000000000 ) ) ;
#168 = EDGE_LOOP ( 'NONE', ( #260, #372 ) ) ;
#169 = FACE_OUTER_BOUND ( 'NONE', #198, .T. ) ;
#170 = DIRECTION ( 'NONE',  ( 0.000000000000000000, 0.000000000000000000, 1.000000000000000000 ) ) ;
#171 = ORIENTED_EDGE ( 'NONE', *, *, #237, .T. ) ;
#172 = CARTESIAN_POINT ( 'NONE',  ( 0.000000000000000000, 0.000000000000000000, 3.000000000000000000 ) ) ;
#173 = CC_DESIGN_DATE_AND_TIME_ASSIGNMENT ( #174, #312, ( #135 ) ) ;
#174 = DATE_AND_TIME ( #261, #7 ) ;
#175 = CARTESIAN_POINT ( 'NONE',  ( 0.000000000000000000, 0.000000000000000000, 0.000000000000000000 ) ) ;
#176 = APPLICATION_CONTEXT ( 'configuration controlled 3d designs of mechanical parts and assemblies' ) ;
#177 = CARTESIAN_POINT ( 'NONE',  ( 0.000000000000000000, 0.000000000000000000, 3.299999999999997158 ) ) ;
#178 = VECTOR ( 'NONE', #353, 1000.000000000000000 ) ;
#179 =( GEOMETRIC_REPRESENTATION_CONTEXT ( 3 ) GLOBAL_UNCERTAINTY_ASSIGNED_CONTEXT ( ( #9 ) ) GLOBAL_UNIT_ASSIGNED_CONTEXT ( ( #245, #152, #153 ) ) REPRESENTATION_CONTEXT ( 'NONE', 'WORKASPACE' ) );
#180 = APPROVAL ( #235, 'NEURÈENÝ' ) ;
#181 = DIRECTION ( 'NONE',  ( 1.000000000000000000, 0.000000000000000000, 0.000000000000000000 ) ) ;
#182 = DIRECTION ( 'NONE',  ( -1.000000000000000000, 0.000000000000000000, 0.000000000000000000 ) ) ;
#183 = CIRCLE ( 'NONE', #107, 2.500000000000000000 ) ;
#184 = EDGE_CURVE ( 'NONE', #149, #122, #358, .T. ) ;
#185 = APPROVAL_ROLE ( '' ) ;
#186 = PERSON_AND_ORGANIZATION_ROLE ( 'creator' ) ;
#187 = ADVANCED_FACE ( 'NONE', ( #148 ), #380, .T. ) ;
#188 = AXIS2_PLACEMENT_3D ( 'NONE', #338, #41, #103 ) ;
#189 = AXIS2_PLACEMENT_3D ( 'NONE', #97, #276, #242 ) ;
#190 = CARTESIAN_POINT ( 'NONE',  ( 0.000000000000000000, 0.000000000000000000, 0.000000000000000000 ) ) ;
#191 = CARTESIAN_POINT ( 'NONE',  ( 0.000000000000000000, 0.000000000000000000, 103.0000000000000142 ) ) ;
#192 = DIRECTION ( 'NONE',  ( 0.000000000000000000, 0.000000000000000000, 1.000000000000000000 ) ) ;
#193 = CIRCLE ( 'NONE', #309, 5.000000000000000000 ) ;
#194 = ORIENTED_EDGE ( 'NONE', *, *, #127, .T. ) ;
#195 = CARTESIAN_POINT ( 'NONE',  ( 0.000000000000000000, 0.000000000000000000, 3.000000000000000000 ) ) ;
#196 = EDGE_LOOP ( 'NONE', ( #279, #263, #31, #311 ) ) ;
#197 = DIRECTION ( 'NONE',  ( 1.000000000000000000, 0.000000000000000000, 0.000000000000000000 ) ) ;
#198 = EDGE_LOOP ( 'NONE', ( #162, #28 ) ) ;
#199 = APPROVAL_DATE_TIME ( #85, #92 ) ;
#200 = ADVANCED_FACE ( 'NONE', ( #327 ), #32, .F. ) ;
#201 = CARTESIAN_POINT ( 'NONE',  ( 0.000000000000000000, 0.000000000000000000, 0.000000000000000000 ) ) ;
#202 = CARTESIAN_POINT ( 'NONE',  ( -1.250000000000000000, 0.000000000000000000, 0.000000000000000000 ) ) ;
#203 = CARTESIAN_POINT ( 'NONE',  ( -2.500000000000000000, 0.000000000000000000, 103.0000000000000142 ) ) ;
#204 = EDGE_CURVE ( 'NONE', #342, #122, #130, .T. ) ;
#205 = CARTESIAN_POINT ( 'NONE',  ( -1.250000000000000000, 0.000000000000000000, 103.0000000000000142 ) ) ;
#206 = ORIENTED_EDGE ( 'NONE', *, *, #270, .T. ) ;
#207 = CARTESIAN_POINT ( 'NONE',  ( 0.000000000000000000, 0.000000000000000000, 3.000000000000000000 ) ) ;
#208 = ORIENTED_EDGE ( 'NONE', *, *, #56, .F. ) ;
#209 = EDGE_CURVE ( 'NONE', #251, #324, #146, .T. ) ;
#210 = CIRCLE ( 'NONE', #43, 2.500000000000000000 ) ;
#211 = LOCAL_TIME ( 17, 48, 55.00000000000000000, #287 ) ;
#212 = CARTESIAN_POINT ( 'NONE',  ( 0.000000000000000000, 0.000000000000000000, 103.0000000000000142 ) ) ;
#213 = APPROVAL_DATE_TIME ( #359, #284 ) ;
#214 = CYLINDRICAL_SURFACE ( 'NONE', #281, 1.250000000000000000 ) ;
#215 = CALENDAR_DATE ( 2022, 8, 7 ) ;
#216 = VECTOR ( 'NONE', #167, 1000.000000000000000 ) ;
#217 = DIRECTION ( 'NONE',  ( 0.000000000000000000, -1.000000000000000000, 0.000000000000000000 ) ) ;
#218 = DIRECTION ( 'NONE',  ( -0.000000000000000000, -0.000000000000000000, -1.000000000000000000 ) ) ;
#219 = ORIENTED_EDGE ( 'NONE', *, *, #133, .F. ) ;
#220 = DIRECTION ( 'NONE',  ( 1.000000000000000000, 0.000000000000000000, 0.000000000000000000 ) ) ;
#221 = CC_DESIGN_PERSON_AND_ORGANIZATION_ASSIGNMENT ( #112, #247, ( #91 ) ) ;
#222 = EDGE_LOOP ( 'NONE', ( #219, #206, #40, #42 ) ) ;
#223 = CARTESIAN_POINT ( 'NONE',  ( 0.000000000000000000, 0.000000000000000000, 3.000000000000000000 ) ) ;
#224 = TOROIDAL_SURFACE ( 'NONE', #59, 2.799999999999999822, 0.2999999999999999889 ) ;
#226 = ORIENTED_EDGE ( 'NONE', *, *, #118, .F. ) ;
#225 = CC_DESIGN_APPROVAL ( #180, ( #135 ) ) ;
#227 = DIRECTION ( 'NONE',  ( -1.000000000000000000, 0.000000000000000000, 0.000000000000000000 ) ) ;
#228 = EDGE_LOOP ( 'NONE', ( #308, #120, #315, #282 ) ) ;
#229 = PERSON_AND_ORGANIZATION ( #248, #299 ) ;
#230 = DIRECTION ( 'NONE',  ( -1.000000000000000000, 0.000000000000000000, 0.000000000000000000 ) ) ;
#231 = ORIENTED_EDGE ( 'NONE', *, *, #166, .F. ) ;
#232 = DIRECTION ( 'NONE',  ( 0.000000000000000000, 0.000000000000000000, 1.000000000000000000 ) ) ;
#233 = ORIENTED_EDGE ( 'NONE', *, *, #209, .T. ) ;
#234 = CIRCLE ( 'NONE', #163, 2.500000000000000000 ) ;
#235 = APPROVAL_STATUS ( 'not_yet_approved' ) ;
#236 = CARTESIAN_POINT ( 'NONE',  ( 0.000000000000000000, 0.000000000000000000, 3.299999999999997158 ) ) ;
#237 = EDGE_CURVE ( 'NONE', #76, #149, #210, .T. ) ;
#238 = LINE ( 'NONE', #267, #95 ) ;
#239 = APPROVAL_PERSON_ORGANIZATION ( #109, #180, #316 ) ;
#240 = DIRECTION ( 'NONE',  ( 0.000000000000000000, 0.000000000000000000, 1.000000000000000000 ) ) ;
#241 = ADVANCED_BREP_SHAPE_REPRESENTATION ( 'b77d', ( #81, #18 ), #179 ) ;
#242 = DIRECTION ( 'NONE',  ( -1.000000000000000000, 0.000000000000000000, 0.000000000000000000 ) ) ;
#243 = CIRCLE ( 'NONE', #147, 2.799999999999999822 ) ;
#244 = CIRCLE ( 'NONE', #52, 2.500000000000000000 ) ;
#245 =( LENGTH_UNIT ( ) NAMED_UNIT ( * ) SI_UNIT ( .MILLI., .METRE. ) );
#246 = CYLINDRICAL_SURFACE ( 'NONE', #117, 2.500000000000000000 ) ;
#247 = PERSON_AND_ORGANIZATION_ROLE ( 'creator' ) ;
#248 = PERSON ( 'NEURÈENÝ', 'NEURÈENÝ', 'NEURÈENÝ', ('NEURÈENÝ'), ('NEURÈENÝ'), ('NEURÈENÝ') ) ;
#249 = DIRECTION ( 'NONE',  ( 1.224646799147353207E-16, 1.000000000000000000, -0.000000000000000000 ) ) ;
#250 = EDGE_CURVE ( 'NONE', #15, #47, #238, .T. ) ;
#251 = VERTEX_POINT ( 'NONE', #257 ) ;
#252 = ORIENTED_EDGE ( 'NONE', *, *, #160, .F. ) ;
#253 = CARTESIAN_POINT ( 'NONE',  ( 2.500000000000000000, 3.061616997868383141E-16, 103.0000000000000142 ) ) ;
#255 = EDGE_LOOP ( 'NONE', ( #266, #111, #365, #208 ) ) ;
#254 = CC_DESIGN_APPROVAL ( #284, ( #292 ) ) ;
#256 = EDGE_CURVE ( 'NONE', #268, #114, #193, .T. ) ;
#257 = CARTESIAN_POINT ( 'NONE',  ( -1.250000000000000000, 0.000000000000000000, 103.0000000000000142 ) ) ;
#258 = PRODUCT_DEFINITION_SHAPE ( 'NONE', 'NONE',  #292 ) ;
#259 = DIRECTION ( 'NONE',  ( 1.000000000000000000, 0.000000000000000000, 0.000000000000000000 ) ) ;
#260 = ORIENTED_EDGE ( 'NONE', *, *, #331, .F. ) ;
#261 = CALENDAR_DATE ( 2022, 8, 7 ) ;
#262 = CARTESIAN_POINT ( 'NONE',  ( 5.000000000000000000, 6.123233995736766282E-16, 3.000000000000000000 ) ) ;
#263 = ORIENTED_EDGE ( 'NONE', *, *, #21, .F. ) ;
#264 = CC_DESIGN_SECURITY_CLASSIFICATION ( #135, ( #91 ) ) ;
#265 = FACE_BOUND ( 'NONE', #168, .T. ) ;
#266 = ORIENTED_EDGE ( 'NONE', *, *, #313, .F. ) ;
#267 = CARTESIAN_POINT ( 'NONE',  ( 1.250000000000000000, 1.530808498934191571E-16, 103.0000000000000142 ) ) ;
#268 = VERTEX_POINT ( 'NONE', #293 ) ;
#269 = PERSON_AND_ORGANIZATION ( #248, #299 ) ;
#270 = EDGE_CURVE ( 'NONE', #318, #268, #60, .T. ) ;
#271 = AXIS2_PLACEMENT_3D ( 'NONE', #369, #217, #19 ) ;
#272 = CARTESIAN_POINT ( 'NONE',  ( 0.000000000000000000, 0.000000000000000000, 3.299999999999997158 ) ) ;
#273 = ADVANCED_FACE ( 'NONE', ( #265, #295 ), #29, .F. ) ;
#274 = APPROVAL_STATUS ( 'not_yet_approved' ) ;
#275 = VECTOR ( 'NONE', #1, 1000.000000000000000 ) ;
#276 = DIRECTION ( 'NONE',  ( -0.000000000000000000, -0.000000000000000000, -1.000000000000000000 ) ) ;
#277 = PERSON_AND_ORGANIZATION_ROLE ( 'classification_officer' ) ;
#278 = DIRECTION ( 'NONE',  ( -0.000000000000000000, -0.000000000000000000, -1.000000000000000000 ) ) ;
#279 = ORIENTED_EDGE ( 'NONE', *, *, #270, .F. ) ;
#280 = CIRCLE ( 'NONE', #320, 0.2999999999999999334 ) ;
#281 = AXIS2_PLACEMENT_3D ( 'NONE', #4, #360, #63 ) ;
#282 = ORIENTED_EDGE ( 'NONE', *, *, #209, .F. ) ;
#283 = DIRECTION ( 'NONE',  ( -1.000000000000000000, 1.224646799147353207E-16, 0.000000000000000000 ) ) ;
#284 = APPROVAL ( #274, 'NEURÈENÝ' ) ;
#285 = DIRECTION ( 'NONE',  ( 1.000000000000000000, 0.000000000000000000, 0.000000000000000000 ) ) ;
#286 = VERTEX_POINT ( 'NONE', #30 ) ;
#287 = COORDINATED_UNIVERSAL_TIME_OFFSET ( 1, 0, .AHEAD. ) ;
#288 = AXIS2_PLACEMENT_3D ( 'NONE', #39, #75, #227 ) ;
#289 = DIRECTION ( 'NONE',  ( 0.000000000000000000, 0.000000000000000000, 1.000000000000000000 ) ) ;
#290 = CALENDAR_DATE ( 2022, 8, 7 ) ;
#291 = DIRECTION ( 'NONE',  ( 1.000000000000000000, 0.000000000000000000, 0.000000000000000000 ) ) ;
#292 = PRODUCT_DEFINITION ( 'NEZNÁMÝ', '', #91, #99 ) ;
#293 = CARTESIAN_POINT ( 'NONE',  ( 5.000000000000000000, 6.123233995736766282E-16, 0.000000000000000000 ) ) ;
#294 = AXIS2_PLACEMENT_3D ( 'NONE', #191, #346, #317 ) ;
#295 = FACE_OUTER_BOUND ( 'NONE', #61, .T. ) ;
#296 = EDGE_LOOP ( 'NONE', ( #226, #306, #83, #141 ) ) ;
#297 = DIRECTION ( 'NONE',  ( 1.000000000000000000, 0.000000000000000000, 0.000000000000000000 ) ) ;
#298 = ADVANCED_FACE ( 'NONE', ( #123 ), #224, .F. ) ;
#299 = ORGANIZATION ( 'NEURÈENÝ', 'NEURÈENÝ', '' ) ;
#300 = APPLICATION_PROTOCOL_DEFINITION ( 'international standard', 'config_control_design', 1994, #176 ) ;
#301 = ADVANCED_FACE ( 'NONE', ( #62 ), #371, .T. ) ;
#302 = COORDINATED_UNIVERSAL_TIME_OFFSET ( 1, 0, .AHEAD. ) ;
#303 = AXIS2_PLACEMENT_3D ( 'NONE', #190, #278, #341 ) ;
#304 = CARTESIAN_POINT ( 'NONE',  ( -2.500000000000000000, 0.000000000000000000, 103.0000000000000142 ) ) ;
#305 = ADVANCED_FACE ( 'NONE', ( #84, #352 ), #22, .T. ) ;
#306 = ORIENTED_EDGE ( 'NONE', *, *, #375, .F. ) ;
#307 = PLANE ( 'NONE',  #77 ) ;
#308 = ORIENTED_EDGE ( 'NONE', *, *, #139, .T. ) ;
#309 = AXIS2_PLACEMENT_3D ( 'NONE', #201, #87, #297 ) ;
#310 = FACE_BOUND ( 'NONE', #78, .T. ) ;
#311 = ORIENTED_EDGE ( 'NONE', *, *, #124, .T. ) ;
#312 = DATE_TIME_ROLE ( 'classification_date' ) ;
#313 = EDGE_CURVE ( 'NONE', #144, #328, #244, .T. ) ;
#314 = DIRECTION ( 'NONE',  ( 1.000000000000000000, 0.000000000000000000, 0.000000000000000000 ) ) ;
#315 = ORIENTED_EDGE ( 'NONE', *, *, #73, .T. ) ;
#316 = APPROVAL_ROLE ( '' ) ;
#317 = DIRECTION ( 'NONE',  ( 1.000000000000000000, 0.000000000000000000, 0.000000000000000000 ) ) ;
#318 = VERTEX_POINT ( 'NONE', #376 ) ;
#319 = DIRECTION ( 'NONE',  ( 1.000000000000000000, 0.000000000000000000, -0.000000000000000000 ) ) ;
#320 = AXIS2_PLACEMENT_3D ( 'NONE', #134, #249, #283 ) ;
#322 = ORIENTED_EDGE ( 'NONE', *, *, #145, .T. ) ;
#321 = APPROVAL_PERSON_ORGANIZATION ( #132, #92, #378 ) ;
#323 = CARTESIAN_POINT ( 'NONE',  ( -5.000000000000000000, 0.000000000000000000, 3.000000000000000000 ) ) ;
#324 = VERTEX_POINT ( 'NONE', #202 ) ;
#325 = EDGE_CURVE ( 'NONE', #286, #114, #119, .T. ) ;
#326 = CARTESIAN_POINT ( 'NONE',  ( 0.000000000000000000, 0.000000000000000000, 3.000000000000000000 ) ) ;
#327 = FACE_OUTER_BOUND ( 'NONE', #296, .T. ) ;
#328 = VERTEX_POINT ( 'NONE', #203 ) ;
#329 = AXIS2_PLACEMENT_3D ( 'NONE', #86, #348, #319 ) ;
#330 = VECTOR ( 'NONE', #55, 1000.000000000000000 ) ;
#331 = EDGE_CURVE ( 'NONE', #324, #47, #33, .T. ) ;
#332 = DIRECTION ( 'NONE',  ( 1.000000000000000000, 0.000000000000000000, -0.000000000000000000 ) ) ;
#333 = DIRECTION ( 'NONE',  ( -0.000000000000000000, -0.000000000000000000, -1.000000000000000000 ) ) ;
#334 = ADVANCED_FACE ( 'NONE', ( #128 ), #246, .T. ) ;
#335 = CIRCLE ( 'NONE', #188, 1.250000000000000000 ) ;
#336 = PERSON_AND_ORGANIZATION ( #248, #299 ) ;
#337 = MECHANICAL_CONTEXT ( 'NONE', #159, 'mechanical' ) ;
#338 = CARTESIAN_POINT ( 'NONE',  ( 0.000000000000000000, 0.000000000000000000, 103.0000000000000142 ) ) ;
#339 = CARTESIAN_POINT ( 'NONE',  ( 0.000000000000000000, 0.000000000000000000, 3.000000000000000000 ) ) ;
#340 = ORIENTED_EDGE ( 'NONE', *, *, #166, .T. ) ;
#341 = DIRECTION ( 'NONE',  ( 1.000000000000000000, 0.000000000000000000, 0.000000000000000000 ) ) ;
#342 = VERTEX_POINT ( 'NONE', #357 ) ;
#343 = ADVANCED_FACE ( 'NONE', ( #5 ), #214, .F. ) ;
#344 = CIRCLE ( 'NONE', #26, 5.000000000000000000 ) ;
#345 = DIRECTION ( 'NONE',  ( 0.000000000000000000, 0.000000000000000000, 1.000000000000000000 ) ) ;
#346 = DIRECTION ( 'NONE',  ( 0.000000000000000000, 0.000000000000000000, 1.000000000000000000 ) ) ;
#347 = ORIENTED_EDGE ( 'NONE', *, *, #237, .F. ) ;
#348 = DIRECTION ( 'NONE',  ( 0.000000000000000000, 0.000000000000000000, 1.000000000000000000 ) ) ;
#349 = DIRECTION ( 'NONE',  ( 1.000000000000000000, 0.000000000000000000, 0.000000000000000000 ) ) ;
#350 = ORIENTED_EDGE ( 'NONE', *, *, #184, .F. ) ;
#351 = SHAPE_DEFINITION_REPRESENTATION ( #258, #241 ) ;
#352 = FACE_OUTER_BOUND ( 'NONE', #377, .T. ) ;
#353 = DIRECTION ( 'NONE',  ( -0.000000000000000000, -0.000000000000000000, -1.000000000000000000 ) ) ;
#354 = CARTESIAN_POINT ( 'NONE',  ( 0.000000000000000000, 0.000000000000000000, 3.299999999999997158 ) ) ;
#355 = AXIS2_PLACEMENT_3D ( 'NONE', #49, #170, #220 ) ;
#356 = DIRECTION ( 'NONE',  ( 1.000000000000000000, 0.000000000000000000, 0.000000000000000000 ) ) ;
#357 = CARTESIAN_POINT ( 'NONE',  ( -2.799999999999999822, 3.429011037612589276E-16, 2.999999999999998668 ) ) ;
#358 = CIRCLE ( 'NONE', #271, 0.2999999999999999334 ) ;
#359 = DATE_AND_TIME ( #155, #38 ) ;
#360 = DIRECTION ( 'NONE',  ( 0.000000000000000000, 0.000000000000000000, -1.000000000000000000 ) ) ;
#361 = ADVANCED_FACE ( 'NONE', ( #69 ), #34, .T. ) ;
#362 = DIRECTION ( 'NONE',  ( 0.000000000000000000, 0.000000000000000000, 1.000000000000000000 ) ) ;
#363 = VECTOR ( 'NONE', #108, 1000.000000000000000 ) ;
#364 = DIRECTION ( 'NONE',  ( 1.000000000000000000, 0.000000000000000000, -0.000000000000000000 ) ) ;
#365 = ORIENTED_EDGE ( 'NONE', *, *, #375, .T. ) ;
#366 = LINE ( 'NONE', #253, #216 ) ;
#367 = CARTESIAN_POINT ( 'NONE',  ( 2.500000000000000000, 3.061616997868383141E-16, 103.0000000000000142 ) ) ;
#368 = AXIS2_PLACEMENT_3D ( 'NONE', #236, #121, #53 ) ;
#369 = CARTESIAN_POINT ( 'NONE',  ( 2.799999999999999822, 0.000000000000000000, 3.299999999999997158 ) ) ;
#370 = ORIENTED_EDGE ( 'NONE', *, *, #204, .T. ) ;
#371 = CYLINDRICAL_SURFACE ( 'NONE', #157, 5.000000000000000000 ) ;
#372 = ORIENTED_EDGE ( 'NONE', *, *, #73, .F. ) ;
#373 = PRODUCT ( 'b77d', 'b77d', '', ( #337 ) ) ;
#374 = COORDINATED_UNIVERSAL_TIME_OFFSET ( 1, 0, .AHEAD. ) ;
#375 = EDGE_CURVE ( 'NONE', #149, #76, #183, .T. ) ;
#376 = CARTESIAN_POINT ( 'NONE',  ( 5.000000000000000000, 6.123233995736766282E-16, 3.000000000000000000 ) ) ;
#377 = EDGE_LOOP ( 'NONE', ( #340, #88 ) ) ;
#378 = APPROVAL_ROLE ( '' ) ;
#379 = AXIS2_PLACEMENT_3D ( 'NONE', #207, #113, #182 ) ;
#380 = CYLINDRICAL_SURFACE ( 'NONE', #379, 5.000000000000000000 ) ;
#381 = LOCAL_TIME ( 17, 48, 55.00000000000000000, #302 ) ;
ENDSEC;
END-ISO-10303-21;
