ISO-10303-21;
HEADER;
FILE_DESCRIPTION (( 'STEP AP203' ),
    '1' );
FILE_NAME ('e0f7.STEP',
    '2022-07-08T15:47:58',
    ( '' ),
    ( '' ),
    'SwSTEP 2.0',
    'SolidWorks 2019',
    '' );
FILE_SCHEMA (( 'CONFIG_CONTROL_DESIGN' ));
ENDSEC;

DATA;
#1 = DIRECTION ( 'NONE',  ( 1.000000000000000000, 0.000000000000000000, 0.000000000000000000 ) ) ;
#2 = EDGE_CURVE ( 'NONE', #250, #227, #20, .T. ) ;
#3 = DIRECTION ( 'NONE',  ( -0.000000000000000000, -0.000000000000000000, -1.000000000000000000 ) ) ;
#4 = LOCAL_TIME ( 17, 47, 58.00000000000000000, #195 ) ;
#5 = DIRECTION ( 'NONE',  ( 1.000000000000000000, 0.000000000000000000, 0.000000000000000000 ) ) ;
#6 = APPLICATION_CONTEXT ( 'configuration controlled 3d designs of mechanical parts and assemblies' ) ;
#7 = DIRECTION ( 'NONE',  ( -0.000000000000000000, -0.000000000000000000, -1.000000000000000000 ) ) ;
#8 = AXIS2_PLACEMENT_3D ( 'NONE', #98, #107, #185 ) ;
#9 = DIRECTION ( 'NONE',  ( 0.000000000000000000, 0.000000000000000000, 1.000000000000000000 ) ) ;
#10 = DATE_AND_TIME ( #70, #121 ) ;
#11 = EDGE_LOOP ( 'NONE', ( #213, #159 ) ) ;
#12 = ORIENTED_EDGE ( 'NONE', *, *, #318, .F. ) ;
#13 = CIRCLE ( 'NONE', #99, 5.000000000000000000 ) ;
#14 = AXIS2_PLACEMENT_3D ( 'NONE', #372, #67, #270 ) ;
#15 = DIRECTION ( 'NONE',  ( 1.000000000000000000, 0.000000000000000000, 0.000000000000000000 ) ) ;
#16 = ORIENTED_EDGE ( 'NONE', *, *, #248, .T. ) ;
#17 =( NAMED_UNIT ( * ) PLANE_ANGLE_UNIT ( ) SI_UNIT ( $, .RADIAN. ) );
#18 = ORIENTED_EDGE ( 'NONE', *, *, #74, .F. ) ;
#19 = CALENDAR_DATE ( 2022, 8, 7 ) ;
#20 = LINE ( 'NONE', #110, #131 ) ;
#21 = CIRCLE ( 'NONE', #204, 1.250000000000000000 ) ;
#22 = SHAPE_DEFINITION_REPRESENTATION ( #165, #178 ) ;
#23 = DIRECTION ( 'NONE',  ( 1.000000000000000000, 0.000000000000000000, 0.000000000000000000 ) ) ;
#24 = CARTESIAN_POINT ( 'NONE',  ( 0.000000000000000000, 0.000000000000000000, 0.000000000000000000 ) ) ;
#25 = EDGE_CURVE ( 'NONE', #220, #275, #88, .T. ) ;
#26 = PERSON_AND_ORGANIZATION_ROLE ( 'classification_officer' ) ;
#27 = DIRECTION ( 'NONE',  ( -0.000000000000000000, -0.000000000000000000, -1.000000000000000000 ) ) ;
#28 = AXIS2_PLACEMENT_3D ( 'NONE', #356, #360, #37 ) ;
#29 = PERSON_AND_ORGANIZATION ( #335, #50 ) ;
#30 = CARTESIAN_POINT ( 'NONE',  ( 0.000000000000000000, 0.000000000000000000, 3.299999999999997158 ) ) ;
#31 = CARTESIAN_POINT ( 'NONE',  ( 1.250000000000000000, 1.530808498934191571E-16, 178.0000000000000000 ) ) ;
#32 = DIRECTION ( 'NONE',  ( -0.000000000000000000, -0.000000000000000000, -1.000000000000000000 ) ) ;
#33 = CIRCLE ( 'NONE', #245, 1.250000000000000000 ) ;
#34 = CARTESIAN_POINT ( 'NONE',  ( 0.000000000000000000, 0.000000000000000000, 3.000000000000000000 ) ) ;
#35 = AXIS2_PLACEMENT_3D ( 'NONE', #240, #205, #323 ) ;
#36 = DIRECTION ( 'NONE',  ( -1.000000000000000000, 0.000000000000000000, 0.000000000000000000 ) ) ;
#37 = DIRECTION ( 'NONE',  ( 1.000000000000000000, 0.000000000000000000, 0.000000000000000000 ) ) ;
#38 = APPLICATION_PROTOCOL_DEFINITION ( 'international standard', 'config_control_design', 1994, #6 ) ;
#39 = COORDINATED_UNIVERSAL_TIME_OFFSET ( 1, 0, .AHEAD. ) ;
#40 = ORIENTED_EDGE ( 'NONE', *, *, #152, .T. ) ;
#41 = DATE_AND_TIME ( #301, #161 ) ;
#42 = ORIENTED_EDGE ( 'NONE', *, *, #25, .T. ) ;
#43 = VERTEX_POINT ( 'NONE', #112 ) ;
#44 = LOCAL_TIME ( 17, 47, 58.00000000000000000, #190 ) ;
#45 = ADVANCED_FACE ( 'NONE', ( #86, #321 ), #175, .F. ) ;
#46 = ORIENTED_EDGE ( 'NONE', *, *, #158, .F. ) ;
#47 = CC_DESIGN_PERSON_AND_ORGANIZATION_ASSIGNMENT ( #29, #115, ( #100 ) ) ;
#48 = ORIENTED_EDGE ( 'NONE', *, *, #265, .F. ) ;
#49 = CARTESIAN_POINT ( 'NONE',  ( 0.000000000000000000, 0.000000000000000000, 0.000000000000000000 ) ) ;
#50 = ORGANIZATION ( 'NEURÈENÝ', 'NEURÈENÝ', '' ) ;
#51 = FACE_OUTER_BOUND ( 'NONE', #280, .T. ) ;
#52 = EDGE_CURVE ( 'NONE', #157, #305, #137, .T. ) ;
#53 = PERSON_AND_ORGANIZATION_ROLE ( 'design_supplier' ) ;
#54 = ORIENTED_EDGE ( 'NONE', *, *, #303, .F. ) ;
#55 = CARTESIAN_POINT ( 'NONE',  ( -2.799999999999999822, 3.429011037612588783E-16, 3.299999999999997158 ) ) ;
#56 = CC_DESIGN_APPROVAL ( #141, ( #100 ) ) ;
#57 = EDGE_LOOP ( 'NONE', ( #191, #163 ) ) ;
#58 = ADVANCED_FACE ( 'NONE', ( #51 ), #146, .T. ) ;
#59 = CARTESIAN_POINT ( 'NONE',  ( 0.000000000000000000, 0.000000000000000000, 3.000000000000000000 ) ) ;
#60 = DIRECTION ( 'NONE',  ( -0.000000000000000000, -0.000000000000000000, -1.000000000000000000 ) ) ;
#61 = LINE ( 'NONE', #209, #295 ) ;
#62 = CIRCLE ( 'NONE', #355, 5.000000000000000000 ) ;
#63 = EDGE_CURVE ( 'NONE', #157, #167, #113, .T. ) ;
#64 = DIRECTION ( 'NONE',  ( 1.000000000000000000, 0.000000000000000000, 0.000000000000000000 ) ) ;
#65 = CARTESIAN_POINT ( 'NONE',  ( 0.000000000000000000, 0.000000000000000000, 3.000000000000000000 ) ) ;
#66 = EDGE_CURVE ( 'NONE', #275, #326, #84, .T. ) ;
#67 = DIRECTION ( 'NONE',  ( -0.000000000000000000, -0.000000000000000000, -1.000000000000000000 ) ) ;
#68 = CIRCLE ( 'NONE', #367, 2.799999999999999822 ) ;
#69 = EDGE_LOOP ( 'NONE', ( #12, #343, #251, #300 ) ) ;
#70 = CALENDAR_DATE ( 2022, 8, 7 ) ;
#71 = VERTEX_POINT ( 'NONE', #80 ) ;
#72 = DATE_TIME_ROLE ( 'creation_date' ) ;
#73 = EDGE_LOOP ( 'NONE', ( #16, #273 ) ) ;
#74 = EDGE_CURVE ( 'NONE', #43, #250, #170, .T. ) ;
#75 = DIRECTION ( 'NONE',  ( -1.000000000000000000, 0.000000000000000000, 0.000000000000000000 ) ) ;
#76 = ORIENTED_EDGE ( 'NONE', *, *, #344, .F. ) ;
#77 = AXIS2_PLACEMENT_3D ( 'NONE', #228, #254, #286 ) ;
#78 = CC_DESIGN_SECURITY_CLASSIFICATION ( #289, ( #100 ) ) ;
#79 = ORIENTED_EDGE ( 'NONE', *, *, #226, .F. ) ;
#80 = CARTESIAN_POINT ( 'NONE',  ( -2.500000000000000000, 0.000000000000000000, 178.0000000000000000 ) ) ;
#81 = CARTESIAN_POINT ( 'NONE',  ( 0.000000000000000000, 0.000000000000000000, 178.0000000000000000 ) ) ;
#82 = AXIS2_PLACEMENT_3D ( 'NONE', #30, #261, #1 ) ;
#83 = CIRCLE ( 'NONE', #14, 1.250000000000000000 ) ;
#84 = LINE ( 'NONE', #85, #276 ) ;
#85 = CARTESIAN_POINT ( 'NONE',  ( 1.250000000000000000, 1.530808498934191571E-16, 178.0000000000000000 ) ) ;
#86 = FACE_BOUND ( 'NONE', #133, .T. ) ;
#87 = ADVANCED_FACE ( 'NONE', ( #319, #198 ), #284, .T. ) ;
#88 = CIRCLE ( 'NONE', #342, 1.250000000000000000 ) ;
#89 = CARTESIAN_POINT ( 'NONE',  ( 2.500000000000000000, 3.061616997868383141E-16, 3.299999999999997158 ) ) ;
#90 = CARTESIAN_POINT ( 'NONE',  ( 5.000000000000000000, 6.123233995736766282E-16, 0.000000000000000000 ) ) ;
#91 = FACE_OUTER_BOUND ( 'NONE', #287, .T. ) ;
#92 = AXIS2_PLACEMENT_3D ( 'NONE', #314, #118, #347 ) ;
#93 = APPROVAL_PERSON_ORGANIZATION ( #331, #168, #186 ) ;
#94 = DIRECTION ( 'NONE',  ( -0.000000000000000000, -0.000000000000000000, -1.000000000000000000 ) ) ;
#95 = FACE_OUTER_BOUND ( 'NONE', #196, .T. ) ;
#96 = ORIENTED_EDGE ( 'NONE', *, *, #149, .T. ) ;
#97 = PRODUCT_RELATED_PRODUCT_CATEGORY ( 'detail', '', ( #272 ) ) ;
#98 = CARTESIAN_POINT ( 'NONE',  ( 2.799999999999999822, 0.000000000000000000, 3.299999999999997158 ) ) ;
#99 = AXIS2_PLACEMENT_3D ( 'NONE', #49, #169, #23 ) ;
#100 = PRODUCT_DEFINITION_FORMATION_WITH_SPECIFIED_SOURCE ( 'LIBOVOLNÝ', '', #272, .NOT_KNOWN. ) ;
#101 = ORIENTED_EDGE ( 'NONE', *, *, #364, .F. ) ;
#102 = APPROVAL_ROLE ( '' ) ;
#103 = ORIENTED_EDGE ( 'NONE', *, *, #244, .F. ) ;
#104 = DATE_AND_TIME ( #370, #44 ) ;
#105 = EDGE_CURVE ( 'NONE', #275, #220, #21, .T. ) ;
#106 = VERTEX_POINT ( 'NONE', #351 ) ;
#107 = DIRECTION ( 'NONE',  ( 0.000000000000000000, -1.000000000000000000, 0.000000000000000000 ) ) ;
#108 = ORIENTED_EDGE ( 'NONE', *, *, #318, .T. ) ;
#109 = AXIS2_PLACEMENT_3D ( 'NONE', #365, #308, #362 ) ;
#110 = CARTESIAN_POINT ( 'NONE',  ( 5.000000000000000000, 6.123233995736766282E-16, 3.000000000000000000 ) ) ;
#111 = DIRECTION ( 'NONE',  ( 1.000000000000000000, 0.000000000000000000, 0.000000000000000000 ) ) ;
#112 = CARTESIAN_POINT ( 'NONE',  ( -5.000000000000000000, 0.000000000000000000, 3.000000000000000000 ) ) ;
#113 = CIRCLE ( 'NONE', #348, 0.2999999999999999334 ) ;
#114 = AXIS2_PLACEMENT_3D ( 'NONE', #337, #271, #340 ) ;
#115 = PERSON_AND_ORGANIZATION_ROLE ( 'creator' ) ;
#116 = EDGE_CURVE ( 'NONE', #227, #106, #13, .T. ) ;
#117 = CARTESIAN_POINT ( 'NONE',  ( 0.000000000000000000, 0.000000000000000000, 3.000000000000000000 ) ) ;
#118 = DIRECTION ( 'NONE',  ( 0.000000000000000000, 0.000000000000000000, 1.000000000000000000 ) ) ;
#119 = CC_DESIGN_PERSON_AND_ORGANIZATION_ASSIGNMENT ( #249, #156, ( #299 ) ) ;
#120 = LINE ( 'NONE', #234, #374 ) ;
#121 = LOCAL_TIME ( 17, 47, 58.00000000000000000, #39 ) ;
#122 = CARTESIAN_POINT ( 'NONE',  ( 5.000000000000000000, 6.123233995736766282E-16, 3.000000000000000000 ) ) ;
#123 = ADVANCED_FACE ( 'NONE', ( #288, #352 ), #140, .T. ) ;
#124 = DIRECTION ( 'NONE',  ( 1.000000000000000000, 0.000000000000000000, 0.000000000000000000 ) ) ;
#125 = CARTESIAN_POINT ( 'NONE',  ( -2.500000000000000000, 0.000000000000000000, 3.299999999999997158 ) ) ;
#126 = CIRCLE ( 'NONE', #252, 2.500000000000000000 ) ;
#127 = FACE_OUTER_BOUND ( 'NONE', #144, .T. ) ;
#128 = VERTEX_POINT ( 'NONE', #172 ) ;
#129 = APPROVAL_DATE_TIME ( #10, #168 ) ;
#130 = EDGE_LOOP ( 'NONE', ( #371, #279, #242, #76 ) ) ;
#131 = VECTOR ( 'NONE', #27, 1000.000000000000000 ) ;
#132 = ORIENTED_EDGE ( 'NONE', *, *, #74, .T. ) ;
#133 = EDGE_LOOP ( 'NONE', ( #223, #309 ) ) ;
#134 = PERSON_AND_ORGANIZATION_ROLE ( 'design_owner' ) ;
#135 = ORIENTED_EDGE ( 'NONE', *, *, #52, .T. ) ;
#136 = DIRECTION ( 'NONE',  ( 1.000000000000000000, 0.000000000000000000, 0.000000000000000000 ) ) ;
#137 = CIRCLE ( 'NONE', #264, 2.500000000000000000 ) ;
#138 = CIRCLE ( 'NONE', #8, 0.2999999999999999334 ) ;
#139 = SECURITY_CLASSIFICATION_LEVEL ( 'unclassified' ) ;
#140 = PLANE ( 'NONE',  #180 ) ;
#141 = APPROVAL ( #368, 'NEURÈENÝ' ) ;
#142 = DIRECTION ( 'NONE',  ( -0.000000000000000000, -0.000000000000000000, -1.000000000000000000 ) ) ;
#143 = APPROVAL_DATE_TIME ( #104, #141 ) ;
#144 = EDGE_LOOP ( 'NONE', ( #42, #256, #339, #103 ) ) ;
#145 = APPROVAL_PERSON_ORGANIZATION ( #313, #197, #310 ) ;
#146 = CYLINDRICAL_SURFACE ( 'NONE', #77, 5.000000000000000000 ) ;
#147 = CYLINDRICAL_SURFACE ( 'NONE', #327, 2.500000000000000000 ) ;
#148 = DIRECTION ( 'NONE',  ( 0.000000000000000000, 0.000000000000000000, -1.000000000000000000 ) ) ;
#149 = EDGE_CURVE ( 'NONE', #373, #326, #33, .T. ) ;
#150 = CARTESIAN_POINT ( 'NONE',  ( 0.000000000000000000, 0.000000000000000000, 178.0000000000000000 ) ) ;
#151 = DIRECTION ( 'NONE',  ( -1.000000000000000000, 0.000000000000000000, 0.000000000000000000 ) ) ;
#152 = EDGE_CURVE ( 'NONE', #305, #157, #306, .T. ) ;
#153 = FACE_OUTER_BOUND ( 'NONE', #216, .T. ) ;
#154 = CLOSED_SHELL ( 'NONE', ( #312, #166, #294, #320, #58, #123, #45, #184, #87, #322, #329 ) ) ;
#155 = PERSON_AND_ORGANIZATION ( #335, #50 ) ;
#156 = PERSON_AND_ORGANIZATION_ROLE ( 'creator' ) ;
#157 = VERTEX_POINT ( 'NONE', #125 ) ;
#158 = EDGE_CURVE ( 'NONE', #71, #128, #126, .T. ) ;
#159 = ORIENTED_EDGE ( 'NONE', *, *, #105, .F. ) ;
#160 = CARTESIAN_POINT ( 'NONE',  ( 2.799999999999999822, 0.000000000000000000, 2.999999999999998668 ) ) ;
#161 = LOCAL_TIME ( 17, 47, 58.00000000000000000, #334 ) ;
#162 = AXIS2_PLACEMENT_3D ( 'NONE', #296, #266, #5 ) ;
#163 = ORIENTED_EDGE ( 'NONE', *, *, #116, .F. ) ;
#164 = ORIENTED_EDGE ( 'NONE', *, *, #63, .F. ) ;
#165 = PRODUCT_DEFINITION_SHAPE ( 'NONE', 'NONE',  #299 ) ;
#166 = ADVANCED_FACE ( 'NONE', ( #183 ), #192, .F. ) ;
#167 = VERTEX_POINT ( 'NONE', #268 ) ;
#168 = APPROVAL ( #188, 'NEURÈENÝ' ) ;
#169 = DIRECTION ( 'NONE',  ( 0.000000000000000000, 0.000000000000000000, 1.000000000000000000 ) ) ;
#170 = CIRCLE ( 'NONE', #207, 5.000000000000000000 ) ;
#171 = CIRCLE ( 'NONE', #283, 5.000000000000000000 ) ;
#172 = CARTESIAN_POINT ( 'NONE',  ( 2.500000000000000000, 3.061616997868383141E-16, 178.0000000000000000 ) ) ;
#173 = DATE_AND_TIME ( #232, #4 ) ;
#174 = DIRECTION ( 'NONE',  ( 1.000000000000000000, 0.000000000000000000, 0.000000000000000000 ) ) ;
#175 = PLANE ( 'NONE',  #277 ) ;
#176 = DIRECTION ( 'NONE',  ( 0.000000000000000000, 0.000000000000000000, 1.000000000000000000 ) ) ;
#177 = DIRECTION ( 'NONE',  ( 0.000000000000000000, 0.000000000000000000, 1.000000000000000000 ) ) ;
#178 = ADVANCED_BREP_SHAPE_REPRESENTATION ( 'e0f7', ( #211, #109 ), #181 ) ;
#179 = FACE_OUTER_BOUND ( 'NONE', #243, .T. ) ;
#180 = AXIS2_PLACEMENT_3D ( 'NONE', #255, #199, #201 ) ;
#181 =( GEOMETRIC_REPRESENTATION_CONTEXT ( 3 ) GLOBAL_UNCERTAINTY_ASSIGNED_CONTEXT ( ( #316 ) ) GLOBAL_UNIT_ASSIGNED_CONTEXT ( ( #241, #17, #298 ) ) REPRESENTATION_CONTEXT ( 'NONE', 'WORKASPACE' ) );
#182 = DIRECTION ( 'NONE',  ( 0.000000000000000000, 0.000000000000000000, 1.000000000000000000 ) ) ;
#183 = FACE_OUTER_BOUND ( 'NONE', #130, .T. ) ;
#184 = ADVANCED_FACE ( 'NONE', ( #95 ), #147, .T. ) ;
#185 = DIRECTION ( 'NONE',  ( 0.000000000000000000, 0.000000000000000000, -1.000000000000000000 ) ) ;
#186 = APPROVAL_ROLE ( '' ) ;
#187 = ORIENTED_EDGE ( 'NONE', *, *, #66, .F. ) ;
#188 = APPROVAL_STATUS ( 'not_yet_approved' ) ;
#189 = ORIENTED_EDGE ( 'NONE', *, *, #244, .T. ) ;
#190 = COORDINATED_UNIVERSAL_TIME_OFFSET ( 1, 0, .AHEAD. ) ;
#191 = ORIENTED_EDGE ( 'NONE', *, *, #350, .F. ) ;
#192 = TOROIDAL_SURFACE ( 'NONE', #28, 2.799999999999999822, 0.2999999999999999889 ) ;
#193 = VECTOR ( 'NONE', #210, 1000.000000000000000 ) ;
#194 = ORIENTED_EDGE ( 'NONE', *, *, #105, .T. ) ;
#195 = COORDINATED_UNIVERSAL_TIME_OFFSET ( 1, 0, .AHEAD. ) ;
#196 = EDGE_LOOP ( 'NONE', ( #48, #46, #366, #135 ) ) ;
#197 = APPROVAL ( #285, 'NEURÈENÝ' ) ;
#198 = FACE_OUTER_BOUND ( 'NONE', #218, .T. ) ;
#199 = DIRECTION ( 'NONE',  ( 0.000000000000000000, 0.000000000000000000, 1.000000000000000000 ) ) ;
#200 = AXIS2_PLACEMENT_3D ( 'NONE', #262, #7, #151 ) ;
#201 = DIRECTION ( 'NONE',  ( 1.000000000000000000, 0.000000000000000000, -0.000000000000000000 ) ) ;
#202 = DIRECTION ( 'NONE',  ( 0.000000000000000000, 0.000000000000000000, 1.000000000000000000 ) ) ;
#203 = DIRECTION ( 'NONE',  ( 0.000000000000000000, 0.000000000000000000, 1.000000000000000000 ) ) ;
#204 = AXIS2_PLACEMENT_3D ( 'NONE', #81, #378, #231 ) ;
#205 = DIRECTION ( 'NONE',  ( 0.000000000000000000, 0.000000000000000000, -1.000000000000000000 ) ) ;
#206 = CYLINDRICAL_SURFACE ( 'NONE', #200, 2.500000000000000000 ) ;
#207 = AXIS2_PLACEMENT_3D ( 'NONE', #117, #258, #111 ) ;
#208 = APPROVAL_PERSON_ORGANIZATION ( #274, #141, #102 ) ;
#209 = CARTESIAN_POINT ( 'NONE',  ( -1.250000000000000000, 0.000000000000000000, 178.0000000000000000 ) ) ;
#210 = DIRECTION ( 'NONE',  ( -0.000000000000000000, -0.000000000000000000, -1.000000000000000000 ) ) ;
#211 = MANIFOLD_SOLID_BREP ( 'Odebrat vysunutím3', #154 ) ;
#212 = APPLICATION_PROTOCOL_DEFINITION ( 'international standard', 'config_control_design', 1994, #359 ) ;
#213 = ORIENTED_EDGE ( 'NONE', *, *, #25, .F. ) ;
#214 = VECTOR ( 'NONE', #32, 1000.000000000000000 ) ;
#215 = MECHANICAL_CONTEXT ( 'NONE', #6, 'mechanical' ) ;
#216 = EDGE_LOOP ( 'NONE', ( #101, #369, #40, #54 ) ) ;
#217 = CYLINDRICAL_SURFACE ( 'NONE', #239, 1.250000000000000000 ) ;
#218 = EDGE_LOOP ( 'NONE', ( #302, #377 ) ) ;
#219 = DIRECTION ( 'NONE',  ( 0.000000000000000000, 0.000000000000000000, -1.000000000000000000 ) ) ;
#220 = VERTEX_POINT ( 'NONE', #238 ) ;
#221 = CARTESIAN_POINT ( 'NONE',  ( 0.000000000000000000, 0.000000000000000000, 0.000000000000000000 ) ) ;
#222 = AXIS2_PLACEMENT_3D ( 'NONE', #328, #263, #124 ) ;
#223 = ORIENTED_EDGE ( 'NONE', *, *, #149, .F. ) ;
#224 = EDGE_CURVE ( 'NONE', #43, #106, #330, .T. ) ;
#225 = DIRECTION ( 'NONE',  ( -1.000000000000000000, 1.224646799147353207E-16, 0.000000000000000000 ) ) ;
#226 = EDGE_CURVE ( 'NONE', #167, #341, #68, .T. ) ;
#227 = VERTEX_POINT ( 'NONE', #90 ) ;
#228 = CARTESIAN_POINT ( 'NONE',  ( 0.000000000000000000, 0.000000000000000000, 3.000000000000000000 ) ) ;
#229 = CC_DESIGN_APPROVAL ( #168, ( #299 ) ) ;
#230 = APPROVAL_DATE_TIME ( #253, #197 ) ;
#231 = DIRECTION ( 'NONE',  ( 1.000000000000000000, 0.000000000000000000, 0.000000000000000000 ) ) ;
#232 = CALENDAR_DATE ( 2022, 8, 7 ) ;
#233 = DIRECTION ( 'NONE',  ( 1.000000000000000000, 0.000000000000000000, -0.000000000000000000 ) ) ;
#234 = CARTESIAN_POINT ( 'NONE',  ( -2.500000000000000000, 0.000000000000000000, 178.0000000000000000 ) ) ;
#235 = CC_DESIGN_DATE_AND_TIME_ASSIGNMENT ( #41, #72, ( #299 ) ) ;
#236 = CYLINDRICAL_SURFACE ( 'NONE', #35, 1.250000000000000000 ) ;
#237 = FACE_OUTER_BOUND ( 'NONE', #69, .T. ) ;
#238 = CARTESIAN_POINT ( 'NONE',  ( -1.250000000000000000, 0.000000000000000000, 178.0000000000000000 ) ) ;
#239 = AXIS2_PLACEMENT_3D ( 'NONE', #304, #219, #75 ) ;
#240 = CARTESIAN_POINT ( 'NONE',  ( 0.000000000000000000, 0.000000000000000000, 178.0000000000000000 ) ) ;
#241 =( LENGTH_UNIT ( ) NAMED_UNIT ( * ) SI_UNIT ( .MILLI., .METRE. ) );
#242 = ORIENTED_EDGE ( 'NONE', *, *, #248, .F. ) ;
#243 = EDGE_LOOP ( 'NONE', ( #164, #332, #363, #79 ) ) ;
#244 = EDGE_CURVE ( 'NONE', #220, #373, #61, .T. ) ;
#245 = AXIS2_PLACEMENT_3D ( 'NONE', #24, #142, #317 ) ;
#246 = CARTESIAN_POINT ( 'NONE',  ( -1.250000000000000000, 0.000000000000000000, 0.000000000000000000 ) ) ;
#247 = ORIENTED_EDGE ( 'NONE', *, *, #224, .T. ) ;
#248 = EDGE_CURVE ( 'NONE', #341, #167, #278, .T. ) ;
#249 = PERSON_AND_ORGANIZATION ( #335, #50 ) ;
#250 = VERTEX_POINT ( 'NONE', #122 ) ;
#251 = ORIENTED_EDGE ( 'NONE', *, *, #116, .T. ) ;
#252 = AXIS2_PLACEMENT_3D ( 'NONE', #150, #182, #64 ) ;
#253 = DATE_AND_TIME ( #19, #307 ) ;
#254 = DIRECTION ( 'NONE',  ( -0.000000000000000000, -0.000000000000000000, -1.000000000000000000 ) ) ;
#255 = CARTESIAN_POINT ( 'NONE',  ( 0.000000000000000000, 0.000000000000000000, 3.000000000000000000 ) ) ;
#256 = ORIENTED_EDGE ( 'NONE', *, *, #66, .T. ) ;
#257 = DESIGN_CONTEXT ( 'detailed design', #359, 'design' ) ;
#258 = DIRECTION ( 'NONE',  ( 0.000000000000000000, 0.000000000000000000, 1.000000000000000000 ) ) ;
#259 = CIRCLE ( 'NONE', #114, 2.500000000000000000 ) ;
#260 = DATE_TIME_ROLE ( 'classification_date' ) ;
#261 = DIRECTION ( 'NONE',  ( 0.000000000000000000, 0.000000000000000000, 1.000000000000000000 ) ) ;
#262 = CARTESIAN_POINT ( 'NONE',  ( 0.000000000000000000, 0.000000000000000000, 178.0000000000000000 ) ) ;
#263 = DIRECTION ( 'NONE',  ( -0.000000000000000000, -0.000000000000000000, -1.000000000000000000 ) ) ;
#264 = AXIS2_PLACEMENT_3D ( 'NONE', #353, #176, #174 ) ;
#265 = EDGE_CURVE ( 'NONE', #128, #305, #267, .T. ) ;
#266 = DIRECTION ( 'NONE',  ( 0.000000000000000000, 0.000000000000000000, 1.000000000000000000 ) ) ;
#267 = LINE ( 'NONE', #354, #193 ) ;
#268 = CARTESIAN_POINT ( 'NONE',  ( -2.799999999999999822, 3.429011037612589276E-16, 2.999999999999998668 ) ) ;
#269 = CC_DESIGN_APPROVAL ( #197, ( #289 ) ) ;
#270 = DIRECTION ( 'NONE',  ( 1.000000000000000000, 0.000000000000000000, 0.000000000000000000 ) ) ;
#271 = DIRECTION ( 'NONE',  ( 0.000000000000000000, 0.000000000000000000, 1.000000000000000000 ) ) ;
#272 = PRODUCT ( 'e0f7', 'e0f7', '', ( #215 ) ) ;
#273 = ORIENTED_EDGE ( 'NONE', *, *, #226, .T. ) ;
#274 = PERSON_AND_ORGANIZATION ( #335, #50 ) ;
#275 = VERTEX_POINT ( 'NONE', #31 ) ;
#276 = VECTOR ( 'NONE', #345, 1000.000000000000000 ) ;
#277 = AXIS2_PLACEMENT_3D ( 'NONE', #381, #202, #233 ) ;
#278 = CIRCLE ( 'NONE', #222, 2.799999999999999822 ) ;
#279 = ORIENTED_EDGE ( 'NONE', *, *, #63, .T. ) ;
#280 = EDGE_LOOP ( 'NONE', ( #311, #18, #247, #336 ) ) ;
#281 = PERSON_AND_ORGANIZATION ( #335, #50 ) ;
#282 = EDGE_LOOP ( 'NONE', ( #132, #108 ) ) ;
#283 = AXIS2_PLACEMENT_3D ( 'NONE', #59, #177, #292 ) ;
#284 = PLANE ( 'NONE',  #92 ) ;
#285 = APPROVAL_STATUS ( 'not_yet_approved' ) ;
#286 = DIRECTION ( 'NONE',  ( -1.000000000000000000, 0.000000000000000000, 0.000000000000000000 ) ) ;
#287 = EDGE_LOOP ( 'NONE', ( #187, #194, #189, #96 ) ) ;
#288 = FACE_BOUND ( 'NONE', #73, .T. ) ;
#289 = SECURITY_CLASSIFICATION ( '', '', #139 ) ;
#290 = CC_DESIGN_DATE_AND_TIME_ASSIGNMENT ( #173, #260, ( #289 ) ) ;
#291 = DIRECTION ( 'NONE',  ( 1.000000000000000000, 0.000000000000000000, 0.000000000000000000 ) ) ;
#292 = DIRECTION ( 'NONE',  ( 1.000000000000000000, 0.000000000000000000, 0.000000000000000000 ) ) ;
#293 = CARTESIAN_POINT ( 'NONE',  ( 1.250000000000000000, 1.530808498934191571E-16, 0.000000000000000000 ) ) ;
#294 = ADVANCED_FACE ( 'NONE', ( #153 ), #206, .T. ) ;
#295 = VECTOR ( 'NONE', #148, 1000.000000000000000 ) ;
#296 = CARTESIAN_POINT ( 'NONE',  ( 0.000000000000000000, 0.000000000000000000, 3.299999999999997158 ) ) ;
#297 = CARTESIAN_POINT ( 'NONE',  ( -5.000000000000000000, 0.000000000000000000, 3.000000000000000000 ) ) ;
#298 =( NAMED_UNIT ( * ) SI_UNIT ( $, .STERADIAN. ) SOLID_ANGLE_UNIT ( ) );
#299 = PRODUCT_DEFINITION ( 'NEZNÁMÝ', '', #100, #257 ) ;
#300 = ORIENTED_EDGE ( 'NONE', *, *, #224, .F. ) ;
#301 = CALENDAR_DATE ( 2022, 8, 7 ) ;
#302 = ORIENTED_EDGE ( 'NONE', *, *, #158, .T. ) ;
#303 = EDGE_CURVE ( 'NONE', #71, #157, #120, .T. ) ;
#304 = CARTESIAN_POINT ( 'NONE',  ( 0.000000000000000000, 0.000000000000000000, 178.0000000000000000 ) ) ;
#305 = VERTEX_POINT ( 'NONE', #89 ) ;
#306 = CIRCLE ( 'NONE', #82, 2.500000000000000000 ) ;
#307 = LOCAL_TIME ( 17, 47, 58.00000000000000000, #346 ) ;
#308 = DIRECTION ( 'NONE',  ( 0.000000000000000000, 0.000000000000000000, 1.000000000000000000 ) ) ;
#309 = ORIENTED_EDGE ( 'NONE', *, *, #333, .F. ) ;
#310 = APPROVAL_ROLE ( '' ) ;
#311 = ORIENTED_EDGE ( 'NONE', *, *, #2, .F. ) ;
#312 = ADVANCED_FACE ( 'NONE', ( #127 ), #236, .F. ) ;
#313 = PERSON_AND_ORGANIZATION ( #335, #50 ) ;
#314 = CARTESIAN_POINT ( 'NONE',  ( 0.000000000000000000, 0.000000000000000000, 178.0000000000000000 ) ) ;
#315 = CARTESIAN_POINT ( 'NONE',  ( 0.000000000000000000, 0.000000000000000000, 178.0000000000000000 ) ) ;
#316 = UNCERTAINTY_MEASURE_WITH_UNIT (LENGTH_MEASURE( 1.000000000000000082E-05 ), #241, 'distance_accuracy_value', 'NONE');
#317 = DIRECTION ( 'NONE',  ( 1.000000000000000000, 0.000000000000000000, 0.000000000000000000 ) ) ;
#318 = EDGE_CURVE ( 'NONE', #250, #43, #171, .T. ) ;
#319 = FACE_BOUND ( 'NONE', #11, .T. ) ;
#320 = ADVANCED_FACE ( 'NONE', ( #237 ), #324, .T. ) ;
#321 = FACE_OUTER_BOUND ( 'NONE', #57, .T. ) ;
#322 = ADVANCED_FACE ( 'NONE', ( #179 ), #379, .F. ) ;
#323 = DIRECTION ( 'NONE',  ( -1.000000000000000000, 0.000000000000000000, 0.000000000000000000 ) ) ;
#324 = CYLINDRICAL_SURFACE ( 'NONE', #349, 5.000000000000000000 ) ;
#325 = CARTESIAN_POINT ( 'NONE',  ( 0.000000000000000000, 0.000000000000000000, 178.0000000000000000 ) ) ;
#326 = VERTEX_POINT ( 'NONE', #293 ) ;
#327 = AXIS2_PLACEMENT_3D ( 'NONE', #325, #94, #36 ) ;
#328 = CARTESIAN_POINT ( 'NONE',  ( 0.000000000000000000, 0.000000000000000000, 3.000000000000000000 ) ) ;
#329 = ADVANCED_FACE ( 'NONE', ( #91 ), #217, .F. ) ;
#330 = LINE ( 'NONE', #297, #214 ) ;
#331 = PERSON_AND_ORGANIZATION ( #335, #50 ) ;
#332 = ORIENTED_EDGE ( 'NONE', *, *, #152, .F. ) ;
#333 = EDGE_CURVE ( 'NONE', #326, #373, #83, .T. ) ;
#334 = COORDINATED_UNIVERSAL_TIME_OFFSET ( 1, 0, .AHEAD. ) ;
#335 = PERSON ( 'NEURÈENÝ', 'NEURÈENÝ', 'NEURÈENÝ', ('NEURÈENÝ'), ('NEURÈENÝ'), ('NEURÈENÝ') ) ;
#336 = ORIENTED_EDGE ( 'NONE', *, *, #350, .T. ) ;
#337 = CARTESIAN_POINT ( 'NONE',  ( 0.000000000000000000, 0.000000000000000000, 178.0000000000000000 ) ) ;
#338 = CC_DESIGN_PERSON_AND_ORGANIZATION_ASSIGNMENT ( #380, #26, ( #289 ) ) ;
#339 = ORIENTED_EDGE ( 'NONE', *, *, #333, .T. ) ;
#340 = DIRECTION ( 'NONE',  ( 1.000000000000000000, 0.000000000000000000, 0.000000000000000000 ) ) ;
#341 = VERTEX_POINT ( 'NONE', #160 ) ;
#342 = AXIS2_PLACEMENT_3D ( 'NONE', #315, #203, #136 ) ;
#343 = ORIENTED_EDGE ( 'NONE', *, *, #2, .T. ) ;
#344 = EDGE_CURVE ( 'NONE', #305, #341, #138, .T. ) ;
#345 = DIRECTION ( 'NONE',  ( 0.000000000000000000, 0.000000000000000000, -1.000000000000000000 ) ) ;
#346 = COORDINATED_UNIVERSAL_TIME_OFFSET ( 1, 0, .AHEAD. ) ;
#347 = DIRECTION ( 'NONE',  ( 1.000000000000000000, 0.000000000000000000, -0.000000000000000000 ) ) ;
#348 = AXIS2_PLACEMENT_3D ( 'NONE', #55, #375, #225 ) ;
#349 = AXIS2_PLACEMENT_3D ( 'NONE', #34, #60, #357 ) ;
#350 = EDGE_CURVE ( 'NONE', #106, #227, #62, .T. ) ;
#351 = CARTESIAN_POINT ( 'NONE',  ( -5.000000000000000000, 0.000000000000000000, 0.000000000000000000 ) ) ;
#352 = FACE_OUTER_BOUND ( 'NONE', #282, .T. ) ;
#353 = CARTESIAN_POINT ( 'NONE',  ( 0.000000000000000000, 0.000000000000000000, 3.299999999999997158 ) ) ;
#354 = CARTESIAN_POINT ( 'NONE',  ( 2.500000000000000000, 3.061616997868383141E-16, 178.0000000000000000 ) ) ;
#355 = AXIS2_PLACEMENT_3D ( 'NONE', #221, #9, #15 ) ;
#356 = CARTESIAN_POINT ( 'NONE',  ( 0.000000000000000000, 0.000000000000000000, 3.299999999999997158 ) ) ;
#357 = DIRECTION ( 'NONE',  ( -1.000000000000000000, 0.000000000000000000, 0.000000000000000000 ) ) ;
#358 = DIRECTION ( 'NONE',  ( -0.000000000000000000, -0.000000000000000000, -1.000000000000000000 ) ) ;
#359 = APPLICATION_CONTEXT ( 'configuration controlled 3d designs of mechanical parts and assemblies' ) ;
#360 = DIRECTION ( 'NONE',  ( 0.000000000000000000, 0.000000000000000000, 1.000000000000000000 ) ) ;
#361 = CC_DESIGN_PERSON_AND_ORGANIZATION_ASSIGNMENT ( #281, #53, ( #100 ) ) ;
#362 = DIRECTION ( 'NONE',  ( 1.000000000000000000, 0.000000000000000000, 0.000000000000000000 ) ) ;
#363 = ORIENTED_EDGE ( 'NONE', *, *, #344, .T. ) ;
#364 = EDGE_CURVE ( 'NONE', #128, #71, #259, .T. ) ;
#365 = CARTESIAN_POINT ( 'NONE',  ( 0.000000000000000000, 0.000000000000000000, 0.000000000000000000 ) ) ;
#366 = ORIENTED_EDGE ( 'NONE', *, *, #303, .T. ) ;
#367 = AXIS2_PLACEMENT_3D ( 'NONE', #65, #358, #291 ) ;
#368 = APPROVAL_STATUS ( 'not_yet_approved' ) ;
#369 = ORIENTED_EDGE ( 'NONE', *, *, #265, .T. ) ;
#370 = CALENDAR_DATE ( 2022, 8, 7 ) ;
#371 = ORIENTED_EDGE ( 'NONE', *, *, #52, .F. ) ;
#372 = CARTESIAN_POINT ( 'NONE',  ( 0.000000000000000000, 0.000000000000000000, 0.000000000000000000 ) ) ;
#373 = VERTEX_POINT ( 'NONE', #246 ) ;
#374 = VECTOR ( 'NONE', #3, 1000.000000000000000 ) ;
#375 = DIRECTION ( 'NONE',  ( 1.224646799147353207E-16, 1.000000000000000000, -0.000000000000000000 ) ) ;
#376 = CC_DESIGN_PERSON_AND_ORGANIZATION_ASSIGNMENT ( #155, #134, ( #272 ) ) ;
#377 = ORIENTED_EDGE ( 'NONE', *, *, #364, .T. ) ;
#378 = DIRECTION ( 'NONE',  ( 0.000000000000000000, 0.000000000000000000, 1.000000000000000000 ) ) ;
#379 = TOROIDAL_SURFACE ( 'NONE', #162, 2.799999999999999822, 0.2999999999999999889 ) ;
#380 = PERSON_AND_ORGANIZATION ( #335, #50 ) ;
#381 = CARTESIAN_POINT ( 'NONE',  ( 0.000000000000000000, 0.000000000000000000, 0.000000000000000000 ) ) ;
ENDSEC;
END-ISO-10303-21;
