ISO-10303-21;
HEADER;
FILE_DESCRIPTION (( 'STEP AP203' ),
    '1' );
FILE_NAME ('12e4.STEP',
    '2022-07-08T14:52:53',
    ( '' ),
    ( '' ),
    'SwSTEP 2.0',
    'SolidWorks 2019',
    '' );
FILE_SCHEMA (( 'CONFIG_CONTROL_DESIGN' ));
ENDSEC;

DATA;
#1 = CARTESIAN_POINT ( 'NONE',  ( 0.000000000000000000, 0.000000000000000000, 7.000000000000000000 ) ) ;
#2 = CYLINDRICAL_SURFACE ( 'NONE', #187, 6.000000000000000888 ) ;
#3 = ORIENTED_EDGE ( 'NONE', *, *, #84, .T. ) ;
#4 = CARTESIAN_POINT ( 'NONE',  ( -10.00000000000000000, 0.000000000000000000, 7.000000000000000000 ) ) ;
#5 = ORIENTED_EDGE ( 'NONE', *, *, #330, .T. ) ;
#6 = LOCAL_TIME ( 16, 52, 53.00000000000000000, #219 ) ;
#7 = MANIFOLD_SOLID_BREP ( 'Odebrat vysunutím3', #122 ) ;
#8 = CARTESIAN_POINT ( 'NONE',  ( 3.000000000000000444, 3.673940397442060361E-16, 507.0000000000000000 ) ) ;
#9 = CIRCLE ( 'NONE', #247, 6.500000000000000888 ) ;
#10 = ORIENTED_EDGE ( 'NONE', *, *, #208, .T. ) ;
#11 = EDGE_CURVE ( 'NONE', #111, #60, #369, .T. ) ;
#12 = CARTESIAN_POINT ( 'NONE',  ( 0.000000000000000000, 0.000000000000000000, 507.0000000000000000 ) ) ;
#13 = ORIENTED_EDGE ( 'NONE', *, *, #108, .T. ) ;
#14 = EDGE_CURVE ( 'NONE', #335, #306, #201, .T. ) ;
#15 = EDGE_LOOP ( 'NONE', ( #340, #338, #149, #224 ) ) ;
#16 = FACE_OUTER_BOUND ( 'NONE', #241, .T. ) ;
#17 = LINE ( 'NONE', #51, #172 ) ;
#18 = APPROVAL_DATE_TIME ( #161, #63 ) ;
#19 = UNCERTAINTY_MEASURE_WITH_UNIT (LENGTH_MEASURE( 1.000000000000000082E-05 ), #42, 'distance_accuracy_value', 'NONE');
#20 = AXIS2_PLACEMENT_3D ( 'NONE', #114, #231, #177 ) ;
#21 = PERSON_AND_ORGANIZATION ( #230, #307 ) ;
#22 = CARTESIAN_POINT ( 'NONE',  ( 0.000000000000000000, 0.000000000000000000, 7.500000000000007105 ) ) ;
#23 = APPROVAL_ROLE ( '' ) ;
#24 = APPROVAL_PERSON_ORGANIZATION ( #107, #142, #190 ) ;
#25 = CARTESIAN_POINT ( 'NONE',  ( -6.000000000000000888, 0.000000000000000000, 507.0000000000000000 ) ) ;
#26 = PERSON_AND_ORGANIZATION ( #230, #307 ) ;
#27 = CARTESIAN_POINT ( 'NONE',  ( 0.000000000000000000, 0.000000000000000000, 7.000000000000000000 ) ) ;
#28 = LINE ( 'NONE', #139, #134 ) ;
#29 = PRODUCT_RELATED_PRODUCT_CATEGORY ( 'detail', '', ( #31 ) ) ;
#30 = DIRECTION ( 'NONE',  ( 0.000000000000000000, 0.000000000000000000, 1.000000000000000000 ) ) ;
#31 = PRODUCT ( '12e4', '12e4', '', ( #73 ) ) ;
#32 = CARTESIAN_POINT ( 'NONE',  ( -6.500000000000000888, 7.960204194457796463E-16, 7.500000000000007105 ) ) ;
#33 = FACE_OUTER_BOUND ( 'NONE', #185, .T. ) ;
#34 = CC_DESIGN_SECURITY_CLASSIFICATION ( #74, ( #349 ) ) ;
#35 = DIRECTION ( 'NONE',  ( 0.000000000000000000, 0.000000000000000000, 1.000000000000000000 ) ) ;
#36 = ORIENTED_EDGE ( 'NONE', *, *, #236, .T. ) ;
#37 = DIRECTION ( 'NONE',  ( -1.000000000000000000, 0.000000000000000000, 0.000000000000000000 ) ) ;
#38 = APPLICATION_CONTEXT ( 'configuration controlled 3d designs of mechanical parts and assemblies' ) ;
#39 = ORIENTED_EDGE ( 'NONE', *, *, #14, .F. ) ;
#40 = DIRECTION ( 'NONE',  ( 0.000000000000000000, 0.000000000000000000, 1.000000000000000000 ) ) ;
#41 = DIRECTION ( 'NONE',  ( 1.000000000000000000, 0.000000000000000000, 0.000000000000000000 ) ) ;
#42 =( LENGTH_UNIT ( ) NAMED_UNIT ( * ) SI_UNIT ( .MILLI., .METRE. ) );
#43 = EDGE_LOOP ( 'NONE', ( #238, #5, #328, #299 ) ) ;
#44 =( NAMED_UNIT ( * ) SI_UNIT ( $, .STERADIAN. ) SOLID_ANGLE_UNIT ( ) );
#45 = DIRECTION ( 'NONE',  ( 1.000000000000000000, 0.000000000000000000, 0.000000000000000000 ) ) ;
#46 = COORDINATED_UNIVERSAL_TIME_OFFSET ( 1, 0, .AHEAD. ) ;
#47 = CARTESIAN_POINT ( 'NONE',  ( 0.000000000000000000, 0.000000000000000000, 0.000000000000000000 ) ) ;
#48 = APPROVAL_ROLE ( '' ) ;
#49 = DIRECTION ( 'NONE',  ( 0.000000000000000000, 0.000000000000000000, 1.000000000000000000 ) ) ;
#50 = DATE_TIME_ROLE ( 'creation_date' ) ;
#51 = CARTESIAN_POINT ( 'NONE',  ( 10.00000000000000000, 1.224646799147353256E-15, 7.000000000000000000 ) ) ;
#52 = PLANE ( 'NONE',  #200 ) ;
#53 = AXIS2_PLACEMENT_3D ( 'NONE', #304, #40, #41 ) ;
#54 = CARTESIAN_POINT ( 'NONE',  ( 0.000000000000000000, 0.000000000000000000, 7.500000000000007105 ) ) ;
#55 = DIRECTION ( 'NONE',  ( 0.000000000000000000, 0.000000000000000000, 1.000000000000000000 ) ) ;
#56 = DIRECTION ( 'NONE',  ( -1.000000000000000000, 0.000000000000000000, 0.000000000000000000 ) ) ;
#57 = CIRCLE ( 'NONE', #326, 0.5000000000000004441 ) ;
#58 = AXIS2_PLACEMENT_3D ( 'NONE', #54, #228, #174 ) ;
#59 = CYLINDRICAL_SURFACE ( 'NONE', #225, 3.000000000000000444 ) ;
#60 = VERTEX_POINT ( 'NONE', #25 ) ;
#61 = CARTESIAN_POINT ( 'NONE',  ( 0.000000000000000000, 0.000000000000000000, 7.000000000000000000 ) ) ;
#62 = VERTEX_POINT ( 'NONE', #319 ) ;
#63 = APPROVAL ( #370, 'NEURÈENÝ' ) ;
#64 = AXIS2_PLACEMENT_3D ( 'NONE', #92, #35, #293 ) ;
#65 = ORIENTED_EDGE ( 'NONE', *, *, #310, .F. ) ;
#66 = VERTEX_POINT ( 'NONE', #68 ) ;
#67 = EDGE_LOOP ( 'NONE', ( #267, #65 ) ) ;
#68 = CARTESIAN_POINT ( 'NONE',  ( 10.00000000000000000, 1.224646799147353256E-15, 0.000000000000000000 ) ) ;
#69 = VECTOR ( 'NONE', #148, 1000.000000000000000 ) ;
#70 = CARTESIAN_POINT ( 'NONE',  ( 3.000000000000000444, 3.673940397442060361E-16, 507.0000000000000000 ) ) ;
#71 = PERSON_AND_ORGANIZATION ( #230, #307 ) ;
#72 = APPROVAL_STATUS ( 'not_yet_approved' ) ;
#73 = MECHANICAL_CONTEXT ( 'NONE', #259, 'mechanical' ) ;
#74 = SECURITY_CLASSIFICATION ( '', '', #167 ) ;
#75 = ORIENTED_EDGE ( 'NONE', *, *, #140, .F. ) ;
#76 = AXIS2_PLACEMENT_3D ( 'NONE', #283, #171, #363 ) ;
#77 = EDGE_CURVE ( 'NONE', #306, #335, #183, .T. ) ;
#78 = COORDINATED_UNIVERSAL_TIME_OFFSET ( 1, 0, .AHEAD. ) ;
#79 = DIRECTION ( 'NONE',  ( 1.000000000000000000, 0.000000000000000000, -0.000000000000000000 ) ) ;
#80 = DIRECTION ( 'NONE',  ( 1.000000000000000000, 0.000000000000000000, 0.000000000000000000 ) ) ;
#81 = APPROVAL ( #72, 'NEURÈENÝ' ) ;
#82 = PERSON_AND_ORGANIZATION ( #230, #307 ) ;
#83 = ADVANCED_FACE ( 'NONE', ( #312 ), #115, .F. ) ;
#84 = EDGE_CURVE ( 'NONE', #95, #66, #17, .T. ) ;
#85 = DIRECTION ( 'NONE',  ( 0.000000000000000000, 0.000000000000000000, -1.000000000000000000 ) ) ;
#86 = EDGE_CURVE ( 'NONE', #331, #91, #294, .T. ) ;
#87 = DIRECTION ( 'NONE',  ( 1.000000000000000000, 0.000000000000000000, 0.000000000000000000 ) ) ;
#88 = AXIS2_PLACEMENT_3D ( 'NONE', #165, #375, #45 ) ;
#89 = CARTESIAN_POINT ( 'NONE',  ( 6.000000000000000888, 7.347880794884120722E-16, 507.0000000000000000 ) ) ;
#90 = DIRECTION ( 'NONE',  ( 0.000000000000000000, 0.000000000000000000, 1.000000000000000000 ) ) ;
#91 = VERTEX_POINT ( 'NONE', #113 ) ;
#92 = CARTESIAN_POINT ( 'NONE',  ( 0.000000000000000000, 0.000000000000000000, 7.500000000000007105 ) ) ;
#93 = ORIENTED_EDGE ( 'NONE', *, *, #159, .T. ) ;
#94 = CARTESIAN_POINT ( 'NONE',  ( 0.000000000000000000, 0.000000000000000000, 507.0000000000000000 ) ) ;
#95 = VERTEX_POINT ( 'NONE', #136 ) ;
#96 = CIRCLE ( 'NONE', #313, 3.000000000000000444 ) ;
#97 = ORIENTED_EDGE ( 'NONE', *, *, #133, .F. ) ;
#98 = CIRCLE ( 'NONE', #360, 0.5000000000000004441 ) ;
#99 = ORIENTED_EDGE ( 'NONE', *, *, #310, .T. ) ;
#100 = DIRECTION ( 'NONE',  ( -1.000000000000000000, 0.000000000000000000, 0.000000000000000000 ) ) ;
#101 = LOCAL_TIME ( 16, 52, 53.00000000000000000, #46 ) ;
#102 = DIRECTION ( 'NONE',  ( 0.000000000000000000, 0.000000000000000000, 1.000000000000000000 ) ) ;
#103 = PLANE ( 'NONE',  #240 ) ;
#104 = VECTOR ( 'NONE', #186, 1000.000000000000000 ) ;
#105 = DATE_AND_TIME ( #308, #263 ) ;
#106 = CIRCLE ( 'NONE', #321, 10.00000000000000000 ) ;
#107 = PERSON_AND_ORGANIZATION ( #230, #307 ) ;
#108 = EDGE_CURVE ( 'NONE', #91, #331, #9, .T. ) ;
#109 = DATE_AND_TIME ( #162, #101 ) ;
#110 = APPLICATION_PROTOCOL_DEFINITION ( 'international standard', 'config_control_design', 1994, #38 ) ;
#111 = VERTEX_POINT ( 'NONE', #373 ) ;
#112 = CARTESIAN_POINT ( 'NONE',  ( 6.500000000000000888, 0.000000000000000000, 7.500000000000007105 ) ) ;
#113 = CARTESIAN_POINT ( 'NONE',  ( -6.500000000000000888, 7.960204194457796463E-16, 7.000000000000002665 ) ) ;
#114 = CARTESIAN_POINT ( 'NONE',  ( 0.000000000000000000, 0.000000000000000000, 7.000000000000000000 ) ) ;
#115 = TOROIDAL_SURFACE ( 'NONE', #381, 6.500000000000000888, 0.5000000000000000000 ) ;
#116 = ADVANCED_FACE ( 'NONE', ( #253, #249 ), #52, .F. ) ;
#117 = LINE ( 'NONE', #4, #192 ) ;
#118 = ORIENTED_EDGE ( 'NONE', *, *, #377, .F. ) ;
#119 = DIRECTION ( 'NONE',  ( 0.000000000000000000, 0.000000000000000000, 1.000000000000000000 ) ) ;
#120 = AXIS2_PLACEMENT_3D ( 'NONE', #250, #344, #79 ) ;
#121 = ORIENTED_EDGE ( 'NONE', *, *, #237, .F. ) ;
#122 = CLOSED_SHELL ( 'NONE', ( #324, #164, #188, #239, #277, #366, #116, #289, #334, #83, #199 ) ) ;
#123 = EDGE_CURVE ( 'NONE', #95, #178, #106, .T. ) ;
#124 = DIRECTION ( 'NONE',  ( -0.000000000000000000, -0.000000000000000000, -1.000000000000000000 ) ) ;
#125 = ORIENTED_EDGE ( 'NONE', *, *, #77, .F. ) ;
#126 = EDGE_CURVE ( 'NONE', #60, #111, #145, .T. ) ;
#127 = CARTESIAN_POINT ( 'NONE',  ( 0.000000000000000000, 0.000000000000000000, 507.0000000000000000 ) ) ;
#128 = ORIENTED_EDGE ( 'NONE', *, *, #123, .T. ) ;
#129 = CC_DESIGN_PERSON_AND_ORGANIZATION_ASSIGNMENT ( #132, #316, ( #349 ) ) ;
#130 = ORIENTED_EDGE ( 'NONE', *, *, #126, .F. ) ;
#131 = CARTESIAN_POINT ( 'NONE',  ( -3.000000000000000444, 0.000000000000000000, 507.0000000000000000 ) ) ;
#132 = PERSON_AND_ORGANIZATION ( #230, #307 ) ;
#133 = EDGE_CURVE ( 'NONE', #60, #62, #28, .T. ) ;
#134 = VECTOR ( 'NONE', #376, 1000.000000000000000 ) ;
#135 = DIRECTION ( 'NONE',  ( -0.000000000000000000, -0.000000000000000000, -1.000000000000000000 ) ) ;
#136 = CARTESIAN_POINT ( 'NONE',  ( 10.00000000000000000, 1.224646799147353256E-15, 7.000000000000000000 ) ) ;
#137 = PERSON_AND_ORGANIZATION ( #230, #307 ) ;
#138 = DIRECTION ( 'NONE',  ( 1.000000000000000000, 0.000000000000000000, 0.000000000000000000 ) ) ;
#139 = CARTESIAN_POINT ( 'NONE',  ( -6.000000000000000888, 0.000000000000000000, 507.0000000000000000 ) ) ;
#140 = EDGE_CURVE ( 'NONE', #184, #331, #98, .T. ) ;
#141 = CARTESIAN_POINT ( 'NONE',  ( 0.000000000000000000, 0.000000000000000000, 507.0000000000000000 ) ) ;
#142 = APPROVAL ( #217, 'NEURÈENÝ' ) ;
#143 = DIRECTION ( 'NONE',  ( 1.224646799147353207E-16, 1.000000000000000000, -0.000000000000000000 ) ) ;
#144 = CYLINDRICAL_SURFACE ( 'NONE', #245, 6.000000000000000888 ) ;
#145 = CIRCLE ( 'NONE', #212, 6.000000000000000888 ) ;
#146 = DIRECTION ( 'NONE',  ( 1.000000000000000000, 0.000000000000000000, 0.000000000000000000 ) ) ;
#147 = EDGE_LOOP ( 'NONE', ( #317, #130, #378, #215 ) ) ;
#148 = DIRECTION ( 'NONE',  ( -0.000000000000000000, -0.000000000000000000, -1.000000000000000000 ) ) ;
#149 = ORIENTED_EDGE ( 'NONE', *, *, #280, .T. ) ;
#150 = FACE_OUTER_BOUND ( 'NONE', #271, .T. ) ;
#151 = CIRCLE ( 'NONE', #320, 6.000000000000000888 ) ;
#152 = ORIENTED_EDGE ( 'NONE', *, *, #86, .F. ) ;
#153 = DIRECTION ( 'NONE',  ( 0.000000000000000000, 0.000000000000000000, 1.000000000000000000 ) ) ;
#154 = ORIENTED_EDGE ( 'NONE', *, *, #14, .T. ) ;
#155 = FACE_BOUND ( 'NONE', #182, .T. ) ;
#156 = ORIENTED_EDGE ( 'NONE', *, *, #254, .F. ) ;
#157 = DIRECTION ( 'NONE',  ( 0.000000000000000000, 0.000000000000000000, -1.000000000000000000 ) ) ;
#158 = DIRECTION ( 'NONE',  ( 0.000000000000000000, 0.000000000000000000, 1.000000000000000000 ) ) ;
#159 = EDGE_CURVE ( 'NONE', #281, #335, #198, .T. ) ;
#160 = DIRECTION ( 'NONE',  ( 1.000000000000000000, 0.000000000000000000, 0.000000000000000000 ) ) ;
#161 = DATE_AND_TIME ( #189, #6 ) ;
#162 = CALENDAR_DATE ( 2022, 8, 7 ) ;
#163 = ORIENTED_EDGE ( 'NONE', *, *, #11, .F. ) ;
#164 = ADVANCED_FACE ( 'NONE', ( #206 ), #220, .F. ) ;
#165 = CARTESIAN_POINT ( 'NONE',  ( 0.000000000000000000, 0.000000000000000000, 0.000000000000000000 ) ) ;
#166 = DIRECTION ( 'NONE',  ( -0.000000000000000000, -0.000000000000000000, -1.000000000000000000 ) ) ;
#167 = SECURITY_CLASSIFICATION_LEVEL ( 'unclassified' ) ;
#168 = PLANE ( 'NONE',  #120 ) ;
#169 = DIRECTION ( 'NONE',  ( -0.000000000000000000, -0.000000000000000000, -1.000000000000000000 ) ) ;
#170 = APPROVAL_PERSON_ORGANIZATION ( #26, #63, #23 ) ;
#171 = DIRECTION ( 'NONE',  ( 0.000000000000000000, 0.000000000000000000, 1.000000000000000000 ) ) ;
#172 = VECTOR ( 'NONE', #345, 1000.000000000000000 ) ;
#173 = CYLINDRICAL_SURFACE ( 'NONE', #278, 10.00000000000000000 ) ;
#174 = DIRECTION ( 'NONE',  ( 1.000000000000000000, 0.000000000000000000, 0.000000000000000000 ) ) ;
#175 = AXIS2_PLACEMENT_3D ( 'NONE', #27, #169, #255 ) ;
#176 = PRODUCT_DEFINITION ( 'NEZNÁMÝ', '', #349, #226 ) ;
#177 = DIRECTION ( 'NONE',  ( -1.000000000000000000, 0.000000000000000000, 0.000000000000000000 ) ) ;
#178 = VERTEX_POINT ( 'NONE', #290 ) ;
#179 = DIRECTION ( 'NONE',  ( 1.000000000000000000, 0.000000000000000000, 0.000000000000000000 ) ) ;
#180 = ORIENTED_EDGE ( 'NONE', *, *, #11, .T. ) ;
#181 = APPROVAL_PERSON_ORGANIZATION ( #137, #81, #48 ) ;
#182 = EDGE_LOOP ( 'NONE', ( #209, #13 ) ) ;
#183 = CIRCLE ( 'NONE', #343, 3.000000000000000444 ) ;
#184 = VERTEX_POINT ( 'NONE', #355 ) ;
#185 = EDGE_LOOP ( 'NONE', ( #193, #99, #93, #154 ) ) ;
#186 = DIRECTION ( 'NONE',  ( 0.000000000000000000, 0.000000000000000000, -1.000000000000000000 ) ) ;
#187 = AXIS2_PLACEMENT_3D ( 'NONE', #297, #295, #202 ) ;
#188 = ADVANCED_FACE ( 'NONE', ( #379 ), #2, .T. ) ;
#189 = CALENDAR_DATE ( 2022, 8, 7 ) ;
#190 = APPROVAL_ROLE ( '' ) ;
#191 = DIRECTION ( 'NONE',  ( 1.000000000000000000, 0.000000000000000000, 0.000000000000000000 ) ) ;
#192 = VECTOR ( 'NONE', #357, 1000.000000000000000 ) ;
#193 = ORIENTED_EDGE ( 'NONE', *, *, #330, .F. ) ;
#194 = CALENDAR_DATE ( 2022, 8, 7 ) ;
#195 = DIRECTION ( 'NONE',  ( 0.000000000000000000, 0.000000000000000000, 1.000000000000000000 ) ) ;
#196 = COORDINATED_UNIVERSAL_TIME_OFFSET ( 1, 0, .AHEAD. ) ;
#197 = CARTESIAN_POINT ( 'NONE',  ( 0.000000000000000000, 0.000000000000000000, 0.000000000000000000 ) ) ;
#198 = LINE ( 'NONE', #131, #242 ) ;
#199 = ADVANCED_FACE ( 'NONE', ( #33 ), #59, .F. ) ;
#200 = AXIS2_PLACEMENT_3D ( 'NONE', #251, #195, #315 ) ;
#201 = CIRCLE ( 'NONE', #229, 3.000000000000000444 ) ;
#202 = DIRECTION ( 'NONE',  ( -1.000000000000000000, 0.000000000000000000, 0.000000000000000000 ) ) ;
#203 = APPROVAL_DATE_TIME ( #109, #142 ) ;
#204 = DIRECTION ( 'NONE',  ( 1.000000000000000000, 0.000000000000000000, 0.000000000000000000 ) ) ;
#205 = ORIENTED_EDGE ( 'NONE', *, *, #362, .T. ) ;
#206 = FACE_OUTER_BOUND ( 'NONE', #233, .T. ) ;
#207 = VERTEX_POINT ( 'NONE', #265 ) ;
#208 = EDGE_CURVE ( 'NONE', #178, #95, #292, .T. ) ;
#209 = ORIENTED_EDGE ( 'NONE', *, *, #86, .T. ) ;
#210 = CIRCLE ( 'NONE', #64, 6.000000000000000888 ) ;
#211 = EDGE_LOOP ( 'NONE', ( #356, #180 ) ) ;
#212 = AXIS2_PLACEMENT_3D ( 'NONE', #287, #49, #87 ) ;
#213 = EDGE_LOOP ( 'NONE', ( #39, #125 ) ) ;
#214 = LINE ( 'NONE', #70, #104 ) ;
#215 = ORIENTED_EDGE ( 'NONE', *, *, #254, .T. ) ;
#216 = CC_DESIGN_APPROVAL ( #63, ( #176 ) ) ;
#217 = APPROVAL_STATUS ( 'not_yet_approved' ) ;
#218 = ORIENTED_EDGE ( 'NONE', *, *, #236, .F. ) ;
#219 = COORDINATED_UNIVERSAL_TIME_OFFSET ( 1, 0, .AHEAD. ) ;
#220 = TOROIDAL_SURFACE ( 'NONE', #58, 6.500000000000000888, 0.5000000000000000000 ) ;
#221 = DIRECTION ( 'NONE',  ( 1.000000000000000000, 0.000000000000000000, 0.000000000000000000 ) ) ;
#222 = PRODUCT_DEFINITION_SHAPE ( 'NONE', 'NONE',  #176 ) ;
#223 = CARTESIAN_POINT ( 'NONE',  ( 0.000000000000000000, 0.000000000000000000, 7.000000000000000000 ) ) ;
#224 = ORIENTED_EDGE ( 'NONE', *, *, #237, .T. ) ;
#225 = AXIS2_PLACEMENT_3D ( 'NONE', #94, #323, #37 ) ;
#226 = DESIGN_CONTEXT ( 'detailed design', #38, 'design' ) ;
#227 = LOCAL_TIME ( 16, 52, 53.00000000000000000, #78 ) ;
#228 = DIRECTION ( 'NONE',  ( 0.000000000000000000, 0.000000000000000000, 1.000000000000000000 ) ) ;
#229 = AXIS2_PLACEMENT_3D ( 'NONE', #47, #285, #138 ) ;
#230 = PERSON ( 'NEURÈENÝ', 'NEURÈENÝ', 'NEURÈENÝ', ('NEURÈENÝ'), ('NEURÈENÝ'), ('NEURÈENÝ') ) ;
#231 = DIRECTION ( 'NONE',  ( -0.000000000000000000, -0.000000000000000000, -1.000000000000000000 ) ) ;
#232 = CARTESIAN_POINT ( 'NONE',  ( 3.000000000000000444, 3.673940397442060361E-16, 0.000000000000000000 ) ) ;
#233 = EDGE_LOOP ( 'NONE', ( #156, #296, #152, #75 ) ) ;
#234 = ORIENTED_EDGE ( 'NONE', *, *, #280, .F. ) ;
#235 = CARTESIAN_POINT ( 'NONE',  ( 0.000000000000000000, 0.000000000000000000, 7.500000000000007105 ) ) ;
#236 = EDGE_CURVE ( 'NONE', #184, #62, #210, .T. ) ;
#237 = EDGE_CURVE ( 'NONE', #207, #66, #368, .T. ) ;
#238 = ORIENTED_EDGE ( 'NONE', *, *, #266, .T. ) ;
#239 = ADVANCED_FACE ( 'NONE', ( #150 ), #173, .T. ) ;
#240 = AXIS2_PLACEMENT_3D ( 'NONE', #127, #153, #274 ) ;
#241 = EDGE_LOOP ( 'NONE', ( #10, #128 ) ) ;
#242 = VECTOR ( 'NONE', #243, 1000.000000000000000 ) ;
#243 = DIRECTION ( 'NONE',  ( 0.000000000000000000, 0.000000000000000000, -1.000000000000000000 ) ) ;
#244 = PERSON_AND_ORGANIZATION_ROLE ( 'classification_officer' ) ;
#245 = AXIS2_PLACEMENT_3D ( 'NONE', #260, #351, #56 ) ;
#246 = DATE_TIME_ROLE ( 'classification_date' ) ;
#247 = AXIS2_PLACEMENT_3D ( 'NONE', #223, #135, #80 ) ;
#248 = APPROVAL_DATE_TIME ( #282, #81 ) ;
#249 = FACE_OUTER_BOUND ( 'NONE', #337, .T. ) ;
#250 = CARTESIAN_POINT ( 'NONE',  ( 0.000000000000000000, 0.000000000000000000, 7.000000000000000000 ) ) ;
#251 = CARTESIAN_POINT ( 'NONE',  ( 0.000000000000000000, 0.000000000000000000, 0.000000000000000000 ) ) ;
#252 =( GEOMETRIC_REPRESENTATION_CONTEXT ( 3 ) GLOBAL_UNCERTAINTY_ASSIGNED_CONTEXT ( ( #19 ) ) GLOBAL_UNIT_ASSIGNED_CONTEXT ( ( #42, #272, #44 ) ) REPRESENTATION_CONTEXT ( 'NONE', 'WORKASPACE' ) );
#253 = FACE_BOUND ( 'NONE', #213, .T. ) ;
#254 = EDGE_CURVE ( 'NONE', #62, #184, #151, .T. ) ;
#255 = DIRECTION ( 'NONE',  ( 1.000000000000000000, 0.000000000000000000, 0.000000000000000000 ) ) ;
#256 = FACE_OUTER_BOUND ( 'NONE', #147, .T. ) ;
#257 = AXIS2_PLACEMENT_3D ( 'NONE', #61, #55, #204 ) ;
#258 = CC_DESIGN_PERSON_AND_ORGANIZATION_ASSIGNMENT ( #346, #284, ( #31 ) ) ;
#259 = APPLICATION_CONTEXT ( 'configuration controlled 3d designs of mechanical parts and assemblies' ) ;
#260 = CARTESIAN_POINT ( 'NONE',  ( 0.000000000000000000, 0.000000000000000000, 507.0000000000000000 ) ) ;
#261 = CARTESIAN_POINT ( 'NONE',  ( 0.000000000000000000, 0.000000000000000000, 0.000000000000000000 ) ) ;
#262 = ORIENTED_EDGE ( 'NONE', *, *, #362, .F. ) ;
#263 = LOCAL_TIME ( 16, 52, 53.00000000000000000, #339 ) ;
#264 = SHAPE_DEFINITION_REPRESENTATION ( #222, #288 ) ;
#265 = CARTESIAN_POINT ( 'NONE',  ( -10.00000000000000000, 0.000000000000000000, 0.000000000000000000 ) ) ;
#266 = EDGE_CURVE ( 'NONE', #281, #275, #96, .T. ) ;
#267 = ORIENTED_EDGE ( 'NONE', *, *, #266, .F. ) ;
#268 = CIRCLE ( 'NONE', #53, 10.00000000000000000 ) ;
#269 = FACE_OUTER_BOUND ( 'NONE', #15, .T. ) ;
#270 = ORIENTED_EDGE ( 'NONE', *, *, #123, .F. ) ;
#271 = EDGE_LOOP ( 'NONE', ( #270, #3, #205, #234 ) ) ;
#272 =( NAMED_UNIT ( * ) PLANE_ANGLE_UNIT ( ) SI_UNIT ( $, .RADIAN. ) );
#273 = EDGE_CURVE ( 'NONE', #111, #184, #327, .T. ) ;
#274 = DIRECTION ( 'NONE',  ( 1.000000000000000000, 0.000000000000000000, -0.000000000000000000 ) ) ;
#275 = VERTEX_POINT ( 'NONE', #8 ) ;
#276 = CC_DESIGN_APPROVAL ( #142, ( #74 ) ) ;
#277 = ADVANCED_FACE ( 'NONE', ( #269 ), #322, .T. ) ;
#278 = AXIS2_PLACEMENT_3D ( 'NONE', #1, #124, #350 ) ;
#279 = CC_DESIGN_PERSON_AND_ORGANIZATION_ASSIGNMENT ( #71, #311, ( #349 ) ) ;
#280 = EDGE_CURVE ( 'NONE', #178, #207, #117, .T. ) ;
#281 = VERTEX_POINT ( 'NONE', #291 ) ;
#282 = DATE_AND_TIME ( #194, #227 ) ;
#283 = CARTESIAN_POINT ( 'NONE',  ( 0.000000000000000000, 0.000000000000000000, 507.0000000000000000 ) ) ;
#284 = PERSON_AND_ORGANIZATION_ROLE ( 'design_owner' ) ;
#285 = DIRECTION ( 'NONE',  ( -0.000000000000000000, -0.000000000000000000, -1.000000000000000000 ) ) ;
#286 = AXIS2_PLACEMENT_3D ( 'NONE', #12, #157, #100 ) ;
#287 = CARTESIAN_POINT ( 'NONE',  ( 0.000000000000000000, 0.000000000000000000, 507.0000000000000000 ) ) ;
#288 = ADVANCED_BREP_SHAPE_REPRESENTATION ( '12e4', ( #7, #88 ), #252 ) ;
#289 = ADVANCED_FACE ( 'NONE', ( #256 ), #144, .T. ) ;
#290 = CARTESIAN_POINT ( 'NONE',  ( -10.00000000000000000, 0.000000000000000000, 7.000000000000000000 ) ) ;
#291 = CARTESIAN_POINT ( 'NONE',  ( -3.000000000000000444, 0.000000000000000000, 507.0000000000000000 ) ) ;
#292 = CIRCLE ( 'NONE', #257, 10.00000000000000000 ) ;
#293 = DIRECTION ( 'NONE',  ( 1.000000000000000000, 0.000000000000000000, 0.000000000000000000 ) ) ;
#294 = CIRCLE ( 'NONE', #175, 6.500000000000000888 ) ;
#295 = DIRECTION ( 'NONE',  ( -0.000000000000000000, -0.000000000000000000, -1.000000000000000000 ) ) ;
#296 = ORIENTED_EDGE ( 'NONE', *, *, #377, .T. ) ;
#297 = CARTESIAN_POINT ( 'NONE',  ( 0.000000000000000000, 0.000000000000000000, 507.0000000000000000 ) ) ;
#298 = CC_DESIGN_PERSON_AND_ORGANIZATION_ASSIGNMENT ( #21, #244, ( #74 ) ) ;
#299 = ORIENTED_EDGE ( 'NONE', *, *, #159, .F. ) ;
#300 = LOCAL_TIME ( 16, 52, 53.00000000000000000, #196 ) ;
#301 = CARTESIAN_POINT ( 'NONE',  ( -3.000000000000000444, 0.000000000000000000, 0.000000000000000000 ) ) ;
#302 = EDGE_LOOP ( 'NONE', ( #163, #361, #36, #97 ) ) ;
#303 = APPLICATION_PROTOCOL_DEFINITION ( 'international standard', 'config_control_design', 1994, #259 ) ;
#304 = CARTESIAN_POINT ( 'NONE',  ( 0.000000000000000000, 0.000000000000000000, 0.000000000000000000 ) ) ;
#305 = EDGE_LOOP ( 'NONE', ( #118, #218, #354, #359 ) ) ;
#306 = VERTEX_POINT ( 'NONE', #232 ) ;
#307 = ORGANIZATION ( 'NEURÈENÝ', 'NEURÈENÝ', '' ) ;
#308 = CALENDAR_DATE ( 2022, 8, 7 ) ;
#309 = CC_DESIGN_PERSON_AND_ORGANIZATION_ASSIGNMENT ( #82, #314, ( #176 ) ) ;
#310 = EDGE_CURVE ( 'NONE', #275, #281, #374, .T. ) ;
#311 = PERSON_AND_ORGANIZATION_ROLE ( 'design_supplier' ) ;
#312 = FACE_OUTER_BOUND ( 'NONE', #305, .T. ) ;
#313 = AXIS2_PLACEMENT_3D ( 'NONE', #141, #119, #179 ) ;
#314 = PERSON_AND_ORGANIZATION_ROLE ( 'creator' ) ;
#315 = DIRECTION ( 'NONE',  ( 1.000000000000000000, 0.000000000000000000, -0.000000000000000000 ) ) ;
#316 = PERSON_AND_ORGANIZATION_ROLE ( 'creator' ) ;
#317 = ORIENTED_EDGE ( 'NONE', *, *, #273, .F. ) ;
#318 = CALENDAR_DATE ( 2022, 8, 7 ) ;
#319 = CARTESIAN_POINT ( 'NONE',  ( -6.000000000000000888, 0.000000000000000000, 7.500000000000007105 ) ) ;
#320 = AXIS2_PLACEMENT_3D ( 'NONE', #235, #30, #146 ) ;
#321 = AXIS2_PLACEMENT_3D ( 'NONE', #348, #102, #372 ) ;
#322 = CYLINDRICAL_SURFACE ( 'NONE', #20, 10.00000000000000000 ) ;
#323 = DIRECTION ( 'NONE',  ( 0.000000000000000000, 0.000000000000000000, -1.000000000000000000 ) ) ;
#324 = ADVANCED_FACE ( 'NONE', ( #336 ), #367, .F. ) ;
#325 = DIRECTION ( 'NONE',  ( 1.000000000000000000, 0.000000000000000000, 0.000000000000000000 ) ) ;
#326 = AXIS2_PLACEMENT_3D ( 'NONE', #32, #143, #364 ) ;
#327 = LINE ( 'NONE', #89, #69 ) ;
#328 = ORIENTED_EDGE ( 'NONE', *, *, #77, .T. ) ;
#329 = DIRECTION ( 'NONE',  ( 0.000000000000000000, 0.000000000000000000, 1.000000000000000000 ) ) ;
#330 = EDGE_CURVE ( 'NONE', #275, #306, #214, .T. ) ;
#331 = VERTEX_POINT ( 'NONE', #358 ) ;
#332 = FACE_BOUND ( 'NONE', #67, .T. ) ;
#333 = CC_DESIGN_APPROVAL ( #81, ( #349 ) ) ;
#334 = ADVANCED_FACE ( 'NONE', ( #332, #365 ), #103, .T. ) ;
#335 = VERTEX_POINT ( 'NONE', #301 ) ;
#336 = FACE_OUTER_BOUND ( 'NONE', #43, .T. ) ;
#337 = EDGE_LOOP ( 'NONE', ( #121, #262 ) ) ;
#338 = ORIENTED_EDGE ( 'NONE', *, *, #208, .F. ) ;
#339 = COORDINATED_UNIVERSAL_TIME_OFFSET ( 1, 0, .AHEAD. ) ;
#340 = ORIENTED_EDGE ( 'NONE', *, *, #84, .F. ) ;
#341 = AXIS2_PLACEMENT_3D ( 'NONE', #261, #329, #325 ) ;
#342 = DATE_AND_TIME ( #318, #300 ) ;
#343 = AXIS2_PLACEMENT_3D ( 'NONE', #197, #166, #221 ) ;
#344 = DIRECTION ( 'NONE',  ( 0.000000000000000000, 0.000000000000000000, 1.000000000000000000 ) ) ;
#345 = DIRECTION ( 'NONE',  ( -0.000000000000000000, -0.000000000000000000, -1.000000000000000000 ) ) ;
#346 = PERSON_AND_ORGANIZATION ( #230, #307 ) ;
#347 = DIRECTION ( 'NONE',  ( 0.000000000000000000, -1.000000000000000000, 0.000000000000000000 ) ) ;
#348 = CARTESIAN_POINT ( 'NONE',  ( 0.000000000000000000, 0.000000000000000000, 7.000000000000000000 ) ) ;
#349 = PRODUCT_DEFINITION_FORMATION_WITH_SPECIFIED_SOURCE ( 'LIBOVOLNÝ', '', #31, .NOT_KNOWN. ) ;
#350 = DIRECTION ( 'NONE',  ( -1.000000000000000000, 0.000000000000000000, 0.000000000000000000 ) ) ;
#351 = DIRECTION ( 'NONE',  ( -0.000000000000000000, -0.000000000000000000, -1.000000000000000000 ) ) ;
#352 = CARTESIAN_POINT ( 'NONE',  ( 0.000000000000000000, 0.000000000000000000, 507.0000000000000000 ) ) ;
#353 = CC_DESIGN_DATE_AND_TIME_ASSIGNMENT ( #342, #50, ( #176 ) ) ;
#354 = ORIENTED_EDGE ( 'NONE', *, *, #140, .T. ) ;
#355 = CARTESIAN_POINT ( 'NONE',  ( 6.000000000000000888, 7.347880794884120722E-16, 7.500000000000007105 ) ) ;
#356 = ORIENTED_EDGE ( 'NONE', *, *, #126, .T. ) ;
#357 = DIRECTION ( 'NONE',  ( -0.000000000000000000, -0.000000000000000000, -1.000000000000000000 ) ) ;
#358 = CARTESIAN_POINT ( 'NONE',  ( 6.500000000000000888, 0.000000000000000000, 7.000000000000002665 ) ) ;
#359 = ORIENTED_EDGE ( 'NONE', *, *, #108, .F. ) ;
#360 = AXIS2_PLACEMENT_3D ( 'NONE', #112, #347, #85 ) ;
#361 = ORIENTED_EDGE ( 'NONE', *, *, #273, .T. ) ;
#362 = EDGE_CURVE ( 'NONE', #66, #207, #268, .T. ) ;
#363 = DIRECTION ( 'NONE',  ( 1.000000000000000000, 0.000000000000000000, 0.000000000000000000 ) ) ;
#364 = DIRECTION ( 'NONE',  ( -1.000000000000000000, 1.224646799147351482E-16, 0.000000000000000000 ) ) ;
#365 = FACE_OUTER_BOUND ( 'NONE', #211, .T. ) ;
#366 = ADVANCED_FACE ( 'NONE', ( #155, #16 ), #168, .T. ) ;
#367 = CYLINDRICAL_SURFACE ( 'NONE', #286, 3.000000000000000444 ) ;
#368 = CIRCLE ( 'NONE', #341, 10.00000000000000000 ) ;
#369 = CIRCLE ( 'NONE', #76, 6.000000000000000888 ) ;
#370 = APPROVAL_STATUS ( 'not_yet_approved' ) ;
#371 = CC_DESIGN_DATE_AND_TIME_ASSIGNMENT ( #105, #246, ( #74 ) ) ;
#372 = DIRECTION ( 'NONE',  ( 1.000000000000000000, 0.000000000000000000, 0.000000000000000000 ) ) ;
#373 = CARTESIAN_POINT ( 'NONE',  ( 6.000000000000000888, 7.347880794884120722E-16, 507.0000000000000000 ) ) ;
#374 = CIRCLE ( 'NONE', #380, 3.000000000000000444 ) ;
#375 = DIRECTION ( 'NONE',  ( 0.000000000000000000, 0.000000000000000000, 1.000000000000000000 ) ) ;
#376 = DIRECTION ( 'NONE',  ( -0.000000000000000000, -0.000000000000000000, -1.000000000000000000 ) ) ;
#377 = EDGE_CURVE ( 'NONE', #62, #91, #57, .T. ) ;
#378 = ORIENTED_EDGE ( 'NONE', *, *, #133, .T. ) ;
#379 = FACE_OUTER_BOUND ( 'NONE', #302, .T. ) ;
#380 = AXIS2_PLACEMENT_3D ( 'NONE', #352, #90, #160 ) ;
#381 = AXIS2_PLACEMENT_3D ( 'NONE', #22, #158, #191 ) ;
ENDSEC;
END-ISO-10303-21;
