ISO-10303-21;
HEADER;
FILE_DESCRIPTION (( 'STEP AP203' ),
    '1' );
FILE_NAME ('b899.STEP',
    '2022-07-08T15:23:07',
    ( '' ),
    ( '' ),
    'SwSTEP 2.0',
    'SolidWorks 2019',
    '' );
FILE_SCHEMA (( 'CONFIG_CONTROL_DESIGN' ));
ENDSEC;

DATA;
#1 = ORIENTED_EDGE ( 'NONE', *, *, #265, .F. ) ;
#2 = DIRECTION ( 'NONE',  ( 1.000000000000000000, 0.000000000000000000, -0.000000000000000000 ) ) ;
#3 = AXIS2_PLACEMENT_3D ( 'NONE', #373, #310, #228 ) ;
#4 = EDGE_LOOP ( 'NONE', ( #117, #275, #114, #145 ) ) ;
#5 = CIRCLE ( 'NONE', #113, 4.000000000000000000 ) ;
#6 = VERTEX_POINT ( 'NONE', #274 ) ;
#7 = ORIENTED_EDGE ( 'NONE', *, *, #89, .F. ) ;
#8 = AXIS2_PLACEMENT_3D ( 'NONE', #374, #379, #112 ) ;
#9 = ADVANCED_FACE ( 'NONE', ( #150 ), #364, .F. ) ;
#10 = DIRECTION ( 'NONE',  ( -1.000000000000000000, 0.000000000000000000, 0.000000000000000000 ) ) ;
#11 = APPLICATION_PROTOCOL_DEFINITION ( 'international standard', 'config_control_design', 1994, #123 ) ;
#12 = CIRCLE ( 'NONE', #247, 7.000000000000000000 ) ;
#13 = DIRECTION ( 'NONE',  ( 0.000000000000000000, 0.000000000000000000, 1.000000000000000000 ) ) ;
#14 = COORDINATED_UNIVERSAL_TIME_OFFSET ( 1, 0, .AHEAD. ) ;
#15 = CARTESIAN_POINT ( 'NONE',  ( 0.000000000000000000, 0.000000000000000000, 5.000000000000000000 ) ) ;
#16 = EDGE_LOOP ( 'NONE', ( #116, #295 ) ) ;
#17 = PLANE ( 'NONE',  #216 ) ;
#18 = CARTESIAN_POINT ( 'NONE',  ( 0.000000000000000000, 0.000000000000000000, 455.0000000000000000 ) ) ;
#19 = PLANE ( 'NONE',  #229 ) ;
#20 = AXIS2_PLACEMENT_3D ( 'NONE', #329, #362, #120 ) ;
#21 = VERTEX_POINT ( 'NONE', #332 ) ;
#22 = CARTESIAN_POINT ( 'NONE',  ( 0.000000000000000000, 0.000000000000000000, 455.0000000000000000 ) ) ;
#23 = DIRECTION ( 'NONE',  ( -0.000000000000000000, -0.000000000000000000, -1.000000000000000000 ) ) ;
#24 = CC_DESIGN_PERSON_AND_ORGANIZATION_ASSIGNMENT ( #180, #357, ( #377 ) ) ;
#25 = ORIENTED_EDGE ( 'NONE', *, *, #86, .T. ) ;
#26 = DIRECTION ( 'NONE',  ( -0.000000000000000000, -0.000000000000000000, -1.000000000000000000 ) ) ;
#27 = ORIENTED_EDGE ( 'NONE', *, *, #108, .T. ) ;
#28 = FACE_OUTER_BOUND ( 'NONE', #162, .T. ) ;
#29 = VERTEX_POINT ( 'NONE', #99 ) ;
#30 = AXIS2_PLACEMENT_3D ( 'NONE', #58, #204, #285 ) ;
#31 = PERSON_AND_ORGANIZATION ( #311, #158 ) ;
#32 = ORIENTED_EDGE ( 'NONE', *, *, #188, .F. ) ;
#33 = FACE_OUTER_BOUND ( 'NONE', #259, .T. ) ;
#34 = DIRECTION ( 'NONE',  ( 1.000000000000000000, 0.000000000000000000, 0.000000000000000000 ) ) ;
#35 = CIRCLE ( 'NONE', #42, 4.000000000000000000 ) ;
#36 = DIRECTION ( 'NONE',  ( 0.000000000000000000, 0.000000000000000000, 1.000000000000000000 ) ) ;
#37 = CC_DESIGN_PERSON_AND_ORGANIZATION_ASSIGNMENT ( #119, #97, ( #133 ) ) ;
#38 = ORIENTED_EDGE ( 'NONE', *, *, #51, .F. ) ;
#39 = LINE ( 'NONE', #153, #333 ) ;
#40 = EDGE_CURVE ( 'NONE', #85, #263, #212, .T. ) ;
#41 = FACE_BOUND ( 'NONE', #16, .T. ) ;
#42 = AXIS2_PLACEMENT_3D ( 'NONE', #338, #46, #282 ) ;
#43 = CARTESIAN_POINT ( 'NONE',  ( 0.000000000000000000, 0.000000000000000000, 0.000000000000000000 ) ) ;
#44 = FACE_OUTER_BOUND ( 'NONE', #297, .T. ) ;
#45 = APPROVAL_DATE_TIME ( #341, #272 ) ;
#46 = DIRECTION ( 'NONE',  ( 0.000000000000000000, 0.000000000000000000, 1.000000000000000000 ) ) ;
#47 = CIRCLE ( 'NONE', #144, 7.000000000000000000 ) ;
#48 = CALENDAR_DATE ( 2022, 8, 7 ) ;
#49 = DIRECTION ( 'NONE',  ( -1.000000000000000000, 0.000000000000000000, 0.000000000000000000 ) ) ;
#50 = AXIS2_PLACEMENT_3D ( 'NONE', #240, #381, #235 ) ;
#51 = EDGE_CURVE ( 'NONE', #21, #323, #220, .T. ) ;
#52 = DIRECTION ( 'NONE',  ( -0.000000000000000000, -0.000000000000000000, -1.000000000000000000 ) ) ;
#53 = DIRECTION ( 'NONE',  ( -0.000000000000000000, -0.000000000000000000, -1.000000000000000000 ) ) ;
#54 = ADVANCED_FACE ( 'NONE', ( #33 ), #319, .F. ) ;
#55 = EDGE_LOOP ( 'NONE', ( #380, #90, #27, #140 ) ) ;
#56 = AXIS2_PLACEMENT_3D ( 'NONE', #173, #52, #350 ) ;
#57 = ORIENTED_EDGE ( 'NONE', *, *, #269, .T. ) ;
#58 = CARTESIAN_POINT ( 'NONE',  ( -4.500000000000000888, 5.510910596163089556E-16, 5.500000000000005329 ) ) ;
#59 = ORIENTED_EDGE ( 'NONE', *, *, #303, .F. ) ;
#60 = DIRECTION ( 'NONE',  ( -1.000000000000000000, 0.000000000000000000, 0.000000000000000000 ) ) ;
#61 = ORIENTED_EDGE ( 'NONE', *, *, #40, .T. ) ;
#62 = AXIS2_PLACEMENT_3D ( 'NONE', #98, #328, #154 ) ;
#63 = ORIENTED_EDGE ( 'NONE', *, *, #307, .T. ) ;
#64 = AXIS2_PLACEMENT_3D ( 'NONE', #172, #287, #210 ) ;
#65 = MANIFOLD_SOLID_BREP ( 'Odebrat vysunutím3', #277 ) ;
#66 = FACE_OUTER_BOUND ( 'NONE', #211, .T. ) ;
#67 = DATE_AND_TIME ( #330, #187 ) ;
#68 = CIRCLE ( 'NONE', #20, 2.250000000000000000 ) ;
#69 = CC_DESIGN_APPROVAL ( #245, ( #195 ) ) ;
#70 = DIRECTION ( 'NONE',  ( 0.000000000000000000, 0.000000000000000000, 1.000000000000000000 ) ) ;
#71 = FACE_OUTER_BOUND ( 'NONE', #183, .T. ) ;
#72 = CARTESIAN_POINT ( 'NONE',  ( 2.250000000000000000, 2.755455298081543792E-16, 455.0000000000000000 ) ) ;
#73 = LINE ( 'NONE', #193, #87 ) ;
#74 = VECTOR ( 'NONE', #302, 1000.000000000000000 ) ;
#75 = CIRCLE ( 'NONE', #219, 7.000000000000000000 ) ;
#76 = DIRECTION ( 'NONE',  ( 1.000000000000000000, 0.000000000000000000, 0.000000000000000000 ) ) ;
#77 = SECURITY_CLASSIFICATION_LEVEL ( 'unclassified' ) ;
#78 = CARTESIAN_POINT ( 'NONE',  ( 0.000000000000000000, 0.000000000000000000, 5.000000000000000000 ) ) ;
#79 = DIRECTION ( 'NONE',  ( -1.000000000000000000, 0.000000000000000000, 0.000000000000000000 ) ) ;
#80 = LINE ( 'NONE', #169, #358 ) ;
#81 = DIRECTION ( 'NONE',  ( 1.000000000000000000, 0.000000000000000000, 0.000000000000000000 ) ) ;
#82 = DIRECTION ( 'NONE',  ( -1.000000000000000000, 0.000000000000000000, 0.000000000000000000 ) ) ;
#83 = CARTESIAN_POINT ( 'NONE',  ( 2.250000000000000000, 2.755455298081543792E-16, 0.000000000000000000 ) ) ;
#84 = ADVANCED_BREP_SHAPE_REPRESENTATION ( 'b899', ( #65, #135 ), #370 ) ;
#85 = VERTEX_POINT ( 'NONE', #121 ) ;
#86 = EDGE_CURVE ( 'NONE', #263, #324, #152, .T. ) ;
#87 = VECTOR ( 'NONE', #26, 1000.000000000000000 ) ;
#88 = CARTESIAN_POINT ( 'NONE',  ( -7.000000000000000000, 0.000000000000000000, 0.000000000000000000 ) ) ;
#89 = EDGE_CURVE ( 'NONE', #85, #289, #80, .T. ) ;
#90 = ORIENTED_EDGE ( 'NONE', *, *, #51, .T. ) ;
#91 = FACE_OUTER_BOUND ( 'NONE', #300, .T. ) ;
#92 = ORIENTED_EDGE ( 'NONE', *, *, #222, .T. ) ;
#93 =( LENGTH_UNIT ( ) NAMED_UNIT ( * ) SI_UNIT ( .MILLI., .METRE. ) );
#94 = ORIENTED_EDGE ( 'NONE', *, *, #209, .T. ) ;
#95 = CIRCLE ( 'NONE', #64, 4.000000000000000000 ) ;
#96 = CALENDAR_DATE ( 2022, 8, 7 ) ;
#97 = PERSON_AND_ORGANIZATION_ROLE ( 'creator' ) ;
#98 = CARTESIAN_POINT ( 'NONE',  ( 0.000000000000000000, 0.000000000000000000, 5.000000000000000000 ) ) ;
#99 = CARTESIAN_POINT ( 'NONE',  ( 4.000000000000000000, 4.898587196589412829E-16, 5.500000000000005329 ) ) ;
#100 = CARTESIAN_POINT ( 'NONE',  ( -4.000000000000000000, 0.000000000000000000, 5.500000000000005329 ) ) ;
#101 = DATE_AND_TIME ( #279, #267 ) ;
#102 = DIRECTION ( 'NONE',  ( -0.000000000000000000, -0.000000000000000000, -1.000000000000000000 ) ) ;
#103 = CIRCLE ( 'NONE', #30, 0.5000000000000004441 ) ;
#104 = CARTESIAN_POINT ( 'NONE',  ( 0.000000000000000000, 0.000000000000000000, 5.000000000000000000 ) ) ;
#105 = PERSON_AND_ORGANIZATION_ROLE ( 'design_supplier' ) ;
#106 = DIRECTION ( 'NONE',  ( -0.000000000000000000, -0.000000000000000000, -1.000000000000000000 ) ) ;
#107 = CARTESIAN_POINT ( 'NONE',  ( -4.000000000000000000, 0.000000000000000000, 455.0000000000000000 ) ) ;
#108 = EDGE_CURVE ( 'NONE', #323, #6, #192, .T. ) ;
#109 = DIRECTION ( 'NONE',  ( 0.000000000000000000, 0.000000000000000000, 1.000000000000000000 ) ) ;
#110 = ORIENTED_EDGE ( 'NONE', *, *, #331, .F. ) ;
#111 = AXIS2_PLACEMENT_3D ( 'NONE', #271, #36, #246 ) ;
#112 = DIRECTION ( 'NONE',  ( 0.000000000000000000, 0.000000000000000000, -1.000000000000000000 ) ) ;
#113 = AXIS2_PLACEMENT_3D ( 'NONE', #168, #224, #76 ) ;
#114 = ORIENTED_EDGE ( 'NONE', *, *, #175, .T. ) ;
#115 = CARTESIAN_POINT ( 'NONE',  ( 7.000000000000000000, 8.572527594031473190E-16, 0.000000000000000000 ) ) ;
#116 = ORIENTED_EDGE ( 'NONE', *, *, #185, .T. ) ;
#117 = ORIENTED_EDGE ( 'NONE', *, *, #40, .F. ) ;
#118 = EDGE_CURVE ( 'NONE', #21, #320, #68, .T. ) ;
#119 = PERSON_AND_ORGANIZATION ( #311, #158 ) ;
#120 = DIRECTION ( 'NONE',  ( 1.000000000000000000, 0.000000000000000000, 0.000000000000000000 ) ) ;
#121 = CARTESIAN_POINT ( 'NONE',  ( 7.000000000000000000, 8.572527594031473190E-16, 5.000000000000000000 ) ) ;
#122 =( NAMED_UNIT ( * ) SI_UNIT ( $, .STERADIAN. ) SOLID_ANGLE_UNIT ( ) );
#123 = APPLICATION_CONTEXT ( 'configuration controlled 3d designs of mechanical parts and assemblies' ) ;
#124 = CIRCLE ( 'NONE', #8, 0.5000000000000004441 ) ;
#125 = PERSON_AND_ORGANIZATION_ROLE ( 'classification_officer' ) ;
#126 = APPLICATION_CONTEXT ( 'configuration controlled 3d designs of mechanical parts and assemblies' ) ;
#127 = DIRECTION ( 'NONE',  ( 1.000000000000000000, 0.000000000000000000, 0.000000000000000000 ) ) ;
#128 = PERSON_AND_ORGANIZATION ( #311, #158 ) ;
#129 = CIRCLE ( 'NONE', #50, 4.000000000000000000 ) ;
#130 = PERSON_AND_ORGANIZATION_ROLE ( 'creator' ) ;
#131 = CARTESIAN_POINT ( 'NONE',  ( -7.000000000000000000, 0.000000000000000000, 5.000000000000000000 ) ) ;
#132 = CARTESIAN_POINT ( 'NONE',  ( -2.250000000000000000, 0.000000000000000000, 455.0000000000000000 ) ) ;
#133 = PRODUCT_DEFINITION ( 'NEZNÁMÝ', '', #375, #171 ) ;
#134 = VECTOR ( 'NONE', #343, 1000.000000000000000 ) ;
#135 = AXIS2_PLACEMENT_3D ( 'NONE', #360, #70, #276 ) ;
#136 = ORIENTED_EDGE ( 'NONE', *, *, #325, .T. ) ;
#137 = DIRECTION ( 'NONE',  ( -0.000000000000000000, -0.000000000000000000, -1.000000000000000000 ) ) ;
#138 = CARTESIAN_POINT ( 'NONE',  ( 0.000000000000000000, 0.000000000000000000, 0.000000000000000000 ) ) ;
#139 = ADVANCED_FACE ( 'NONE', ( #151, #66 ), #189, .F. ) ;
#140 = ORIENTED_EDGE ( 'NONE', *, *, #141, .F. ) ;
#141 = EDGE_CURVE ( 'NONE', #320, #6, #39, .T. ) ;
#142 = EDGE_LOOP ( 'NONE', ( #1, #147 ) ) ;
#143 = ADVANCED_FACE ( 'NONE', ( #71 ), #165, .F. ) ;
#144 = AXIS2_PLACEMENT_3D ( 'NONE', #43, #13, #161 ) ;
#145 = ORIENTED_EDGE ( 'NONE', *, *, #86, .F. ) ;
#146 = APPROVAL_STATUS ( 'not_yet_approved' ) ;
#147 = ORIENTED_EDGE ( 'NONE', *, *, #118, .F. ) ;
#148 = COORDINATED_UNIVERSAL_TIME_OFFSET ( 1, 0, .AHEAD. ) ;
#149 = DIRECTION ( 'NONE',  ( 1.000000000000000000, 0.000000000000000000, 0.000000000000000000 ) ) ;
#150 = FACE_OUTER_BOUND ( 'NONE', #55, .T. ) ;
#151 = FACE_BOUND ( 'NONE', #206, .T. ) ;
#152 = LINE ( 'NONE', #253, #134 ) ;
#153 = CARTESIAN_POINT ( 'NONE',  ( -2.250000000000000000, 0.000000000000000000, 455.0000000000000000 ) ) ;
#154 = DIRECTION ( 'NONE',  ( 1.000000000000000000, 0.000000000000000000, 0.000000000000000000 ) ) ;
#155 = ORIENTED_EDGE ( 'NONE', *, *, #325, .F. ) ;
#156 = DATE_TIME_ROLE ( 'classification_date' ) ;
#157 = CARTESIAN_POINT ( 'NONE',  ( 0.000000000000000000, 0.000000000000000000, 455.0000000000000000 ) ) ;
#158 = ORGANIZATION ( 'NEURÈENÝ', 'NEURÈENÝ', '' ) ;
#159 = PERSON_AND_ORGANIZATION ( #311, #158 ) ;
#160 = LINE ( 'NONE', #227, #181 ) ;
#161 = DIRECTION ( 'NONE',  ( 1.000000000000000000, 0.000000000000000000, 0.000000000000000000 ) ) ;
#162 = EDGE_LOOP ( 'NONE', ( #7, #110, #25, #92 ) ) ;
#163 = COORDINATED_UNIVERSAL_TIME_OFFSET ( 1, 0, .AHEAD. ) ;
#164 = CYLINDRICAL_SURFACE ( 'NONE', #315, 7.000000000000000000 ) ;
#165 = TOROIDAL_SURFACE ( 'NONE', #3, 4.500000000000000888, 0.5000000000000000000 ) ;
#166 = AXIS2_PLACEMENT_3D ( 'NONE', #347, #53, #82 ) ;
#167 = DATE_AND_TIME ( #48, #371 ) ;
#168 = CARTESIAN_POINT ( 'NONE',  ( 0.000000000000000000, 0.000000000000000000, 455.0000000000000000 ) ) ;
#169 = CARTESIAN_POINT ( 'NONE',  ( 7.000000000000000000, 8.572527594031473190E-16, 5.000000000000000000 ) ) ;
#170 = ADVANCED_FACE ( 'NONE', ( #41, #44 ), #17, .T. ) ;
#171 = DESIGN_CONTEXT ( 'detailed design', #126, 'design' ) ;
#172 = CARTESIAN_POINT ( 'NONE',  ( 0.000000000000000000, 0.000000000000000000, 5.500000000000005329 ) ) ;
#173 = CARTESIAN_POINT ( 'NONE',  ( 0.000000000000000000, 0.000000000000000000, 0.000000000000000000 ) ) ;
#174 = AXIS2_PLACEMENT_3D ( 'NONE', #78, #369, #81 ) ;
#175 = EDGE_CURVE ( 'NONE', #289, #324, #47, .T. ) ;
#176 = ORIENTED_EDGE ( 'NONE', *, *, #118, .T. ) ;
#177 = FACE_OUTER_BOUND ( 'NONE', #234, .T. ) ;
#178 = EDGE_LOOP ( 'NONE', ( #38, #176, #270, #221 ) ) ;
#179 = ORIENTED_EDGE ( 'NONE', *, *, #233, .F. ) ;
#180 = PERSON_AND_ORGANIZATION ( #311, #158 ) ;
#181 = VECTOR ( 'NONE', #102, 1000.000000000000000 ) ;
#182 = EDGE_CURVE ( 'NONE', #317, #29, #160, .T. ) ;
#183 = EDGE_LOOP ( 'NONE', ( #155, #208, #281, #179 ) ) ;
#184 = CC_DESIGN_PERSON_AND_ORGANIZATION_ASSIGNMENT ( #254, #130, ( #375 ) ) ;
#185 = EDGE_CURVE ( 'NONE', #256, #322, #283, .T. ) ;
#186 = UNCERTAINTY_MEASURE_WITH_UNIT (LENGTH_MEASURE( 1.000000000000000082E-05 ), #93, 'distance_accuracy_value', 'NONE');
#187 = LOCAL_TIME ( 17, 23, 7.000000000000000000, #215 ) ;
#188 = EDGE_CURVE ( 'NONE', #317, #261, #5, .T. ) ;
#189 = PLANE ( 'NONE',  #111 ) ;
#190 = DIRECTION ( 'NONE',  ( 0.000000000000000000, 0.000000000000000000, -1.000000000000000000 ) ) ;
#191 = DATE_TIME_ROLE ( 'creation_date' ) ;
#192 = CIRCLE ( 'NONE', #288, 2.250000000000000000 ) ;
#193 = CARTESIAN_POINT ( 'NONE',  ( -4.000000000000000000, 0.000000000000000000, 455.0000000000000000 ) ) ;
#194 = LOCAL_TIME ( 17, 23, 7.000000000000000000, #163 ) ;
#195 = SECURITY_CLASSIFICATION ( '', '', #77 ) ;
#196 = APPROVAL_DATE_TIME ( #167, #245 ) ;
#197 = CARTESIAN_POINT ( 'NONE',  ( 4.500000000000000888, 0.000000000000000000, 5.000000000000002665 ) ) ;
#198 = FACE_OUTER_BOUND ( 'NONE', #178, .T. ) ;
#199 = CIRCLE ( 'NONE', #203, 2.250000000000000000 ) ;
#200 = CARTESIAN_POINT ( 'NONE',  ( 0.000000000000000000, 0.000000000000000000, 5.000000000000000000 ) ) ;
#201 = CC_DESIGN_PERSON_AND_ORGANIZATION_ASSIGNMENT ( #252, #125, ( #195 ) ) ;
#202 = ORIENTED_EDGE ( 'NONE', *, *, #185, .F. ) ;
#203 = AXIS2_PLACEMENT_3D ( 'NONE', #18, #344, #127 ) ;
#204 = DIRECTION ( 'NONE',  ( 1.224646799147353207E-16, 1.000000000000000000, -0.000000000000000000 ) ) ;
#205 = CC_DESIGN_PERSON_AND_ORGANIZATION_ASSIGNMENT ( #159, #105, ( #375 ) ) ;
#206 = EDGE_LOOP ( 'NONE', ( #349, #239 ) ) ;
#207 = FACE_OUTER_BOUND ( 'NONE', #355, .T. ) ;
#208 = ORIENTED_EDGE ( 'NONE', *, *, #209, .F. ) ;
#209 = EDGE_CURVE ( 'NONE', #29, #242, #35, .T. ) ;
#210 = DIRECTION ( 'NONE',  ( 1.000000000000000000, 0.000000000000000000, 0.000000000000000000 ) ) ;
#211 = EDGE_LOOP ( 'NONE', ( #359, #237 ) ) ;
#212 = CIRCLE ( 'NONE', #62, 7.000000000000000000 ) ;
#213 = APPROVAL_ROLE ( '' ) ;
#214 = APPROVAL_PERSON_ORGANIZATION ( #337, #272, #365 ) ;
#215 = COORDINATED_UNIVERSAL_TIME_OFFSET ( 1, 0, .AHEAD. ) ;
#216 = AXIS2_PLACEMENT_3D ( 'NONE', #104, #250, #308 ) ;
#217 =( NAMED_UNIT ( * ) PLANE_ANGLE_UNIT ( ) SI_UNIT ( $, .RADIAN. ) );
#218 = PRODUCT_RELATED_PRODUCT_CATEGORY ( 'detail', '', ( #377 ) ) ;
#219 = AXIS2_PLACEMENT_3D ( 'NONE', #313, #249, #342 ) ;
#220 = LINE ( 'NONE', #72, #74 ) ;
#221 = ORIENTED_EDGE ( 'NONE', *, *, #321, .T. ) ;
#222 = EDGE_CURVE ( 'NONE', #324, #289, #75, .T. ) ;
#223 = APPROVAL_STATUS ( 'not_yet_approved' ) ;
#224 = DIRECTION ( 'NONE',  ( 0.000000000000000000, 0.000000000000000000, 1.000000000000000000 ) ) ;
#225 = CIRCLE ( 'NONE', #56, 2.250000000000000000 ) ;
#226 = DIRECTION ( 'NONE',  ( 1.000000000000000000, 0.000000000000000000, 0.000000000000000000 ) ) ;
#227 = CARTESIAN_POINT ( 'NONE',  ( 4.000000000000000000, 4.898587196589412829E-16, 455.0000000000000000 ) ) ;
#228 = DIRECTION ( 'NONE',  ( 1.000000000000000000, 0.000000000000000000, 0.000000000000000000 ) ) ;
#229 = AXIS2_PLACEMENT_3D ( 'NONE', #258, #318, #2 ) ;
#230 = CARTESIAN_POINT ( 'NONE',  ( 0.000000000000000000, 0.000000000000000000, 455.0000000000000000 ) ) ;
#231 = ORIENTED_EDGE ( 'NONE', *, *, #331, .T. ) ;
#232 = DIRECTION ( 'NONE',  ( 1.000000000000000000, 0.000000000000000000, 0.000000000000000000 ) ) ;
#233 = EDGE_CURVE ( 'NONE', #322, #256, #251, .T. ) ;
#234 = EDGE_LOOP ( 'NONE', ( #354, #363, #57, #336 ) ) ;
#235 = DIRECTION ( 'NONE',  ( 1.000000000000000000, 0.000000000000000000, 0.000000000000000000 ) ) ;
#236 = AXIS2_PLACEMENT_3D ( 'NONE', #157, #190, #10 ) ;
#237 = ORIENTED_EDGE ( 'NONE', *, *, #175, .F. ) ;
#238 = CC_DESIGN_SECURITY_CLASSIFICATION ( #195, ( #375 ) ) ;
#239 = ORIENTED_EDGE ( 'NONE', *, *, #108, .F. ) ;
#240 = CARTESIAN_POINT ( 'NONE',  ( 0.000000000000000000, 0.000000000000000000, 455.0000000000000000 ) ) ;
#241 = MECHANICAL_CONTEXT ( 'NONE', #123, 'mechanical' ) ;
#242 = VERTEX_POINT ( 'NONE', #100 ) ;
#243 = APPLICATION_PROTOCOL_DEFINITION ( 'international standard', 'config_control_design', 1994, #126 ) ;
#244 = CC_DESIGN_APPROVAL ( #272, ( #375 ) ) ;
#245 = APPROVAL ( #223, 'NEURÈENÝ' ) ;
#246 = DIRECTION ( 'NONE',  ( 1.000000000000000000, 0.000000000000000000, -0.000000000000000000 ) ) ;
#247 = AXIS2_PLACEMENT_3D ( 'NONE', #296, #109, #232 ) ;
#248 = CYLINDRICAL_SURFACE ( 'NONE', #309, 2.250000000000000000 ) ;
#249 = DIRECTION ( 'NONE',  ( 0.000000000000000000, 0.000000000000000000, 1.000000000000000000 ) ) ;
#250 = DIRECTION ( 'NONE',  ( 0.000000000000000000, 0.000000000000000000, 1.000000000000000000 ) ) ;
#251 = CIRCLE ( 'NONE', #174, 4.500000000000000888 ) ;
#252 = PERSON_AND_ORGANIZATION ( #311, #158 ) ;
#253 = CARTESIAN_POINT ( 'NONE',  ( -7.000000000000000000, 0.000000000000000000, 5.000000000000000000 ) ) ;
#254 = PERSON_AND_ORGANIZATION ( #311, #158 ) ;
#255 = CARTESIAN_POINT ( 'NONE',  ( -4.500000000000000888, 5.510910596163088569E-16, 5.000000000000002665 ) ) ;
#256 = VERTEX_POINT ( 'NONE', #197 ) ;
#257 = ADVANCED_FACE ( 'NONE', ( #372 ), #164, .T. ) ;
#258 = CARTESIAN_POINT ( 'NONE',  ( 0.000000000000000000, 0.000000000000000000, 455.0000000000000000 ) ) ;
#259 = EDGE_LOOP ( 'NONE', ( #376, #136, #202, #59 ) ) ;
#260 = DIRECTION ( 'NONE',  ( -0.000000000000000000, -0.000000000000000000, -1.000000000000000000 ) ) ;
#261 = VERTEX_POINT ( 'NONE', #107 ) ;
#262 = FACE_BOUND ( 'NONE', #142, .T. ) ;
#263 = VERTEX_POINT ( 'NONE', #131 ) ;
#264 = ADVANCED_FACE ( 'NONE', ( #198 ), #248, .F. ) ;
#265 = EDGE_CURVE ( 'NONE', #320, #21, #199, .T. ) ;
#266 = CYLINDRICAL_SURFACE ( 'NONE', #166, 7.000000000000000000 ) ;
#267 = LOCAL_TIME ( 17, 23, 7.000000000000000000, #14 ) ;
#268 = ORIENTED_EDGE ( 'NONE', *, *, #188, .T. ) ;
#269 = EDGE_CURVE ( 'NONE', #261, #242, #73, .T. ) ;
#270 = ORIENTED_EDGE ( 'NONE', *, *, #141, .T. ) ;
#271 = CARTESIAN_POINT ( 'NONE',  ( 0.000000000000000000, 0.000000000000000000, 0.000000000000000000 ) ) ;
#272 = APPROVAL ( #368, 'NEURÈENÝ' ) ;
#273 = DIRECTION ( 'NONE',  ( 0.000000000000000000, 0.000000000000000000, -1.000000000000000000 ) ) ;
#274 = CARTESIAN_POINT ( 'NONE',  ( -2.250000000000000000, 0.000000000000000000, 0.000000000000000000 ) ) ;
#275 = ORIENTED_EDGE ( 'NONE', *, *, #89, .T. ) ;
#276 = DIRECTION ( 'NONE',  ( 1.000000000000000000, 0.000000000000000000, 0.000000000000000000 ) ) ;
#277 = CLOSED_SHELL ( 'NONE', ( #9, #54, #356, #257, #366, #170, #139, #335, #286, #143, #264 ) ) ;
#278 = CALENDAR_DATE ( 2022, 8, 7 ) ;
#279 = CALENDAR_DATE ( 2022, 8, 7 ) ;
#280 = SHAPE_DEFINITION_REPRESENTATION ( #291, #84 ) ;
#281 = ORIENTED_EDGE ( 'NONE', *, *, #303, .T. ) ;
#282 = DIRECTION ( 'NONE',  ( 1.000000000000000000, 0.000000000000000000, 0.000000000000000000 ) ) ;
#283 = CIRCLE ( 'NONE', #299, 4.500000000000000888 ) ;
#284 = DIRECTION ( 'NONE',  ( -0.000000000000000000, -0.000000000000000000, -1.000000000000000000 ) ) ;
#285 = DIRECTION ( 'NONE',  ( -1.000000000000000000, 1.224646799147351482E-16, 0.000000000000000000 ) ) ;
#286 = ADVANCED_FACE ( 'NONE', ( #262, #91 ), #19, .T. ) ;
#287 = DIRECTION ( 'NONE',  ( 0.000000000000000000, 0.000000000000000000, 1.000000000000000000 ) ) ;
#288 = AXIS2_PLACEMENT_3D ( 'NONE', #138, #304, #149 ) ;
#289 = VERTEX_POINT ( 'NONE', #115 ) ;
#290 = APPROVAL_PERSON_ORGANIZATION ( #31, #340, #213 ) ;
#291 = PRODUCT_DEFINITION_SHAPE ( 'NONE', 'NONE',  #133 ) ;
#292 = CYLINDRICAL_SURFACE ( 'NONE', #326, 4.000000000000000000 ) ;
#293 = ORIENTED_EDGE ( 'NONE', *, *, #182, .T. ) ;
#294 = CYLINDRICAL_SURFACE ( 'NONE', #334, 4.000000000000000000 ) ;
#295 = ORIENTED_EDGE ( 'NONE', *, *, #233, .T. ) ;
#296 = CARTESIAN_POINT ( 'NONE',  ( 0.000000000000000000, 0.000000000000000000, 5.000000000000000000 ) ) ;
#297 = EDGE_LOOP ( 'NONE', ( #231, #61 ) ) ;
#298 = CC_DESIGN_DATE_AND_TIME_ASSIGNMENT ( #67, #191, ( #133 ) ) ;
#299 = AXIS2_PLACEMENT_3D ( 'NONE', #15, #284, #226 ) ;
#300 = EDGE_LOOP ( 'NONE', ( #63, #268 ) ) ;
#301 = APPROVAL_DATE_TIME ( #327, #340 ) ;
#302 = DIRECTION ( 'NONE',  ( 0.000000000000000000, 0.000000000000000000, -1.000000000000000000 ) ) ;
#303 = EDGE_CURVE ( 'NONE', #29, #256, #124, .T. ) ;
#304 = DIRECTION ( 'NONE',  ( -0.000000000000000000, -0.000000000000000000, -1.000000000000000000 ) ) ;
#305 = DIRECTION ( 'NONE',  ( 0.000000000000000000, 0.000000000000000000, 1.000000000000000000 ) ) ;
#306 = APPROVAL_ROLE ( '' ) ;
#307 = EDGE_CURVE ( 'NONE', #261, #317, #129, .T. ) ;
#308 = DIRECTION ( 'NONE',  ( 1.000000000000000000, 0.000000000000000000, -0.000000000000000000 ) ) ;
#309 = AXIS2_PLACEMENT_3D ( 'NONE', #314, #316, #49 ) ;
#310 = DIRECTION ( 'NONE',  ( 0.000000000000000000, 0.000000000000000000, 1.000000000000000000 ) ) ;
#311 = PERSON ( 'NEURÈENÝ', 'NEURÈENÝ', 'NEURÈENÝ', ('NEURÈENÝ'), ('NEURÈENÝ'), ('NEURÈENÝ') ) ;
#312 = EDGE_CURVE ( 'NONE', #242, #29, #95, .T. ) ;
#313 = CARTESIAN_POINT ( 'NONE',  ( 0.000000000000000000, 0.000000000000000000, 0.000000000000000000 ) ) ;
#314 = CARTESIAN_POINT ( 'NONE',  ( 0.000000000000000000, 0.000000000000000000, 455.0000000000000000 ) ) ;
#315 = AXIS2_PLACEMENT_3D ( 'NONE', #200, #106, #79 ) ;
#316 = DIRECTION ( 'NONE',  ( 0.000000000000000000, 0.000000000000000000, -1.000000000000000000 ) ) ;
#317 = VERTEX_POINT ( 'NONE', #353 ) ;
#318 = DIRECTION ( 'NONE',  ( 0.000000000000000000, 0.000000000000000000, 1.000000000000000000 ) ) ;
#319 = TOROIDAL_SURFACE ( 'NONE', #367, 4.500000000000000888, 0.5000000000000000000 ) ;
#320 = VERTEX_POINT ( 'NONE', #132 ) ;
#321 = EDGE_CURVE ( 'NONE', #6, #323, #225, .T. ) ;
#322 = VERTEX_POINT ( 'NONE', #255 ) ;
#323 = VERTEX_POINT ( 'NONE', #83 ) ;
#324 = VERTEX_POINT ( 'NONE', #88 ) ;
#325 = EDGE_CURVE ( 'NONE', #242, #322, #103, .T. ) ;
#326 = AXIS2_PLACEMENT_3D ( 'NONE', #22, #260, #60 ) ;
#327 = DATE_AND_TIME ( #96, #345 ) ;
#328 = DIRECTION ( 'NONE',  ( 0.000000000000000000, 0.000000000000000000, 1.000000000000000000 ) ) ;
#329 = CARTESIAN_POINT ( 'NONE',  ( 0.000000000000000000, 0.000000000000000000, 455.0000000000000000 ) ) ;
#330 = CALENDAR_DATE ( 2022, 8, 7 ) ;
#331 = EDGE_CURVE ( 'NONE', #263, #85, #12, .T. ) ;
#332 = CARTESIAN_POINT ( 'NONE',  ( 2.250000000000000000, 2.755455298081543792E-16, 455.0000000000000000 ) ) ;
#333 = VECTOR ( 'NONE', #273, 1000.000000000000000 ) ;
#334 = AXIS2_PLACEMENT_3D ( 'NONE', #230, #137, #348 ) ;
#335 = ADVANCED_FACE ( 'NONE', ( #177 ), #294, .T. ) ;
#336 = ORIENTED_EDGE ( 'NONE', *, *, #312, .T. ) ;
#337 = PERSON_AND_ORGANIZATION ( #311, #158 ) ;
#338 = CARTESIAN_POINT ( 'NONE',  ( 0.000000000000000000, 0.000000000000000000, 5.500000000000005329 ) ) ;
#339 = COORDINATED_UNIVERSAL_TIME_OFFSET ( 1, 0, .AHEAD. ) ;
#340 = APPROVAL ( #146, 'NEURÈENÝ' ) ;
#341 = DATE_AND_TIME ( #278, #194 ) ;
#342 = DIRECTION ( 'NONE',  ( 1.000000000000000000, 0.000000000000000000, 0.000000000000000000 ) ) ;
#343 = DIRECTION ( 'NONE',  ( -0.000000000000000000, -0.000000000000000000, -1.000000000000000000 ) ) ;
#344 = DIRECTION ( 'NONE',  ( 0.000000000000000000, 0.000000000000000000, 1.000000000000000000 ) ) ;
#345 = LOCAL_TIME ( 17, 23, 7.000000000000000000, #148 ) ;
#346 = CC_DESIGN_DATE_AND_TIME_ASSIGNMENT ( #101, #156, ( #195 ) ) ;
#347 = CARTESIAN_POINT ( 'NONE',  ( 0.000000000000000000, 0.000000000000000000, 5.000000000000000000 ) ) ;
#348 = DIRECTION ( 'NONE',  ( -1.000000000000000000, 0.000000000000000000, 0.000000000000000000 ) ) ;
#349 = ORIENTED_EDGE ( 'NONE', *, *, #321, .F. ) ;
#350 = DIRECTION ( 'NONE',  ( 1.000000000000000000, 0.000000000000000000, 0.000000000000000000 ) ) ;
#351 = ORIENTED_EDGE ( 'NONE', *, *, #269, .F. ) ;
#352 = CC_DESIGN_APPROVAL ( #340, ( #133 ) ) ;
#353 = CARTESIAN_POINT ( 'NONE',  ( 4.000000000000000000, 4.898587196589412829E-16, 455.0000000000000000 ) ) ;
#354 = ORIENTED_EDGE ( 'NONE', *, *, #182, .F. ) ;
#355 = EDGE_LOOP ( 'NONE', ( #32, #293, #94, #351 ) ) ;
#356 = ADVANCED_FACE ( 'NONE', ( #207 ), #292, .T. ) ;
#357 = PERSON_AND_ORGANIZATION_ROLE ( 'design_owner' ) ;
#358 = VECTOR ( 'NONE', #23, 1000.000000000000000 ) ;
#359 = ORIENTED_EDGE ( 'NONE', *, *, #222, .F. ) ;
#360 = CARTESIAN_POINT ( 'NONE',  ( 0.000000000000000000, 0.000000000000000000, 0.000000000000000000 ) ) ;
#361 = CARTESIAN_POINT ( 'NONE',  ( 0.000000000000000000, 0.000000000000000000, 5.500000000000005329 ) ) ;
#362 = DIRECTION ( 'NONE',  ( 0.000000000000000000, 0.000000000000000000, 1.000000000000000000 ) ) ;
#363 = ORIENTED_EDGE ( 'NONE', *, *, #307, .F. ) ;
#364 = CYLINDRICAL_SURFACE ( 'NONE', #236, 2.250000000000000000 ) ;
#365 = APPROVAL_ROLE ( '' ) ;
#366 = ADVANCED_FACE ( 'NONE', ( #28 ), #266, .T. ) ;
#367 = AXIS2_PLACEMENT_3D ( 'NONE', #361, #305, #34 ) ;
#368 = APPROVAL_STATUS ( 'not_yet_approved' ) ;
#369 = DIRECTION ( 'NONE',  ( -0.000000000000000000, -0.000000000000000000, -1.000000000000000000 ) ) ;
#370 =( GEOMETRIC_REPRESENTATION_CONTEXT ( 3 ) GLOBAL_UNCERTAINTY_ASSIGNED_CONTEXT ( ( #186 ) ) GLOBAL_UNIT_ASSIGNED_CONTEXT ( ( #93, #217, #122 ) ) REPRESENTATION_CONTEXT ( 'NONE', 'WORKASPACE' ) );
#371 = LOCAL_TIME ( 17, 23, 7.000000000000000000, #339 ) ;
#372 = FACE_OUTER_BOUND ( 'NONE', #4, .T. ) ;
#373 = CARTESIAN_POINT ( 'NONE',  ( 0.000000000000000000, 0.000000000000000000, 5.500000000000005329 ) ) ;
#374 = CARTESIAN_POINT ( 'NONE',  ( 4.500000000000000888, 0.000000000000000000, 5.500000000000005329 ) ) ;
#375 = PRODUCT_DEFINITION_FORMATION_WITH_SPECIFIED_SOURCE ( 'LIBOVOLNÝ', '', #377, .NOT_KNOWN. ) ;
#376 = ORIENTED_EDGE ( 'NONE', *, *, #312, .F. ) ;
#377 = PRODUCT ( 'b899', 'b899', '', ( #241 ) ) ;
#378 = APPROVAL_PERSON_ORGANIZATION ( #128, #245, #306 ) ;
#379 = DIRECTION ( 'NONE',  ( 0.000000000000000000, -1.000000000000000000, 0.000000000000000000 ) ) ;
#380 = ORIENTED_EDGE ( 'NONE', *, *, #265, .T. ) ;
#381 = DIRECTION ( 'NONE',  ( 0.000000000000000000, 0.000000000000000000, 1.000000000000000000 ) ) ;
ENDSEC;
END-ISO-10303-21;
