ISO-10303-21;
HEADER;
FILE_DESCRIPTION (( 'STEP AP203' ),
    '1' );
FILE_NAME ('9be8.STEP',
    '2022-07-08T14:45:01',
    ( '' ),
    ( '' ),
    'SwSTEP 2.0',
    'SolidWorks 2019',
    '' );
FILE_SCHEMA (( 'CONFIG_CONTROL_DESIGN' ));
ENDSEC;

DATA;
#1 = CARTESIAN_POINT ( 'NONE',  ( -3.250000000000000444, 0.000000000000000000, 605.0000000000000000 ) ) ;
#2 = VERTEX_POINT ( 'NONE', #50 ) ;
#3 = CIRCLE ( 'NONE', #43, 8.000000000000000000 ) ;
#4 = ORIENTED_EDGE ( 'NONE', *, *, #254, .T. ) ;
#5 = ORIENTED_EDGE ( 'NONE', *, *, #170, .T. ) ;
#6 = CARTESIAN_POINT ( 'NONE',  ( 5.000000000000000000, 6.123233995736766282E-16, 605.0000000000000000 ) ) ;
#7 = ADVANCED_FACE ( 'NONE', ( #202, #144 ), #175, .F. ) ;
#8 = VERTEX_POINT ( 'NONE', #173 ) ;
#9 = DIRECTION ( 'NONE',  ( 0.000000000000000000, 0.000000000000000000, 1.000000000000000000 ) ) ;
#10 = ADVANCED_FACE ( 'NONE', ( #76 ), #259, .F. ) ;
#11 = VERTEX_POINT ( 'NONE', #199 ) ;
#12 = CARTESIAN_POINT ( 'NONE',  ( 0.000000000000000000, 0.000000000000000000, 605.0000000000000000 ) ) ;
#13 = CIRCLE ( 'NONE', #148, 3.250000000000000444 ) ;
#14 = CC_DESIGN_APPROVAL ( #153, ( #336 ) ) ;
#15 = CARTESIAN_POINT ( 'NONE',  ( 0.000000000000000000, 0.000000000000000000, 5.499999999999949374 ) ) ;
#16 = ORIENTED_EDGE ( 'NONE', *, *, #307, .F. ) ;
#17 = FACE_OUTER_BOUND ( 'NONE', #252, .T. ) ;
#18 = ORIENTED_EDGE ( 'NONE', *, *, #339, .F. ) ;
#19 = CIRCLE ( 'NONE', #31, 5.000000000000000000 ) ;
#20 = APPLICATION_PROTOCOL_DEFINITION ( 'international standard', 'config_control_design', 1994, #185 ) ;
#21 = LOCAL_TIME ( 16, 45, 1.000000000000000000, #318 ) ;
#22 = APPROVAL_PERSON_ORGANIZATION ( #93, #153, #33 ) ;
#23 = COORDINATED_UNIVERSAL_TIME_OFFSET ( 1, 0, .AHEAD. ) ;
#24 = CARTESIAN_POINT ( 'NONE',  ( -5.500000000000000000, 6.735557395310442023E-16, 5.499999999999949374 ) ) ;
#25 = EDGE_CURVE ( 'NONE', #222, #189, #19, .T. ) ;
#26 = CARTESIAN_POINT ( 'NONE',  ( 8.000000000000000000, 9.797174393178825657E-16, 5.000000000000000000 ) ) ;
#27 =( LENGTH_UNIT ( ) NAMED_UNIT ( * ) SI_UNIT ( .MILLI., .METRE. ) );
#28 = PERSON ( 'NEURÈENÝ', 'NEURÈENÝ', 'NEURÈENÝ', ('NEURÈENÝ'), ('NEURÈENÝ'), ('NEURÈENÝ') ) ;
#29 = SHAPE_DEFINITION_REPRESENTATION ( #77, #251 ) ;
#30 = CARTESIAN_POINT ( 'NONE',  ( 0.000000000000000000, 0.000000000000000000, 5.000000000000000000 ) ) ;
#31 = AXIS2_PLACEMENT_3D ( 'NONE', #209, #375, #313 ) ;
#32 = DIRECTION ( 'NONE',  ( 1.000000000000000000, 0.000000000000000000, -0.000000000000000000 ) ) ;
#33 = APPROVAL_ROLE ( '' ) ;
#34 = ORIENTED_EDGE ( 'NONE', *, *, #86, .T. ) ;
#35 = EDGE_LOOP ( 'NONE', ( #163, #116, #237, #364 ) ) ;
#36 = CYLINDRICAL_SURFACE ( 'NONE', #293, 5.000000000000000000 ) ;
#37 = AXIS2_PLACEMENT_3D ( 'NONE', #45, #9, #194 ) ;
#38 = ORIENTED_EDGE ( 'NONE', *, *, #227, .T. ) ;
#39 = DIRECTION ( 'NONE',  ( -0.000000000000000000, -0.000000000000000000, -1.000000000000000000 ) ) ;
#40 = EDGE_CURVE ( 'NONE', #2, #244, #95, .T. ) ;
#41 = ORIENTED_EDGE ( 'NONE', *, *, #208, .F. ) ;
#42 = DIRECTION ( 'NONE',  ( 1.000000000000000000, 0.000000000000000000, 0.000000000000000000 ) ) ;
#43 = AXIS2_PLACEMENT_3D ( 'NONE', #294, #83, #245 ) ;
#44 = ORIENTED_EDGE ( 'NONE', *, *, #157, .F. ) ;
#45 = CARTESIAN_POINT ( 'NONE',  ( 0.000000000000000000, 0.000000000000000000, 605.0000000000000000 ) ) ;
#46 = CIRCLE ( 'NONE', #64, 8.000000000000000000 ) ;
#47 = EDGE_CURVE ( 'NONE', #137, #11, #376, .T. ) ;
#48 = DIRECTION ( 'NONE',  ( -1.000000000000000000, 1.224646799147351482E-16, 0.000000000000000000 ) ) ;
#49 = COORDINATED_UNIVERSAL_TIME_OFFSET ( 1, 0, .AHEAD. ) ;
#50 = CARTESIAN_POINT ( 'NONE',  ( -5.000000000000000000, 0.000000000000000000, 5.499999999999949374 ) ) ;
#51 = VECTOR ( 'NONE', #105, 1000.000000000000000 ) ;
#52 = CARTESIAN_POINT ( 'NONE',  ( 0.000000000000000000, 0.000000000000000000, 605.0000000000000000 ) ) ;
#53 = PERSON_AND_ORGANIZATION ( #28, #91 ) ;
#54 = DIRECTION ( 'NONE',  ( 0.000000000000000000, 0.000000000000000000, -1.000000000000000000 ) ) ;
#55 = DIRECTION ( 'NONE',  ( 0.000000000000000000, 0.000000000000000000, 1.000000000000000000 ) ) ;
#56 = CARTESIAN_POINT ( 'NONE',  ( -5.000000000000000000, 0.000000000000000000, 605.0000000000000000 ) ) ;
#57 = DIRECTION ( 'NONE',  ( -0.000000000000000000, -0.000000000000000000, -1.000000000000000000 ) ) ;
#58 = LINE ( 'NONE', #271, #178 ) ;
#59 = AXIS2_PLACEMENT_3D ( 'NONE', #284, #169, #261 ) ;
#60 = EDGE_CURVE ( 'NONE', #244, #356, #377, .T. ) ;
#61 = DIRECTION ( 'NONE',  ( 0.000000000000000000, 0.000000000000000000, 1.000000000000000000 ) ) ;
#62 = ORIENTED_EDGE ( 'NONE', *, *, #97, .F. ) ;
#63 = DATE_TIME_ROLE ( 'classification_date' ) ;
#64 = AXIS2_PLACEMENT_3D ( 'NONE', #256, #260, #367 ) ;
#65 = ORIENTED_EDGE ( 'NONE', *, *, #74, .F. ) ;
#66 = COORDINATED_UNIVERSAL_TIME_OFFSET ( 1, 0, .AHEAD. ) ;
#67 = EDGE_LOOP ( 'NONE', ( #345, #16 ) ) ;
#68 = CARTESIAN_POINT ( 'NONE',  ( 0.000000000000000000, 0.000000000000000000, 0.000000000000000000 ) ) ;
#69 = APPROVAL_PERSON_ORGANIZATION ( #140, #288, #238 ) ;
#70 = VERTEX_POINT ( 'NONE', #319 ) ;
#71 = CARTESIAN_POINT ( 'NONE',  ( 0.000000000000000000, 0.000000000000000000, 605.0000000000000000 ) ) ;
#72 = ORIENTED_EDGE ( 'NONE', *, *, #47, .F. ) ;
#73 = DIRECTION ( 'NONE',  ( 0.000000000000000000, -1.000000000000000000, 0.000000000000000000 ) ) ;
#74 = EDGE_CURVE ( 'NONE', #189, #222, #115, .T. ) ;
#75 = DIRECTION ( 'NONE',  ( 1.000000000000000000, 0.000000000000000000, 0.000000000000000000 ) ) ;
#76 = FACE_OUTER_BOUND ( 'NONE', #323, .T. ) ;
#77 = PRODUCT_DEFINITION_SHAPE ( 'NONE', 'NONE',  #111 ) ;
#78 = EDGE_CURVE ( 'NONE', #133, #137, #3, .T. ) ;
#79 = EDGE_LOOP ( 'NONE', ( #193, #365 ) ) ;
#80 = PERSON_AND_ORGANIZATION_ROLE ( 'creator' ) ;
#81 = CARTESIAN_POINT ( 'NONE',  ( -8.000000000000000000, 0.000000000000000000, 5.000000000000000000 ) ) ;
#82 = AXIS2_PLACEMENT_3D ( 'NONE', #278, #138, #342 ) ;
#83 = DIRECTION ( 'NONE',  ( 0.000000000000000000, 0.000000000000000000, 1.000000000000000000 ) ) ;
#84 = ORIENTED_EDGE ( 'NONE', *, *, #60, .T. ) ;
#85 = EDGE_CURVE ( 'NONE', #137, #133, #308, .T. ) ;
#86 = EDGE_CURVE ( 'NONE', #189, #2, #292, .T. ) ;
#87 = ORIENTED_EDGE ( 'NONE', *, *, #192, .F. ) ;
#88 = AXIS2_PLACEMENT_3D ( 'NONE', #290, #104, #264 ) ;
#89 = COORDINATED_UNIVERSAL_TIME_OFFSET ( 1, 0, .AHEAD. ) ;
#90 = FACE_OUTER_BOUND ( 'NONE', #131, .T. ) ;
#91 = ORGANIZATION ( 'NEURÈENÝ', 'NEURÈENÝ', '' ) ;
#92 = DIRECTION ( 'NONE',  ( 1.000000000000000000, 0.000000000000000000, 0.000000000000000000 ) ) ;
#93 = PERSON_AND_ORGANIZATION ( #28, #91 ) ;
#94 = EDGE_CURVE ( 'NONE', #133, #197, #179, .T. ) ;
#95 = CIRCLE ( 'NONE', #297, 0.5000000000000004441 ) ;
#96 = AXIS2_PLACEMENT_3D ( 'NONE', #71, #230, #335 ) ;
#97 = EDGE_CURVE ( 'NONE', #2, #8, #234, .T. ) ;
#98 = CC_DESIGN_DATE_AND_TIME_ASSIGNMENT ( #110, #316, ( #111 ) ) ;
#99 = EDGE_LOOP ( 'NONE', ( #305, #87 ) ) ;
#100 = CARTESIAN_POINT ( 'NONE',  ( 0.000000000000000000, 0.000000000000000000, 5.499999999999949374 ) ) ;
#101 = DESIGN_CONTEXT ( 'detailed design', #156, 'design' ) ;
#102 = DIRECTION ( 'NONE',  ( 1.000000000000000000, 0.000000000000000000, 0.000000000000000000 ) ) ;
#103 = AXIS2_PLACEMENT_3D ( 'NONE', #296, #361, #154 ) ;
#104 = DIRECTION ( 'NONE',  ( 0.000000000000000000, 0.000000000000000000, -1.000000000000000000 ) ) ;
#105 = DIRECTION ( 'NONE',  ( -0.000000000000000000, -0.000000000000000000, -1.000000000000000000 ) ) ;
#106 = DIRECTION ( 'NONE',  ( 0.000000000000000000, 0.000000000000000000, 1.000000000000000000 ) ) ;
#107 = CARTESIAN_POINT ( 'NONE',  ( 5.000000000000000000, 6.123233995736766282E-16, 605.0000000000000000 ) ) ;
#108 = TOROIDAL_SURFACE ( 'NONE', #216, 5.500000000000000000, 0.5000000000000000000 ) ;
#109 = ORIENTED_EDGE ( 'NONE', *, *, #307, .T. ) ;
#110 = DATE_AND_TIME ( #114, #21 ) ;
#111 = PRODUCT_DEFINITION ( 'NEZNÁMÝ', '', #246, #101 ) ;
#112 = ORIENTED_EDGE ( 'NONE', *, *, #125, .F. ) ;
#113 = ADVANCED_FACE ( 'NONE', ( #249 ), #352, .T. ) ;
#114 = CALENDAR_DATE ( 2022, 8, 7 ) ;
#115 = CIRCLE ( 'NONE', #328, 5.000000000000000000 ) ;
#116 = ORIENTED_EDGE ( 'NONE', *, *, #125, .T. ) ;
#117 = APPLICATION_PROTOCOL_DEFINITION ( 'international standard', 'config_control_design', 1994, #156 ) ;
#118 = VECTOR ( 'NONE', #241, 1000.000000000000000 ) ;
#119 = ADVANCED_FACE ( 'NONE', ( #355, #329 ), #219, .T. ) ;
#120 = ORIENTED_EDGE ( 'NONE', *, *, #339, .T. ) ;
#121 = CALENDAR_DATE ( 2022, 8, 7 ) ;
#122 = CARTESIAN_POINT ( 'NONE',  ( 3.250000000000000444, 3.980102097228898231E-16, 605.0000000000000000 ) ) ;
#123 = DIRECTION ( 'NONE',  ( -0.000000000000000000, -0.000000000000000000, -1.000000000000000000 ) ) ;
#124 = CC_DESIGN_APPROVAL ( #288, ( #246 ) ) ;
#125 = EDGE_CURVE ( 'NONE', #127, #343, #58, .T. ) ;
#126 = PERSON_AND_ORGANIZATION ( #28, #91 ) ;
#127 = VERTEX_POINT ( 'NONE', #122 ) ;
#128 = ORIENTED_EDGE ( 'NONE', *, *, #47, .T. ) ;
#129 = CIRCLE ( 'NONE', #380, 3.250000000000000444 ) ;
#130 = CC_DESIGN_PERSON_AND_ORGANIZATION_ASSIGNMENT ( #378, #240, ( #246 ) ) ;
#131 = EDGE_LOOP ( 'NONE', ( #353, #225, #109, #72 ) ) ;
#132 = CARTESIAN_POINT ( 'NONE',  ( 5.500000000000000000, 0.000000000000000000, 5.499999999999949374 ) ) ;
#133 = VERTEX_POINT ( 'NONE', #26 ) ;
#134 = AXIS2_PLACEMENT_3D ( 'NONE', #310, #106, #350 ) ;
#135 = CARTESIAN_POINT ( 'NONE',  ( -3.250000000000000444, 0.000000000000000000, 605.0000000000000000 ) ) ;
#136 = TOROIDAL_SURFACE ( 'NONE', #267, 5.500000000000000000, 0.5000000000000000000 ) ;
#137 = VERTEX_POINT ( 'NONE', #147 ) ;
#138 = DIRECTION ( 'NONE',  ( -0.000000000000000000, -0.000000000000000000, -1.000000000000000000 ) ) ;
#139 = EDGE_LOOP ( 'NONE', ( #220, #84 ) ) ;
#140 = PERSON_AND_ORGANIZATION ( #28, #91 ) ;
#141 = ADVANCED_FACE ( 'NONE', ( #90 ), #217, .T. ) ;
#142 = LOCAL_TIME ( 16, 45, 1.000000000000000000, #23 ) ;
#143 = CC_DESIGN_SECURITY_CLASSIFICATION ( #336, ( #246 ) ) ;
#144 = FACE_OUTER_BOUND ( 'NONE', #67, .T. ) ;
#145 = CARTESIAN_POINT ( 'NONE',  ( 0.000000000000000000, 0.000000000000000000, 0.000000000000000000 ) ) ;
#146 = CALENDAR_DATE ( 2022, 8, 7 ) ;
#147 = CARTESIAN_POINT ( 'NONE',  ( -8.000000000000000000, 0.000000000000000000, 5.000000000000000000 ) ) ;
#148 = AXIS2_PLACEMENT_3D ( 'NONE', #191, #39, #162 ) ;
#149 = DIRECTION ( 'NONE',  ( -1.000000000000000000, 0.000000000000000000, 0.000000000000000000 ) ) ;
#150 = MECHANICAL_CONTEXT ( 'NONE', #185, 'mechanical' ) ;
#151 = DIRECTION ( 'NONE',  ( -1.000000000000000000, 0.000000000000000000, 0.000000000000000000 ) ) ;
#152 = CARTESIAN_POINT ( 'NONE',  ( 0.000000000000000000, 0.000000000000000000, 5.000000000000000000 ) ) ;
#153 = APPROVAL ( #295, 'NEURÈENÝ' ) ;
#154 = DIRECTION ( 'NONE',  ( 1.000000000000000000, 0.000000000000000000, 0.000000000000000000 ) ) ;
#155 = CIRCLE ( 'NONE', #37, 3.250000000000000444 ) ;
#156 = APPLICATION_CONTEXT ( 'configuration controlled 3d designs of mechanical parts and assemblies' ) ;
#157 = EDGE_CURVE ( 'NONE', #356, #244, #258, .T. ) ;
#158 = EDGE_LOOP ( 'NONE', ( #300, #239, #301, #334 ) ) ;
#159 = EDGE_LOOP ( 'NONE', ( #18, #41 ) ) ;
#160 =( GEOMETRIC_REPRESENTATION_CONTEXT ( 3 ) GLOBAL_UNCERTAINTY_ASSIGNED_CONTEXT ( ( #210 ) ) GLOBAL_UNIT_ASSIGNED_CONTEXT ( ( #27, #374, #172 ) ) REPRESENTATION_CONTEXT ( 'NONE', 'WORKASPACE' ) );
#161 = ORIENTED_EDGE ( 'NONE', *, *, #86, .F. ) ;
#162 = DIRECTION ( 'NONE',  ( 1.000000000000000000, 0.000000000000000000, 0.000000000000000000 ) ) ;
#163 = ORIENTED_EDGE ( 'NONE', *, *, #346, .T. ) ;
#164 = CARTESIAN_POINT ( 'NONE',  ( 0.000000000000000000, 0.000000000000000000, 605.0000000000000000 ) ) ;
#165 = DIRECTION ( 'NONE',  ( -1.000000000000000000, 0.000000000000000000, 0.000000000000000000 ) ) ;
#166 = AXIS2_PLACEMENT_3D ( 'NONE', #68, #262, #183 ) ;
#167 = DIRECTION ( 'NONE',  ( -0.000000000000000000, -0.000000000000000000, -1.000000000000000000 ) ) ;
#168 = LINE ( 'NONE', #107, #51 ) ;
#169 = DIRECTION ( 'NONE',  ( -0.000000000000000000, -0.000000000000000000, -1.000000000000000000 ) ) ;
#170 = EDGE_CURVE ( 'NONE', #223, #70, #273, .T. ) ;
#171 = ADVANCED_FACE ( 'NONE', ( #266 ), #379, .F. ) ;
#172 =( NAMED_UNIT ( * ) SI_UNIT ( $, .STERADIAN. ) SOLID_ANGLE_UNIT ( ) );
#173 = CARTESIAN_POINT ( 'NONE',  ( 5.000000000000000000, 6.123233995736766282E-16, 5.499999999999949374 ) ) ;
#174 = LOCAL_TIME ( 16, 45, 1.000000000000000000, #89 ) ;
#175 = PLANE ( 'NONE',  #134 ) ;
#176 = PERSON_AND_ORGANIZATION ( #28, #91 ) ;
#177 = DIRECTION ( 'NONE',  ( 0.000000000000000000, 0.000000000000000000, 1.000000000000000000 ) ) ;
#178 = VECTOR ( 'NONE', #381, 1000.000000000000000 ) ;
#179 = LINE ( 'NONE', #272, #341 ) ;
#180 = DIRECTION ( 'NONE',  ( -1.000000000000000000, 0.000000000000000000, 0.000000000000000000 ) ) ;
#181 = PRODUCT_RELATED_PRODUCT_CATEGORY ( 'detail', '', ( #233 ) ) ;
#182 = CALENDAR_DATE ( 2022, 8, 7 ) ;
#183 = DIRECTION ( 'NONE',  ( 1.000000000000000000, 0.000000000000000000, 0.000000000000000000 ) ) ;
#184 = AXIS2_PLACEMENT_3D ( 'NONE', #132, #73, #253 ) ;
#185 = APPLICATION_CONTEXT ( 'configuration controlled 3d designs of mechanical parts and assemblies' ) ;
#186 = EDGE_LOOP ( 'NONE', ( #62, #337, #44, #366 ) ) ;
#187 = ADVANCED_FACE ( 'NONE', ( #268 ), #108, .F. ) ;
#188 = ORIENTED_EDGE ( 'NONE', *, *, #265, .T. ) ;
#189 = VERTEX_POINT ( 'NONE', #338 ) ;
#190 = CC_DESIGN_APPROVAL ( #333, ( #111 ) ) ;
#191 = CARTESIAN_POINT ( 'NONE',  ( 0.000000000000000000, 0.000000000000000000, 0.000000000000000000 ) ) ;
#192 = EDGE_CURVE ( 'NONE', #127, #223, #155, .T. ) ;
#193 = ORIENTED_EDGE ( 'NONE', *, *, #74, .T. ) ;
#194 = DIRECTION ( 'NONE',  ( 1.000000000000000000, 0.000000000000000000, 0.000000000000000000 ) ) ;
#195 = VECTOR ( 'NONE', #247, 1000.000000000000000 ) ;
#196 = CARTESIAN_POINT ( 'NONE',  ( 8.000000000000000000, 9.797174393178825657E-16, 0.000000000000000000 ) ) ;
#197 = VERTEX_POINT ( 'NONE', #196 ) ;
#198 = CARTESIAN_POINT ( 'NONE',  ( 0.000000000000000000, 0.000000000000000000, 605.0000000000000000 ) ) ;
#199 = CARTESIAN_POINT ( 'NONE',  ( -8.000000000000000000, 0.000000000000000000, 0.000000000000000000 ) ) ;
#200 = ADVANCED_FACE ( 'NONE', ( #306 ), #36, .T. ) ;
#201 = DATE_AND_TIME ( #121, #142 ) ;
#202 = FACE_BOUND ( 'NONE', #159, .T. ) ;
#203 = CLOSED_SHELL ( 'NONE', ( #171, #187, #302, #141, #113, #119, #7, #200, #274, #270, #10 ) ) ;
#204 = MANIFOLD_SOLID_BREP ( 'Odebrat vysunutím3', #203 ) ;
#205 = ORIENTED_EDGE ( 'NONE', *, *, #94, .F. ) ;
#206 = APPROVAL_DATE_TIME ( #347, #288 ) ;
#207 = CIRCLE ( 'NONE', #299, 5.000000000000000000 ) ;
#208 = EDGE_CURVE ( 'NONE', #343, #70, #229, .T. ) ;
#209 = CARTESIAN_POINT ( 'NONE',  ( 0.000000000000000000, 0.000000000000000000, 605.0000000000000000 ) ) ;
#210 = UNCERTAINTY_MEASURE_WITH_UNIT (LENGTH_MEASURE( 1.000000000000000082E-05 ), #27, 'distance_accuracy_value', 'NONE');
#211 = PERSON_AND_ORGANIZATION ( #28, #91 ) ;
#212 = DIRECTION ( 'NONE',  ( 0.000000000000000000, 0.000000000000000000, 1.000000000000000000 ) ) ;
#213 = EDGE_LOOP ( 'NONE', ( #276, #65, #34, #257 ) ) ;
#214 = DIRECTION ( 'NONE',  ( -0.000000000000000000, -0.000000000000000000, -1.000000000000000000 ) ) ;
#215 = ORIENTED_EDGE ( 'NONE', *, *, #85, .F. ) ;
#216 = AXIS2_PLACEMENT_3D ( 'NONE', #371, #309, #280 ) ;
#217 = CYLINDRICAL_SURFACE ( 'NONE', #344, 8.000000000000000000 ) ;
#218 = CC_DESIGN_PERSON_AND_ORGANIZATION_ASSIGNMENT ( #176, #80, ( #111 ) ) ;
#219 = PLANE ( 'NONE',  #275 ) ;
#220 = ORIENTED_EDGE ( 'NONE', *, *, #157, .T. ) ;
#221 = PERSON_AND_ORGANIZATION ( #28, #91 ) ;
#222 = VERTEX_POINT ( 'NONE', #6 ) ;
#223 = VERTEX_POINT ( 'NONE', #135 ) ;
#224 = ORIENTED_EDGE ( 'NONE', *, *, #85, .T. ) ;
#225 = ORIENTED_EDGE ( 'NONE', *, *, #94, .T. ) ;
#226 = CYLINDRICAL_SURFACE ( 'NONE', #96, 5.000000000000000000 ) ;
#227 = EDGE_CURVE ( 'NONE', #222, #8, #168, .T. ) ;
#228 = ORIENTED_EDGE ( 'NONE', *, *, #192, .T. ) ;
#229 = CIRCLE ( 'NONE', #82, 3.250000000000000444 ) ;
#230 = DIRECTION ( 'NONE',  ( -0.000000000000000000, -0.000000000000000000, -1.000000000000000000 ) ) ;
#231 = CARTESIAN_POINT ( 'NONE',  ( -5.500000000000000000, 6.735557395310442023E-16, 4.999999999999975131 ) ) ;
#232 = DIRECTION ( 'NONE',  ( 1.224646799147353207E-16, 1.000000000000000000, -0.000000000000000000 ) ) ;
#233 = PRODUCT ( '9be8', '9be8', '', ( #150 ) ) ;
#234 = CIRCLE ( 'NONE', #281, 5.000000000000000000 ) ;
#235 = PLANE ( 'NONE',  #325 ) ;
#236 = FACE_OUTER_BOUND ( 'NONE', #79, .T. ) ;
#237 = ORIENTED_EDGE ( 'NONE', *, *, #208, .T. ) ;
#238 = APPROVAL_ROLE ( '' ) ;
#239 = ORIENTED_EDGE ( 'NONE', *, *, #254, .F. ) ;
#240 = PERSON_AND_ORGANIZATION_ROLE ( 'creator' ) ;
#241 = DIRECTION ( 'NONE',  ( 0.000000000000000000, 0.000000000000000000, -1.000000000000000000 ) ) ;
#242 = CARTESIAN_POINT ( 'NONE',  ( 5.500000000000000000, 0.000000000000000000, 4.999999999999975131 ) ) ;
#243 = CARTESIAN_POINT ( 'NONE',  ( 0.000000000000000000, 0.000000000000000000, 5.000000000000000000 ) ) ;
#244 = VERTEX_POINT ( 'NONE', #231 ) ;
#245 = DIRECTION ( 'NONE',  ( 1.000000000000000000, 0.000000000000000000, 0.000000000000000000 ) ) ;
#246 = PRODUCT_DEFINITION_FORMATION_WITH_SPECIFIED_SOURCE ( 'LIBOVOLNÝ', '', #233, .NOT_KNOWN. ) ;
#247 = DIRECTION ( 'NONE',  ( -0.000000000000000000, -0.000000000000000000, -1.000000000000000000 ) ) ;
#248 = SECURITY_CLASSIFICATION_LEVEL ( 'unclassified' ) ;
#249 = FACE_OUTER_BOUND ( 'NONE', #250, .T. ) ;
#250 = EDGE_LOOP ( 'NONE', ( #205, #215, #128, #188 ) ) ;
#251 = ADVANCED_BREP_SHAPE_REPRESENTATION ( '9be8', ( #204, #357 ), #160 ) ;
#252 = EDGE_LOOP ( 'NONE', ( #255, #38, #4, #161 ) ) ;
#253 = DIRECTION ( 'NONE',  ( 0.000000000000000000, 0.000000000000000000, -1.000000000000000000 ) ) ;
#254 = EDGE_CURVE ( 'NONE', #8, #2, #207, .T. ) ;
#255 = ORIENTED_EDGE ( 'NONE', *, *, #25, .F. ) ;
#256 = CARTESIAN_POINT ( 'NONE',  ( 0.000000000000000000, 0.000000000000000000, 0.000000000000000000 ) ) ;
#257 = ORIENTED_EDGE ( 'NONE', *, *, #97, .T. ) ;
#258 = CIRCLE ( 'NONE', #103, 5.500000000000000000 ) ;
#259 = CYLINDRICAL_SURFACE ( 'NONE', #88, 3.250000000000000444 ) ;
#260 = DIRECTION ( 'NONE',  ( 0.000000000000000000, 0.000000000000000000, 1.000000000000000000 ) ) ;
#261 = DIRECTION ( 'NONE',  ( 1.000000000000000000, 0.000000000000000000, 0.000000000000000000 ) ) ;
#262 = DIRECTION ( 'NONE',  ( 0.000000000000000000, 0.000000000000000000, 1.000000000000000000 ) ) ;
#263 = APPROVAL_STATUS ( 'not_yet_approved' ) ;
#264 = DIRECTION ( 'NONE',  ( -1.000000000000000000, 0.000000000000000000, 0.000000000000000000 ) ) ;
#265 = EDGE_CURVE ( 'NONE', #11, #197, #46, .T. ) ;
#266 = FACE_OUTER_BOUND ( 'NONE', #35, .T. ) ;
#267 = AXIS2_PLACEMENT_3D ( 'NONE', #100, #285, #75 ) ;
#268 = FACE_OUTER_BOUND ( 'NONE', #186, .T. ) ;
#269 = PERSON_AND_ORGANIZATION_ROLE ( 'design_owner' ) ;
#270 = ADVANCED_FACE ( 'NONE', ( #304 ), #136, .F. ) ;
#271 = CARTESIAN_POINT ( 'NONE',  ( 3.250000000000000444, 3.980102097228898231E-16, 605.0000000000000000 ) ) ;
#272 = CARTESIAN_POINT ( 'NONE',  ( 8.000000000000000000, 9.797174393178825657E-16, 5.000000000000000000 ) ) ;
#273 = LINE ( 'NONE', #1, #118 ) ;
#274 = ADVANCED_FACE ( 'NONE', ( #340, #236 ), #235, .T. ) ;
#275 = AXIS2_PLACEMENT_3D ( 'NONE', #152, #291, #32 ) ;
#276 = ORIENTED_EDGE ( 'NONE', *, *, #227, .F. ) ;
#277 = CC_DESIGN_PERSON_AND_ORGANIZATION_ASSIGNMENT ( #211, #269, ( #233 ) ) ;
#278 = CARTESIAN_POINT ( 'NONE',  ( 0.000000000000000000, 0.000000000000000000, 0.000000000000000000 ) ) ;
#279 = CARTESIAN_POINT ( 'NONE',  ( 3.250000000000000444, 3.980102097228898231E-16, 0.000000000000000000 ) ) ;
#280 = DIRECTION ( 'NONE',  ( 1.000000000000000000, 0.000000000000000000, 0.000000000000000000 ) ) ;
#281 = AXIS2_PLACEMENT_3D ( 'NONE', #358, #212, #92 ) ;
#282 = LOCAL_TIME ( 16, 45, 1.000000000000000000, #66 ) ;
#283 = DIRECTION ( 'NONE',  ( -0.000000000000000000, -0.000000000000000000, -1.000000000000000000 ) ) ;
#284 = CARTESIAN_POINT ( 'NONE',  ( 0.000000000000000000, 0.000000000000000000, 5.000000000000000000 ) ) ;
#285 = DIRECTION ( 'NONE',  ( 0.000000000000000000, 0.000000000000000000, 1.000000000000000000 ) ) ;
#286 = DIRECTION ( 'NONE',  ( 0.000000000000000000, 0.000000000000000000, 1.000000000000000000 ) ) ;
#287 = LOCAL_TIME ( 16, 45, 1.000000000000000000, #49 ) ;
#288 = APPROVAL ( #349, 'NEURÈENÝ' ) ;
#289 = APPROVAL_ROLE ( '' ) ;
#290 = CARTESIAN_POINT ( 'NONE',  ( 0.000000000000000000, 0.000000000000000000, 605.0000000000000000 ) ) ;
#291 = DIRECTION ( 'NONE',  ( 0.000000000000000000, 0.000000000000000000, 1.000000000000000000 ) ) ;
#292 = LINE ( 'NONE', #56, #195 ) ;
#293 = AXIS2_PLACEMENT_3D ( 'NONE', #12, #283, #165 ) ;
#294 = CARTESIAN_POINT ( 'NONE',  ( 0.000000000000000000, 0.000000000000000000, 5.000000000000000000 ) ) ;
#295 = APPROVAL_STATUS ( 'not_yet_approved' ) ;
#296 = CARTESIAN_POINT ( 'NONE',  ( 0.000000000000000000, 0.000000000000000000, 5.000000000000000000 ) ) ;
#297 = AXIS2_PLACEMENT_3D ( 'NONE', #24, #232, #48 ) ;
#298 = DIRECTION ( 'NONE',  ( 1.000000000000000000, 0.000000000000000000, 0.000000000000000000 ) ) ;
#299 = AXIS2_PLACEMENT_3D ( 'NONE', #15, #370, #42 ) ;
#300 = ORIENTED_EDGE ( 'NONE', *, *, #40, .F. ) ;
#301 = ORIENTED_EDGE ( 'NONE', *, *, #322, .T. ) ;
#302 = ADVANCED_FACE ( 'NONE', ( #17 ), #226, .T. ) ;
#303 = APPROVAL_PERSON_ORGANIZATION ( #53, #333, #289 ) ;
#304 = FACE_OUTER_BOUND ( 'NONE', #158, .T. ) ;
#305 = ORIENTED_EDGE ( 'NONE', *, *, #346, .F. ) ;
#306 = FACE_OUTER_BOUND ( 'NONE', #213, .T. ) ;
#307 = EDGE_CURVE ( 'NONE', #197, #11, #369, .T. ) ;
#308 = CIRCLE ( 'NONE', #363, 8.000000000000000000 ) ;
#309 = DIRECTION ( 'NONE',  ( 0.000000000000000000, 0.000000000000000000, 1.000000000000000000 ) ) ;
#310 = CARTESIAN_POINT ( 'NONE',  ( 0.000000000000000000, 0.000000000000000000, 0.000000000000000000 ) ) ;
#311 = AXIS2_PLACEMENT_3D ( 'NONE', #243, #214, #151 ) ;
#312 = DIRECTION ( 'NONE',  ( 1.000000000000000000, 0.000000000000000000, -0.000000000000000000 ) ) ;
#313 = DIRECTION ( 'NONE',  ( 1.000000000000000000, 0.000000000000000000, 0.000000000000000000 ) ) ;
#314 = APPROVAL_DATE_TIME ( #201, #333 ) ;
#315 = CC_DESIGN_PERSON_AND_ORGANIZATION_ASSIGNMENT ( #221, #354, ( #246 ) ) ;
#316 = DATE_TIME_ROLE ( 'creation_date' ) ;
#317 = AXIS2_PLACEMENT_3D ( 'NONE', #321, #54, #149 ) ;
#318 = COORDINATED_UNIVERSAL_TIME_OFFSET ( 1, 0, .AHEAD. ) ;
#319 = CARTESIAN_POINT ( 'NONE',  ( -3.250000000000000444, 0.000000000000000000, 0.000000000000000000 ) ) ;
#320 = DIRECTION ( 'NONE',  ( 1.000000000000000000, 0.000000000000000000, 0.000000000000000000 ) ) ;
#321 = CARTESIAN_POINT ( 'NONE',  ( 0.000000000000000000, 0.000000000000000000, 605.0000000000000000 ) ) ;
#322 = EDGE_CURVE ( 'NONE', #8, #356, #351, .T. ) ;
#323 = EDGE_LOOP ( 'NONE', ( #112, #228, #5, #120 ) ) ;
#324 = APPROVAL_DATE_TIME ( #360, #153 ) ;
#325 = AXIS2_PLACEMENT_3D ( 'NONE', #198, #61, #312 ) ;
#326 = CARTESIAN_POINT ( 'NONE',  ( 0.000000000000000000, 0.000000000000000000, 5.000000000000000000 ) ) ;
#327 = DIRECTION ( 'NONE',  ( 1.000000000000000000, 0.000000000000000000, 0.000000000000000000 ) ) ;
#328 = AXIS2_PLACEMENT_3D ( 'NONE', #52, #286, #327 ) ;
#329 = FACE_OUTER_BOUND ( 'NONE', #373, .T. ) ;
#330 = PERSON_AND_ORGANIZATION_ROLE ( 'classification_officer' ) ;
#331 = ORIENTED_EDGE ( 'NONE', *, *, #78, .T. ) ;
#332 = DATE_AND_TIME ( #182, #174 ) ;
#333 = APPROVAL ( #263, 'NEURÈENÝ' ) ;
#334 = ORIENTED_EDGE ( 'NONE', *, *, #60, .F. ) ;
#335 = DIRECTION ( 'NONE',  ( -1.000000000000000000, 0.000000000000000000, 0.000000000000000000 ) ) ;
#336 = SECURITY_CLASSIFICATION ( '', '', #248 ) ;
#337 = ORIENTED_EDGE ( 'NONE', *, *, #40, .T. ) ;
#338 = CARTESIAN_POINT ( 'NONE',  ( -5.000000000000000000, 0.000000000000000000, 605.0000000000000000 ) ) ;
#339 = EDGE_CURVE ( 'NONE', #70, #343, #13, .T. ) ;
#340 = FACE_BOUND ( 'NONE', #99, .T. ) ;
#341 = VECTOR ( 'NONE', #123, 1000.000000000000000 ) ;
#342 = DIRECTION ( 'NONE',  ( 1.000000000000000000, 0.000000000000000000, 0.000000000000000000 ) ) ;
#343 = VERTEX_POINT ( 'NONE', #279 ) ;
#344 = AXIS2_PLACEMENT_3D ( 'NONE', #326, #57, #180 ) ;
#345 = ORIENTED_EDGE ( 'NONE', *, *, #265, .F. ) ;
#346 = EDGE_CURVE ( 'NONE', #223, #127, #129, .T. ) ;
#347 = DATE_AND_TIME ( #146, #287 ) ;
#348 = VECTOR ( 'NONE', #167, 1000.000000000000000 ) ;
#349 = APPROVAL_STATUS ( 'not_yet_approved' ) ;
#350 = DIRECTION ( 'NONE',  ( 1.000000000000000000, 0.000000000000000000, -0.000000000000000000 ) ) ;
#351 = CIRCLE ( 'NONE', #184, 0.5000000000000004441 ) ;
#352 = CYLINDRICAL_SURFACE ( 'NONE', #311, 8.000000000000000000 ) ;
#353 = ORIENTED_EDGE ( 'NONE', *, *, #78, .F. ) ;
#354 = PERSON_AND_ORGANIZATION_ROLE ( 'design_supplier' ) ;
#355 = FACE_BOUND ( 'NONE', #139, .T. ) ;
#356 = VERTEX_POINT ( 'NONE', #242 ) ;
#357 = AXIS2_PLACEMENT_3D ( 'NONE', #145, #55, #320 ) ;
#358 = CARTESIAN_POINT ( 'NONE',  ( 0.000000000000000000, 0.000000000000000000, 5.499999999999949374 ) ) ;
#359 = CC_DESIGN_DATE_AND_TIME_ASSIGNMENT ( #332, #63, ( #336 ) ) ;
#360 = DATE_AND_TIME ( #362, #282 ) ;
#361 = DIRECTION ( 'NONE',  ( -0.000000000000000000, -0.000000000000000000, -1.000000000000000000 ) ) ;
#362 = CALENDAR_DATE ( 2022, 8, 7 ) ;
#363 = AXIS2_PLACEMENT_3D ( 'NONE', #30, #177, #298 ) ;
#364 = ORIENTED_EDGE ( 'NONE', *, *, #170, .F. ) ;
#365 = ORIENTED_EDGE ( 'NONE', *, *, #25, .T. ) ;
#366 = ORIENTED_EDGE ( 'NONE', *, *, #322, .F. ) ;
#367 = DIRECTION ( 'NONE',  ( 1.000000000000000000, 0.000000000000000000, 0.000000000000000000 ) ) ;
#368 = DIRECTION ( 'NONE',  ( 0.000000000000000000, 0.000000000000000000, 1.000000000000000000 ) ) ;
#369 = CIRCLE ( 'NONE', #166, 8.000000000000000000 ) ;
#370 = DIRECTION ( 'NONE',  ( 0.000000000000000000, 0.000000000000000000, 1.000000000000000000 ) ) ;
#371 = CARTESIAN_POINT ( 'NONE',  ( 0.000000000000000000, 0.000000000000000000, 5.499999999999949374 ) ) ;
#372 = CC_DESIGN_PERSON_AND_ORGANIZATION_ASSIGNMENT ( #126, #330, ( #336 ) ) ;
#373 = EDGE_LOOP ( 'NONE', ( #224, #331 ) ) ;
#374 =( NAMED_UNIT ( * ) PLANE_ANGLE_UNIT ( ) SI_UNIT ( $, .RADIAN. ) );
#375 = DIRECTION ( 'NONE',  ( 0.000000000000000000, 0.000000000000000000, 1.000000000000000000 ) ) ;
#376 = LINE ( 'NONE', #81, #348 ) ;
#377 = CIRCLE ( 'NONE', #59, 5.500000000000000000 ) ;
#378 = PERSON_AND_ORGANIZATION ( #28, #91 ) ;
#379 = CYLINDRICAL_SURFACE ( 'NONE', #317, 3.250000000000000444 ) ;
#380 = AXIS2_PLACEMENT_3D ( 'NONE', #164, #368, #102 ) ;
#381 = DIRECTION ( 'NONE',  ( 0.000000000000000000, 0.000000000000000000, -1.000000000000000000 ) ) ;
ENDSEC;
END-ISO-10303-21;
