ISO-10303-21;
HEADER;
FILE_DESCRIPTION (( 'STEP AP203' ),
    '1' );
FILE_NAME ('8038.STEP',
    '2022-07-08T15:33:37',
    ( '' ),
    ( '' ),
    'SwSTEP 2.0',
    'SolidWorks 2019',
    '' );
FILE_SCHEMA (( 'CONFIG_CONTROL_DESIGN' ));
ENDSEC;

DATA;
#1 = EDGE_CURVE ( 'NONE', #179, #337, #149, .T. ) ;
#2 = SECURITY_CLASSIFICATION ( '', '', #152 ) ;
#3 = VERTEX_POINT ( 'NONE', #72 ) ;
#4 = EDGE_CURVE ( 'NONE', #373, #47, #322, .T. ) ;
#5 = EDGE_LOOP ( 'NONE', ( #38, #24 ) ) ;
#6 = PERSON ( 'NEURÈENÝ', 'NEURÈENÝ', 'NEURÈENÝ', ('NEURÈENÝ'), ('NEURÈENÝ'), ('NEURÈENÝ') ) ;
#7 = AXIS2_PLACEMENT_3D ( 'NONE', #310, #51, #109 ) ;
#8 = FACE_OUTER_BOUND ( 'NONE', #118, .T. ) ;
#9 = CARTESIAN_POINT ( 'NONE',  ( 0.000000000000000000, 0.000000000000000000, 755.0000000000000000 ) ) ;
#10 = AXIS2_PLACEMENT_3D ( 'NONE', #104, #191, #330 ) ;
#11 = EDGE_LOOP ( 'NONE', ( #83, #289 ) ) ;
#12 = CARTESIAN_POINT ( 'NONE',  ( 0.000000000000000000, 0.000000000000000000, 5.499999999999949374 ) ) ;
#13 = DATE_AND_TIME ( #44, #222 ) ;
#14 = DIRECTION ( 'NONE',  ( 1.000000000000000000, 0.000000000000000000, 0.000000000000000000 ) ) ;
#15 = CARTESIAN_POINT ( 'NONE',  ( 0.000000000000000000, 0.000000000000000000, 755.0000000000000000 ) ) ;
#16 = AXIS2_PLACEMENT_3D ( 'NONE', #300, #244, #74 ) ;
#17 = DIRECTION ( 'NONE',  ( -0.000000000000000000, -0.000000000000000000, -1.000000000000000000 ) ) ;
#18 = APPLICATION_PROTOCOL_DEFINITION ( 'international standard', 'config_control_design', 1994, #126 ) ;
#19 = ADVANCED_FACE ( 'NONE', ( #275 ), #188, .T. ) ;
#20 = CARTESIAN_POINT ( 'NONE',  ( 0.000000000000000000, 0.000000000000000000, 755.0000000000000000 ) ) ;
#21 = MANIFOLD_SOLID_BREP ( 'Odebrat vysunutím3', #347 ) ;
#22 = COORDINATED_UNIVERSAL_TIME_OFFSET ( 1, 0, .AHEAD. ) ;
#23 = FACE_OUTER_BOUND ( 'NONE', #68, .T. ) ;
#24 = ORIENTED_EDGE ( 'NONE', *, *, #133, .T. ) ;
#25 = AXIS2_PLACEMENT_3D ( 'NONE', #69, #134, #369 ) ;
#26 = CIRCLE ( 'NONE', #348, 3.500000000000000444 ) ;
#27 = DATE_TIME_ROLE ( 'creation_date' ) ;
#28 = CARTESIAN_POINT ( 'NONE',  ( 0.000000000000000000, 0.000000000000000000, 755.0000000000000000 ) ) ;
#29 = COORDINATED_UNIVERSAL_TIME_OFFSET ( 1, 0, .AHEAD. ) ;
#30 = ORIENTED_EDGE ( 'NONE', *, *, #371, .F. ) ;
#31 = CIRCLE ( 'NONE', #161, 3.000000000000000444 ) ;
#32 = AXIS2_PLACEMENT_3D ( 'NONE', #350, #279, #14 ) ;
#33 = CARTESIAN_POINT ( 'NONE',  ( 2.000000000000000000, 2.449293598294706414E-16, 755.0000000000000000 ) ) ;
#34 = EDGE_LOOP ( 'NONE', ( #271, #97, #232, #239 ) ) ;
#35 = DIRECTION ( 'NONE',  ( 0.000000000000000000, 0.000000000000000000, 1.000000000000000000 ) ) ;
#36 = ADVANCED_BREP_SHAPE_REPRESENTATION ( '8038', ( #21, #216 ), #39 ) ;
#37 = EDGE_CURVE ( 'NONE', #373, #154, #70, .T. ) ;
#38 = ORIENTED_EDGE ( 'NONE', *, *, #362, .T. ) ;
#39 =( GEOMETRIC_REPRESENTATION_CONTEXT ( 3 ) GLOBAL_UNCERTAINTY_ASSIGNED_CONTEXT ( ( #220 ) ) GLOBAL_UNIT_ASSIGNED_CONTEXT ( ( #172, #374, #138 ) ) REPRESENTATION_CONTEXT ( 'NONE', 'WORKASPACE' ) );
#40 = CARTESIAN_POINT ( 'NONE',  ( 0.000000000000000000, 0.000000000000000000, 5.000000000000000000 ) ) ;
#41 = EDGE_LOOP ( 'NONE', ( #124, #155 ) ) ;
#42 = ADVANCED_FACE ( 'NONE', ( #8 ), #159, .T. ) ;
#43 = PLANE ( 'NONE',  #285 ) ;
#44 = CALENDAR_DATE ( 2022, 8, 7 ) ;
#45 = LINE ( 'NONE', #115, #173 ) ;
#46 = LOCAL_TIME ( 17, 33, 37.00000000000000000, #29 ) ;
#47 = VERTEX_POINT ( 'NONE', #245 ) ;
#48 = PERSON_AND_ORGANIZATION_ROLE ( 'design_owner' ) ;
#49 = CARTESIAN_POINT ( 'NONE',  ( 0.000000000000000000, 0.000000000000000000, 5.000000000000000000 ) ) ;
#50 = ADVANCED_FACE ( 'NONE', ( #165, #130 ), #297, .T. ) ;
#51 = DIRECTION ( 'NONE',  ( -0.000000000000000000, -0.000000000000000000, -1.000000000000000000 ) ) ;
#52 = CIRCLE ( 'NONE', #323, 3.500000000000000444 ) ;
#53 = ADVANCED_FACE ( 'NONE', ( #273 ), #246, .F. ) ;
#54 = DIRECTION ( 'NONE',  ( 0.000000000000000000, 0.000000000000000000, -1.000000000000000000 ) ) ;
#55 = FACE_OUTER_BOUND ( 'NONE', #56, .T. ) ;
#56 = EDGE_LOOP ( 'NONE', ( #95, #249, #324, #262 ) ) ;
#57 = DATE_AND_TIME ( #260, #123 ) ;
#58 = CARTESIAN_POINT ( 'NONE',  ( -6.000000000000000888, 0.000000000000000000, 0.000000000000000000 ) ) ;
#59 = APPROVAL_STATUS ( 'not_yet_approved' ) ;
#60 = DIRECTION ( 'NONE',  ( -0.000000000000000000, -0.000000000000000000, -1.000000000000000000 ) ) ;
#61 = EDGE_LOOP ( 'NONE', ( #96, #112 ) ) ;
#62 = CC_DESIGN_PERSON_AND_ORGANIZATION_ASSIGNMENT ( #357, #119, ( #333 ) ) ;
#63 = ORIENTED_EDGE ( 'NONE', *, *, #164, .F. ) ;
#64 = AXIS2_PLACEMENT_3D ( 'NONE', #40, #99, #163 ) ;
#65 = APPROVAL_PERSON_ORGANIZATION ( #258, #346, #242 ) ;
#66 = ORIENTED_EDGE ( 'NONE', *, *, #145, .F. ) ;
#67 = CC_DESIGN_APPROVAL ( #305, ( #2 ) ) ;
#68 = EDGE_LOOP ( 'NONE', ( #355, #206, #291, #66 ) ) ;
#69 = CARTESIAN_POINT ( 'NONE',  ( 0.000000000000000000, 0.000000000000000000, 5.000000000000000000 ) ) ;
#70 = CIRCLE ( 'NONE', #142, 3.000000000000000444 ) ;
#71 = VECTOR ( 'NONE', #54, 1000.000000000000000 ) ;
#72 = CARTESIAN_POINT ( 'NONE',  ( -2.000000000000000000, 0.000000000000000000, 755.0000000000000000 ) ) ;
#73 = EDGE_CURVE ( 'NONE', #287, #158, #141, .T. ) ;
#74 = DIRECTION ( 'NONE',  ( 1.000000000000000000, 0.000000000000000000, 0.000000000000000000 ) ) ;
#75 = ADVANCED_FACE ( 'NONE', ( #223 ), #301, .T. ) ;
#76 = EDGE_CURVE ( 'NONE', #337, #179, #282, .T. ) ;
#77 = CARTESIAN_POINT ( 'NONE',  ( 2.000000000000000000, 2.449293598294706414E-16, 0.000000000000000000 ) ) ;
#78 = CARTESIAN_POINT ( 'NONE',  ( -2.000000000000000000, 0.000000000000000000, 0.000000000000000000 ) ) ;
#79 = CIRCLE ( 'NONE', #286, 6.000000000000000888 ) ;
#80 = CARTESIAN_POINT ( 'NONE',  ( -2.000000000000000000, 0.000000000000000000, 755.0000000000000000 ) ) ;
#81 = DIRECTION ( 'NONE',  ( 0.000000000000000000, 0.000000000000000000, 1.000000000000000000 ) ) ;
#82 = CARTESIAN_POINT ( 'NONE',  ( 3.500000000000000444, 0.000000000000000000, 5.499999999999949374 ) ) ;
#83 = ORIENTED_EDGE ( 'NONE', *, *, #73, .F. ) ;
#84 = FACE_OUTER_BOUND ( 'NONE', #219, .T. ) ;
#85 = FACE_BOUND ( 'NONE', #358, .T. ) ;
#86 = COORDINATED_UNIVERSAL_TIME_OFFSET ( 1, 0, .AHEAD. ) ;
#87 = FACE_OUTER_BOUND ( 'NONE', #266, .T. ) ;
#88 = ORIENTED_EDGE ( 'NONE', *, *, #4, .F. ) ;
#89 = PERSON_AND_ORGANIZATION_ROLE ( 'design_supplier' ) ;
#90 = ORIENTED_EDGE ( 'NONE', *, *, #167, .F. ) ;
#91 = ORGANIZATION ( 'NEURÈENÝ', 'NEURÈENÝ', '' ) ;
#92 = PERSON_AND_ORGANIZATION_ROLE ( 'creator' ) ;
#93 = CC_DESIGN_DATE_AND_TIME_ASSIGNMENT ( #57, #27, ( #316 ) ) ;
#94 = CARTESIAN_POINT ( 'NONE',  ( -6.000000000000000888, 0.000000000000000000, 5.000000000000000000 ) ) ;
#95 = ORIENTED_EDGE ( 'NONE', *, *, #193, .F. ) ;
#96 = ORIENTED_EDGE ( 'NONE', *, *, #351, .T. ) ;
#97 = ORIENTED_EDGE ( 'NONE', *, *, #364, .T. ) ;
#98 = DIRECTION ( 'NONE',  ( -0.000000000000000000, -0.000000000000000000, -1.000000000000000000 ) ) ;
#99 = DIRECTION ( 'NONE',  ( 0.000000000000000000, 0.000000000000000000, 1.000000000000000000 ) ) ;
#100 = CIRCLE ( 'NONE', #312, 0.5000000000000004441 ) ;
#101 = VECTOR ( 'NONE', #60, 1000.000000000000000 ) ;
#102 = DIRECTION ( 'NONE',  ( 1.000000000000000000, 0.000000000000000000, 0.000000000000000000 ) ) ;
#103 = DIRECTION ( 'NONE',  ( 0.000000000000000000, 0.000000000000000000, 1.000000000000000000 ) ) ;
#104 = CARTESIAN_POINT ( 'NONE',  ( -3.500000000000000444, 4.286263797015737088E-16, 5.499999999999949374 ) ) ;
#105 = ADVANCED_FACE ( 'NONE', ( #234, #376 ), #43, .T. ) ;
#106 = APPLICATION_PROTOCOL_DEFINITION ( 'international standard', 'config_control_design', 1994, #166 ) ;
#107 = DIRECTION ( 'NONE',  ( 0.000000000000000000, 0.000000000000000000, 1.000000000000000000 ) ) ;
#108 = ADVANCED_FACE ( 'NONE', ( #85, #343 ), #176, .F. ) ;
#109 = DIRECTION ( 'NONE',  ( 1.000000000000000000, 0.000000000000000000, 0.000000000000000000 ) ) ;
#110 = DIRECTION ( 'NONE',  ( -0.000000000000000000, -0.000000000000000000, -1.000000000000000000 ) ) ;
#111 = LINE ( 'NONE', #204, #221 ) ;
#112 = ORIENTED_EDGE ( 'NONE', *, *, #274, .T. ) ;
#113 = DIRECTION ( 'NONE',  ( 1.000000000000000000, 0.000000000000000000, 0.000000000000000000 ) ) ;
#114 = DATE_TIME_ROLE ( 'classification_date' ) ;
#115 = CARTESIAN_POINT ( 'NONE',  ( 2.000000000000000000, 2.449293598294706414E-16, 755.0000000000000000 ) ) ;
#116 = COORDINATED_UNIVERSAL_TIME_OFFSET ( 1, 0, .AHEAD. ) ;
#117 = DIRECTION ( 'NONE',  ( -0.000000000000000000, -0.000000000000000000, -1.000000000000000000 ) ) ;
#118 = EDGE_LOOP ( 'NONE', ( #63, #129, #187, #160 ) ) ;
#119 = PERSON_AND_ORGANIZATION_ROLE ( 'creator' ) ;
#120 = DIRECTION ( 'NONE',  ( 0.000000000000000000, 0.000000000000000000, 1.000000000000000000 ) ) ;
#121 = CALENDAR_DATE ( 2022, 8, 7 ) ;
#122 = CARTESIAN_POINT ( 'NONE',  ( 6.000000000000000888, 7.347880794884120722E-16, 5.000000000000000000 ) ) ;
#123 = LOCAL_TIME ( 17, 33, 37.00000000000000000, #22 ) ;
#124 = ORIENTED_EDGE ( 'NONE', *, *, #292, .F. ) ;
#125 = CC_DESIGN_PERSON_AND_ORGANIZATION_ASSIGNMENT ( #263, #321, ( #2 ) ) ;
#126 = APPLICATION_CONTEXT ( 'configuration controlled 3d designs of mechanical parts and assemblies' ) ;
#127 = ORIENTED_EDGE ( 'NONE', *, *, #193, .T. ) ;
#128 = AXIS2_PLACEMENT_3D ( 'NONE', #227, #17, #283 ) ;
#129 = ORIENTED_EDGE ( 'NONE', *, *, #184, .F. ) ;
#130 = FACE_OUTER_BOUND ( 'NONE', #5, .T. ) ;
#131 = CC_DESIGN_PERSON_AND_ORGANIZATION_ASSIGNMENT ( #178, #92, ( #316 ) ) ;
#132 = DIRECTION ( 'NONE',  ( 0.000000000000000000, 0.000000000000000000, -1.000000000000000000 ) ) ;
#133 = EDGE_CURVE ( 'NONE', #208, #151, #252, .T. ) ;
#134 = DIRECTION ( 'NONE',  ( -0.000000000000000000, -0.000000000000000000, -1.000000000000000000 ) ) ;
#135 = DIRECTION ( 'NONE',  ( 0.000000000000000000, 0.000000000000000000, 1.000000000000000000 ) ) ;
#136 = CARTESIAN_POINT ( 'NONE',  ( 0.000000000000000000, 0.000000000000000000, 755.0000000000000000 ) ) ;
#137 = CC_DESIGN_PERSON_AND_ORGANIZATION_ASSIGNMENT ( #228, #48, ( #264 ) ) ;
#138 =( NAMED_UNIT ( * ) SI_UNIT ( $, .STERADIAN. ) SOLID_ANGLE_UNIT ( ) );
#139 = DIRECTION ( 'NONE',  ( 0.000000000000000000, 0.000000000000000000, -1.000000000000000000 ) ) ;
#140 = CARTESIAN_POINT ( 'NONE',  ( 0.000000000000000000, 0.000000000000000000, 5.000000000000000000 ) ) ;
#141 = CIRCLE ( 'NONE', #240, 6.000000000000000888 ) ;
#142 = AXIS2_PLACEMENT_3D ( 'NONE', #195, #35, #361 ) ;
#143 = CARTESIAN_POINT ( 'NONE',  ( 0.000000000000000000, 0.000000000000000000, 5.000000000000000000 ) ) ;
#144 = CARTESIAN_POINT ( 'NONE',  ( -6.000000000000000888, 0.000000000000000000, 5.000000000000000000 ) ) ;
#145 = EDGE_CURVE ( 'NONE', #154, #329, #100, .T. ) ;
#146 = CARTESIAN_POINT ( 'NONE',  ( 0.000000000000000000, 0.000000000000000000, 5.499999999999949374 ) ) ;
#147 = APPROVAL_ROLE ( '' ) ;
#148 = ADVANCED_FACE ( 'NONE', ( #55 ), #341, .T. ) ;
#149 = CIRCLE ( 'NONE', #16, 2.000000000000000000 ) ;
#150 = TOROIDAL_SURFACE ( 'NONE', #360, 3.500000000000000444, 0.5000000000000000000 ) ;
#151 = VERTEX_POINT ( 'NONE', #144 ) ;
#152 = SECURITY_CLASSIFICATION_LEVEL ( 'unclassified' ) ;
#153 = DIRECTION ( 'NONE',  ( -0.000000000000000000, -0.000000000000000000, -1.000000000000000000 ) ) ;
#154 = VERTEX_POINT ( 'NONE', #375 ) ;
#155 = ORIENTED_EDGE ( 'NONE', *, *, #364, .F. ) ;
#156 = AXIS2_PLACEMENT_3D ( 'NONE', #146, #171, #340 ) ;
#157 = CIRCLE ( 'NONE', #203, 2.000000000000000000 ) ;
#158 = VERTEX_POINT ( 'NONE', #345 ) ;
#159 = CYLINDRICAL_SURFACE ( 'NONE', #196, 3.000000000000000444 ) ;
#160 = ORIENTED_EDGE ( 'NONE', *, *, #37, .T. ) ;
#161 = AXIS2_PLACEMENT_3D ( 'NONE', #308, #201, #315 ) ;
#162 = AXIS2_PLACEMENT_3D ( 'NONE', #230, #314, #254 ) ;
#163 = DIRECTION ( 'NONE',  ( 1.000000000000000000, 0.000000000000000000, -0.000000000000000000 ) ) ;
#164 = EDGE_CURVE ( 'NONE', #295, #154, #111, .T. ) ;
#165 = FACE_BOUND ( 'NONE', #61, .T. ) ;
#166 = APPLICATION_CONTEXT ( 'configuration controlled 3d designs of mechanical parts and assemblies' ) ;
#167 = EDGE_CURVE ( 'NONE', #154, #373, #202, .T. ) ;
#168 = DIRECTION ( 'NONE',  ( -0.000000000000000000, -0.000000000000000000, -1.000000000000000000 ) ) ;
#169 = DIRECTION ( 'NONE',  ( 0.000000000000000000, 0.000000000000000000, 1.000000000000000000 ) ) ;
#170 = COORDINATED_UNIVERSAL_TIME_OFFSET ( 1, 0, .AHEAD. ) ;
#171 = DIRECTION ( 'NONE',  ( 0.000000000000000000, 0.000000000000000000, 1.000000000000000000 ) ) ;
#172 =( LENGTH_UNIT ( ) NAMED_UNIT ( * ) SI_UNIT ( .MILLI., .METRE. ) );
#173 = VECTOR ( 'NONE', #237, 1000.000000000000000 ) ;
#174 = LOCAL_TIME ( 17, 33, 37.00000000000000000, #86 ) ;
#175 = DIRECTION ( 'NONE',  ( 1.000000000000000000, 0.000000000000000000, -0.000000000000000000 ) ) ;
#176 = PLANE ( 'NONE',  #356 ) ;
#177 = PERSON_AND_ORGANIZATION ( #6, #91 ) ;
#178 = PERSON_AND_ORGANIZATION ( #6, #91 ) ;
#179 = VERTEX_POINT ( 'NONE', #78 ) ;
#180 = APPROVAL_STATUS ( 'not_yet_approved' ) ;
#181 = EDGE_LOOP ( 'NONE', ( #225, #127 ) ) ;
#182 = PERSON_AND_ORGANIZATION ( #6, #91 ) ;
#183 = ORIENTED_EDGE ( 'NONE', *, *, #1, .F. ) ;
#184 = EDGE_CURVE ( 'NONE', #296, #295, #31, .T. ) ;
#185 = TOROIDAL_SURFACE ( 'NONE', #313, 3.500000000000000444, 0.5000000000000000000 ) ;
#186 = CC_DESIGN_DATE_AND_TIME_ASSIGNMENT ( #349, #114, ( #2 ) ) ;
#187 = ORIENTED_EDGE ( 'NONE', *, *, #335, .T. ) ;
#188 = CYLINDRICAL_SURFACE ( 'NONE', #25, 6.000000000000000888 ) ;
#189 = DESIGN_CONTEXT ( 'detailed design', #166, 'design' ) ;
#190 = VECTOR ( 'NONE', #153, 1000.000000000000000 ) ;
#191 = DIRECTION ( 'NONE',  ( 1.224646799147353207E-16, 1.000000000000000000, -0.000000000000000000 ) ) ;
#192 = DIRECTION ( 'NONE',  ( 0.000000000000000000, 0.000000000000000000, 1.000000000000000000 ) ) ;
#193 = EDGE_CURVE ( 'NONE', #295, #296, #236, .T. ) ;
#194 = DIRECTION ( 'NONE',  ( 1.000000000000000000, 0.000000000000000000, 0.000000000000000000 ) ) ;
#195 = CARTESIAN_POINT ( 'NONE',  ( 0.000000000000000000, 0.000000000000000000, 5.499999999999949374 ) ) ;
#196 = AXIS2_PLACEMENT_3D ( 'NONE', #9, #98, #217 ) ;
#197 = DIRECTION ( 'NONE',  ( 1.000000000000000000, 0.000000000000000000, 0.000000000000000000 ) ) ;
#198 = AXIS2_PLACEMENT_3D ( 'NONE', #15, #139, #318 ) ;
#199 = DIRECTION ( 'NONE',  ( 0.000000000000000000, -1.000000000000000000, 0.000000000000000000 ) ) ;
#200 = CARTESIAN_POINT ( 'NONE',  ( 0.000000000000000000, 0.000000000000000000, 5.000000000000000000 ) ) ;
#201 = DIRECTION ( 'NONE',  ( 0.000000000000000000, 0.000000000000000000, 1.000000000000000000 ) ) ;
#202 = CIRCLE ( 'NONE', #156, 3.000000000000000444 ) ;
#203 = AXIS2_PLACEMENT_3D ( 'NONE', #28, #120, #265 ) ;
#204 = CARTESIAN_POINT ( 'NONE',  ( 3.000000000000000444, 3.673940397442060361E-16, 755.0000000000000000 ) ) ;
#205 = CC_DESIGN_SECURITY_CLASSIFICATION ( #2, ( #333 ) ) ;
#206 = ORIENTED_EDGE ( 'NONE', *, *, #4, .T. ) ;
#207 = APPROVAL_DATE_TIME ( #13, #354 ) ;
#208 = VERTEX_POINT ( 'NONE', #257 ) ;
#209 = LOCAL_TIME ( 17, 33, 37.00000000000000000, #116 ) ;
#210 = CALENDAR_DATE ( 2022, 8, 7 ) ;
#211 = CARTESIAN_POINT ( 'NONE',  ( 0.000000000000000000, 0.000000000000000000, 5.000000000000000000 ) ) ;
#212 = ORIENTED_EDGE ( 'NONE', *, *, #248, .T. ) ;
#213 = DIRECTION ( 'NONE',  ( 1.000000000000000000, 0.000000000000000000, 0.000000000000000000 ) ) ;
#214 = ORIENTED_EDGE ( 'NONE', *, *, #76, .T. ) ;
#215 = ORIENTED_EDGE ( 'NONE', *, *, #302, .F. ) ;
#216 = AXIS2_PLACEMENT_3D ( 'NONE', #277, #135, #197 ) ;
#217 = DIRECTION ( 'NONE',  ( -1.000000000000000000, 0.000000000000000000, 0.000000000000000000 ) ) ;
#218 = PRODUCT_RELATED_PRODUCT_CATEGORY ( 'detail', '', ( #264 ) ) ;
#219 = EDGE_LOOP ( 'NONE', ( #88, #90, #381, #320 ) ) ;
#220 = UNCERTAINTY_MEASURE_WITH_UNIT (LENGTH_MEASURE( 1.000000000000000082E-05 ), #172, 'distance_accuracy_value', 'NONE');
#221 = VECTOR ( 'NONE', #231, 1000.000000000000000 ) ;
#222 = LOCAL_TIME ( 17, 33, 37.00000000000000000, #170 ) ;
#223 = FACE_OUTER_BOUND ( 'NONE', #326, .T. ) ;
#224 = DIRECTION ( 'NONE',  ( 0.000000000000000000, 0.000000000000000000, 1.000000000000000000 ) ) ;
#225 = ORIENTED_EDGE ( 'NONE', *, *, #184, .T. ) ;
#226 = PERSON_AND_ORGANIZATION ( #6, #91 ) ;
#227 = CARTESIAN_POINT ( 'NONE',  ( 0.000000000000000000, 0.000000000000000000, 755.0000000000000000 ) ) ;
#228 = PERSON_AND_ORGANIZATION ( #6, #91 ) ;
#229 = DIRECTION ( 'NONE',  ( 1.000000000000000000, 0.000000000000000000, 0.000000000000000000 ) ) ;
#230 = CARTESIAN_POINT ( 'NONE',  ( 0.000000000000000000, 0.000000000000000000, 755.0000000000000000 ) ) ;
#231 = DIRECTION ( 'NONE',  ( -0.000000000000000000, -0.000000000000000000, -1.000000000000000000 ) ) ;
#232 = ORIENTED_EDGE ( 'NONE', *, *, #371, .T. ) ;
#233 = CARTESIAN_POINT ( 'NONE',  ( -3.000000000000000444, 0.000000000000000000, 5.499999999999949374 ) ) ;
#234 = FACE_BOUND ( 'NONE', #41, .T. ) ;
#235 = EDGE_CURVE ( 'NONE', #328, #337, #45, .T. ) ;
#236 = CIRCLE ( 'NONE', #331, 3.000000000000000444 ) ;
#237 = DIRECTION ( 'NONE',  ( 0.000000000000000000, 0.000000000000000000, -1.000000000000000000 ) ) ;
#238 = LINE ( 'NONE', #122, #190 ) ;
#239 = ORIENTED_EDGE ( 'NONE', *, *, #1, .T. ) ;
#240 = AXIS2_PLACEMENT_3D ( 'NONE', #366, #192, #102 ) ;
#241 = VECTOR ( 'NONE', #342, 1000.000000000000000 ) ;
#242 = APPROVAL_ROLE ( '' ) ;
#243 = ORIENTED_EDGE ( 'NONE', *, *, #302, .T. ) ;
#244 = DIRECTION ( 'NONE',  ( -0.000000000000000000, -0.000000000000000000, -1.000000000000000000 ) ) ;
#245 = CARTESIAN_POINT ( 'NONE',  ( -3.500000000000000444, 4.286263797015737088E-16, 4.999999999999975131 ) ) ;
#246 = CYLINDRICAL_SURFACE ( 'NONE', #365, 2.000000000000000000 ) ;
#247 = DIRECTION ( 'NONE',  ( -1.000000000000000000, 0.000000000000000000, 0.000000000000000000 ) ) ;
#248 = EDGE_CURVE ( 'NONE', #158, #287, #304, .T. ) ;
#249 = ORIENTED_EDGE ( 'NONE', *, *, #164, .T. ) ;
#250 = ADVANCED_FACE ( 'NONE', ( #87 ), #303, .F. ) ;
#251 = DIRECTION ( 'NONE',  ( 1.000000000000000000, 0.000000000000000000, 0.000000000000000000 ) ) ;
#252 = CIRCLE ( 'NONE', #298, 6.000000000000000888 ) ;
#253 = DIRECTION ( 'NONE',  ( -1.000000000000000000, 0.000000000000000000, 0.000000000000000000 ) ) ;
#254 = DIRECTION ( 'NONE',  ( 1.000000000000000000, 0.000000000000000000, 0.000000000000000000 ) ) ;
#255 = DIRECTION ( 'NONE',  ( 1.000000000000000000, 0.000000000000000000, -0.000000000000000000 ) ) ;
#256 = PRODUCT_DEFINITION_SHAPE ( 'NONE', 'NONE',  #316 ) ;
#257 = CARTESIAN_POINT ( 'NONE',  ( 6.000000000000000888, 7.347880794884120722E-16, 5.000000000000000000 ) ) ;
#258 = PERSON_AND_ORGANIZATION ( #6, #91 ) ;
#259 = CARTESIAN_POINT ( 'NONE',  ( 0.000000000000000000, 0.000000000000000000, 5.499999999999949374 ) ) ;
#260 = CALENDAR_DATE ( 2022, 8, 7 ) ;
#261 = DIRECTION ( 'NONE',  ( 1.000000000000000000, 0.000000000000000000, 0.000000000000000000 ) ) ;
#262 = ORIENTED_EDGE ( 'NONE', *, *, #335, .F. ) ;
#263 = PERSON_AND_ORGANIZATION ( #6, #91 ) ;
#264 = PRODUCT ( '8038', '8038', '', ( #336 ) ) ;
#265 = DIRECTION ( 'NONE',  ( 1.000000000000000000, 0.000000000000000000, 0.000000000000000000 ) ) ;
#266 = EDGE_LOOP ( 'NONE', ( #334, #359, #214, #30 ) ) ;
#267 = ADVANCED_FACE ( 'NONE', ( #23 ), #150, .F. ) ;
#268 = CALENDAR_DATE ( 2022, 8, 7 ) ;
#269 = LINE ( 'NONE', #372, #241 ) ;
#270 = ORIENTED_EDGE ( 'NONE', *, *, #133, .F. ) ;
#271 = ORIENTED_EDGE ( 'NONE', *, *, #235, .F. ) ;
#272 = ORIENTED_EDGE ( 'NONE', *, *, #76, .F. ) ;
#273 = FACE_OUTER_BOUND ( 'NONE', #34, .T. ) ;
#274 = EDGE_CURVE ( 'NONE', #47, #329, #52, .T. ) ;
#275 = FACE_OUTER_BOUND ( 'NONE', #281, .T. ) ;
#276 = CC_DESIGN_APPROVAL ( #346, ( #333 ) ) ;
#277 = CARTESIAN_POINT ( 'NONE',  ( 0.000000000000000000, 0.000000000000000000, 0.000000000000000000 ) ) ;
#278 = CARTESIAN_POINT ( 'NONE',  ( 0.000000000000000000, 0.000000000000000000, 0.000000000000000000 ) ) ;
#279 = DIRECTION ( 'NONE',  ( 0.000000000000000000, 0.000000000000000000, 1.000000000000000000 ) ) ;
#280 = CC_DESIGN_PERSON_AND_ORGANIZATION_ASSIGNMENT ( #177, #89, ( #333 ) ) ;
#281 = EDGE_LOOP ( 'NONE', ( #270, #243, #212, #380 ) ) ;
#282 = CIRCLE ( 'NONE', #7, 2.000000000000000000 ) ;
#283 = DIRECTION ( 'NONE',  ( -1.000000000000000000, 0.000000000000000000, 0.000000000000000000 ) ) ;
#284 = APPROVAL_DATE_TIME ( #288, #305 ) ;
#285 = AXIS2_PLACEMENT_3D ( 'NONE', #136, #169, #175 ) ;
#286 = AXIS2_PLACEMENT_3D ( 'NONE', #140, #224, #194 ) ;
#287 = VERTEX_POINT ( 'NONE', #58 ) ;
#288 = DATE_AND_TIME ( #210, #46 ) ;
#289 = ORIENTED_EDGE ( 'NONE', *, *, #248, .F. ) ;
#290 = CARTESIAN_POINT ( 'NONE',  ( 3.000000000000000444, 3.673940397442060361E-16, 755.0000000000000000 ) ) ;
#291 = ORIENTED_EDGE ( 'NONE', *, *, #351, .F. ) ;
#292 = EDGE_CURVE ( 'NONE', #3, #328, #157, .T. ) ;
#293 = AXIS2_PLACEMENT_3D ( 'NONE', #49, #168, #253 ) ;
#294 = CC_DESIGN_APPROVAL ( #354, ( #316 ) ) ;
#295 = VERTEX_POINT ( 'NONE', #290 ) ;
#296 = VERTEX_POINT ( 'NONE', #325 ) ;
#297 = PLANE ( 'NONE',  #64 ) ;
#298 = AXIS2_PLACEMENT_3D ( 'NONE', #143, #81, #229 ) ;
#299 = APPROVAL_PERSON_ORGANIZATION ( #226, #354, #306 ) ;
#300 = CARTESIAN_POINT ( 'NONE',  ( 0.000000000000000000, 0.000000000000000000, 0.000000000000000000 ) ) ;
#301 = CYLINDRICAL_SURFACE ( 'NONE', #293, 6.000000000000000888 ) ;
#302 = EDGE_CURVE ( 'NONE', #208, #158, #238, .T. ) ;
#303 = CYLINDRICAL_SURFACE ( 'NONE', #198, 2.000000000000000000 ) ;
#304 = CIRCLE ( 'NONE', #32, 6.000000000000000888 ) ;
#305 = APPROVAL ( #180, 'NEURÈENÝ' ) ;
#306 = APPROVAL_ROLE ( '' ) ;
#307 = DIRECTION ( 'NONE',  ( 0.000000000000000000, 0.000000000000000000, 1.000000000000000000 ) ) ;
#308 = CARTESIAN_POINT ( 'NONE',  ( 0.000000000000000000, 0.000000000000000000, 755.0000000000000000 ) ) ;
#309 = LINE ( 'NONE', #80, #71 ) ;
#310 = CARTESIAN_POINT ( 'NONE',  ( 0.000000000000000000, 0.000000000000000000, 0.000000000000000000 ) ) ;
#311 = EDGE_CURVE ( 'NONE', #151, #287, #319, .T. ) ;
#312 = AXIS2_PLACEMENT_3D ( 'NONE', #82, #199, #370 ) ;
#313 = AXIS2_PLACEMENT_3D ( 'NONE', #12, #103, #368 ) ;
#314 = DIRECTION ( 'NONE',  ( 0.000000000000000000, 0.000000000000000000, 1.000000000000000000 ) ) ;
#315 = DIRECTION ( 'NONE',  ( 1.000000000000000000, 0.000000000000000000, 0.000000000000000000 ) ) ;
#316 = PRODUCT_DEFINITION ( 'NEZNÁMÝ', '', #333, #189 ) ;
#317 = APPROVAL_PERSON_ORGANIZATION ( #182, #305, #147 ) ;
#318 = DIRECTION ( 'NONE',  ( -1.000000000000000000, 0.000000000000000000, 0.000000000000000000 ) ) ;
#319 = LINE ( 'NONE', #94, #101 ) ;
#320 = ORIENTED_EDGE ( 'NONE', *, *, #274, .F. ) ;
#321 = PERSON_AND_ORGANIZATION_ROLE ( 'classification_officer' ) ;
#322 = CIRCLE ( 'NONE', #10, 0.4999999999999995559 ) ;
#323 = AXIS2_PLACEMENT_3D ( 'NONE', #211, #117, #213 ) ;
#324 = ORIENTED_EDGE ( 'NONE', *, *, #167, .T. ) ;
#325 = CARTESIAN_POINT ( 'NONE',  ( -3.000000000000000444, 0.000000000000000000, 755.0000000000000000 ) ) ;
#326 = EDGE_LOOP ( 'NONE', ( #215, #353, #344, #332 ) ) ;
#327 = APPROVAL_DATE_TIME ( #379, #346 ) ;
#328 = VERTEX_POINT ( 'NONE', #33 ) ;
#329 = VERTEX_POINT ( 'NONE', #352 ) ;
#330 = DIRECTION ( 'NONE',  ( -1.000000000000000000, 1.224646799147354440E-16, 0.000000000000000000 ) ) ;
#331 = AXIS2_PLACEMENT_3D ( 'NONE', #20, #307, #251 ) ;
#332 = ORIENTED_EDGE ( 'NONE', *, *, #73, .T. ) ;
#333 = PRODUCT_DEFINITION_FORMATION_WITH_SPECIFIED_SOURCE ( 'LIBOVOLNÝ', '', #264, .NOT_KNOWN. ) ;
#334 = ORIENTED_EDGE ( 'NONE', *, *, #292, .T. ) ;
#335 = EDGE_CURVE ( 'NONE', #296, #373, #269, .T. ) ;
#336 = MECHANICAL_CONTEXT ( 'NONE', #126, 'mechanical' ) ;
#337 = VERTEX_POINT ( 'NONE', #77 ) ;
#338 = ADVANCED_FACE ( 'NONE', ( #84 ), #185, .F. ) ;
#339 = APPROVAL_STATUS ( 'not_yet_approved' ) ;
#340 = DIRECTION ( 'NONE',  ( 1.000000000000000000, 0.000000000000000000, 0.000000000000000000 ) ) ;
#341 = CYLINDRICAL_SURFACE ( 'NONE', #128, 3.000000000000000444 ) ;
#342 = DIRECTION ( 'NONE',  ( -0.000000000000000000, -0.000000000000000000, -1.000000000000000000 ) ) ;
#343 = FACE_OUTER_BOUND ( 'NONE', #11, .T. ) ;
#344 = ORIENTED_EDGE ( 'NONE', *, *, #311, .T. ) ;
#345 = CARTESIAN_POINT ( 'NONE',  ( 6.000000000000000888, 7.347880794884120722E-16, 0.000000000000000000 ) ) ;
#346 = APPROVAL ( #59, 'NEURÈENÝ' ) ;
#347 = CLOSED_SHELL ( 'NONE', ( #250, #267, #148, #19, #75, #50, #108, #42, #105, #338, #53 ) ) ;
#348 = AXIS2_PLACEMENT_3D ( 'NONE', #200, #110, #113 ) ;
#349 = DATE_AND_TIME ( #121, #209 ) ;
#350 = CARTESIAN_POINT ( 'NONE',  ( 0.000000000000000000, 0.000000000000000000, 0.000000000000000000 ) ) ;
#351 = EDGE_CURVE ( 'NONE', #329, #47, #26, .T. ) ;
#352 = CARTESIAN_POINT ( 'NONE',  ( 3.500000000000000444, 0.000000000000000000, 4.999999999999975131 ) ) ;
#353 = ORIENTED_EDGE ( 'NONE', *, *, #362, .F. ) ;
#354 = APPROVAL ( #339, 'NEURÈENÝ' ) ;
#355 = ORIENTED_EDGE ( 'NONE', *, *, #37, .F. ) ;
#356 = AXIS2_PLACEMENT_3D ( 'NONE', #278, #107, #255 ) ;
#357 = PERSON_AND_ORGANIZATION ( #6, #91 ) ;
#358 = EDGE_LOOP ( 'NONE', ( #183, #272 ) ) ;
#359 = ORIENTED_EDGE ( 'NONE', *, *, #235, .T. ) ;
#360 = AXIS2_PLACEMENT_3D ( 'NONE', #259, #378, #261 ) ;
#361 = DIRECTION ( 'NONE',  ( 1.000000000000000000, 0.000000000000000000, 0.000000000000000000 ) ) ;
#362 = EDGE_CURVE ( 'NONE', #151, #208, #79, .T. ) ;
#363 = CARTESIAN_POINT ( 'NONE',  ( 0.000000000000000000, 0.000000000000000000, 755.0000000000000000 ) ) ;
#364 = EDGE_CURVE ( 'NONE', #328, #3, #367, .T. ) ;
#365 = AXIS2_PLACEMENT_3D ( 'NONE', #363, #132, #247 ) ;
#366 = CARTESIAN_POINT ( 'NONE',  ( 0.000000000000000000, 0.000000000000000000, 0.000000000000000000 ) ) ;
#367 = CIRCLE ( 'NONE', #162, 2.000000000000000000 ) ;
#368 = DIRECTION ( 'NONE',  ( 1.000000000000000000, 0.000000000000000000, 0.000000000000000000 ) ) ;
#369 = DIRECTION ( 'NONE',  ( -1.000000000000000000, 0.000000000000000000, 0.000000000000000000 ) ) ;
#370 = DIRECTION ( 'NONE',  ( 0.000000000000000000, 0.000000000000000000, -1.000000000000000000 ) ) ;
#371 = EDGE_CURVE ( 'NONE', #3, #179, #309, .T. ) ;
#372 = CARTESIAN_POINT ( 'NONE',  ( -3.000000000000000444, 0.000000000000000000, 755.0000000000000000 ) ) ;
#373 = VERTEX_POINT ( 'NONE', #233 ) ;
#374 =( NAMED_UNIT ( * ) PLANE_ANGLE_UNIT ( ) SI_UNIT ( $, .RADIAN. ) );
#375 = CARTESIAN_POINT ( 'NONE',  ( 3.000000000000000444, 3.673940397442060361E-16, 5.499999999999949374 ) ) ;
#376 = FACE_OUTER_BOUND ( 'NONE', #181, .T. ) ;
#377 = SHAPE_DEFINITION_REPRESENTATION ( #256, #36 ) ;
#378 = DIRECTION ( 'NONE',  ( 0.000000000000000000, 0.000000000000000000, 1.000000000000000000 ) ) ;
#379 = DATE_AND_TIME ( #268, #174 ) ;
#380 = ORIENTED_EDGE ( 'NONE', *, *, #311, .F. ) ;
#381 = ORIENTED_EDGE ( 'NONE', *, *, #145, .T. ) ;
ENDSEC;
END-ISO-10303-21;
