ISO-10303-21;
HEADER;
FILE_DESCRIPTION (( 'STEP AP203' ),
    '1' );
FILE_NAME ('d710.STEP',
    '2022-07-08T14:26:28',
    ( '' ),
    ( '' ),
    'SwSTEP 2.0',
    'SolidWorks 2019',
    '' );
FILE_SCHEMA (( 'CONFIG_CONTROL_DESIGN' ));
ENDSEC;

DATA;
#1 = CALENDAR_DATE ( 2022, 8, 7 ) ;
#2 = ADVANCED_FACE ( 'NONE', ( #139 ), #48, .T. ) ;
#3 = ORIENTED_EDGE ( 'NONE', *, *, #149, .F. ) ;
#4 = CARTESIAN_POINT ( 'NONE',  ( -6.000000000000000888, 0.000000000000000000, 7.699999999999985079 ) ) ;
#5 = AXIS2_PLACEMENT_3D ( 'NONE', #376, #379, #119 ) ;
#6 = CC_DESIGN_PERSON_AND_ORGANIZATION_ASSIGNMENT ( #189, #127, ( #276 ) ) ;
#7 = VERTEX_POINT ( 'NONE', #113 ) ;
#8 = ORIENTED_EDGE ( 'NONE', *, *, #161, .T. ) ;
#9 = APPROVAL_STATUS ( 'not_yet_approved' ) ;
#10 = EDGE_LOOP ( 'NONE', ( #160, #305, #340, #253 ) ) ;
#11 = CC_DESIGN_PERSON_AND_ORGANIZATION_ASSIGNMENT ( #245, #272, ( #135 ) ) ;
#12 = CARTESIAN_POINT ( 'NONE',  ( 0.000000000000000000, 0.000000000000000000, 357.0000000000000000 ) ) ;
#13 = DIRECTION ( 'NONE',  ( -0.000000000000000000, -0.000000000000000000, -1.000000000000000000 ) ) ;
#14 = DIRECTION ( 'NONE',  ( 0.000000000000000000, 0.000000000000000000, 1.000000000000000000 ) ) ;
#15 = ADVANCED_FACE ( 'NONE', ( #286 ), #261, .T. ) ;
#16 = DIRECTION ( 'NONE',  ( 1.000000000000000000, 0.000000000000000000, -0.000000000000000000 ) ) ;
#17 = EDGE_CURVE ( 'NONE', #38, #67, #313, .T. ) ;
#18 = CC_DESIGN_SECURITY_CLASSIFICATION ( #246, ( #217 ) ) ;
#19 = DIRECTION ( 'NONE',  ( 1.000000000000000000, 0.000000000000000000, 0.000000000000000000 ) ) ;
#20 = DIRECTION ( 'NONE',  ( -0.000000000000000000, -0.000000000000000000, -1.000000000000000000 ) ) ;
#21 = EDGE_CURVE ( 'NONE', #74, #190, #232, .T. ) ;
#22 = TOROIDAL_SURFACE ( 'NONE', #126, 6.700000000000001066, 0.6999999999999999556 ) ;
#23 = CARTESIAN_POINT ( 'NONE',  ( 0.000000000000000000, 0.000000000000000000, 7.000000000000000000 ) ) ;
#24 = CC_DESIGN_APPROVAL ( #282, ( #217 ) ) ;
#25 = TOROIDAL_SURFACE ( 'NONE', #134, 6.700000000000001066, 0.6999999999999999556 ) ;
#26 = DIRECTION ( 'NONE',  ( 0.000000000000000000, 0.000000000000000000, -1.000000000000000000 ) ) ;
#27 = DIRECTION ( 'NONE',  ( 0.000000000000000000, 0.000000000000000000, 1.000000000000000000 ) ) ;
#28 = DIRECTION ( 'NONE',  ( -0.000000000000000000, -0.000000000000000000, -1.000000000000000000 ) ) ;
#29 = CIRCLE ( 'NONE', #309, 6.700000000000001066 ) ;
#30 = ORIENTED_EDGE ( 'NONE', *, *, #103, .F. ) ;
#31 = ADVANCED_FACE ( 'NONE', ( #373, #287 ), #231, .T. ) ;
#32 = CARTESIAN_POINT ( 'NONE',  ( -4.500000000000000000, 0.000000000000000000, 357.0000000000000000 ) ) ;
#33 = ORIENTED_EDGE ( 'NONE', *, *, #21, .F. ) ;
#34 = COORDINATED_UNIVERSAL_TIME_OFFSET ( 1, 0, .AHEAD. ) ;
#35 = AXIS2_PLACEMENT_3D ( 'NONE', #78, #42, #165 ) ;
#36 = ORIENTED_EDGE ( 'NONE', *, *, #41, .T. ) ;
#37 =( NAMED_UNIT ( * ) SI_UNIT ( $, .STERADIAN. ) SOLID_ANGLE_UNIT ( ) );
#38 = VERTEX_POINT ( 'NONE', #137 ) ;
#39 = CARTESIAN_POINT ( 'NONE',  ( 0.000000000000000000, 0.000000000000000000, 357.0000000000000000 ) ) ;
#40 = ORIENTED_EDGE ( 'NONE', *, *, #243, .F. ) ;
#41 = EDGE_CURVE ( 'NONE', #154, #190, #339, .T. ) ;
#42 = DIRECTION ( 'NONE',  ( -0.000000000000000000, -0.000000000000000000, -1.000000000000000000 ) ) ;
#43 = CALENDAR_DATE ( 2022, 8, 7 ) ;
#44 = DIRECTION ( 'NONE',  ( 1.000000000000000000, 0.000000000000000000, -0.000000000000000000 ) ) ;
#45 = CARTESIAN_POINT ( 'NONE',  ( 0.000000000000000000, 0.000000000000000000, 0.000000000000000000 ) ) ;
#46 = PERSON_AND_ORGANIZATION_ROLE ( 'design_supplier' ) ;
#47 = EDGE_CURVE ( 'NONE', #361, #154, #64, .T. ) ;
#48 = CYLINDRICAL_SURFACE ( 'NONE', #35, 10.00000000000000000 ) ;
#49 = APPLICATION_CONTEXT ( 'configuration controlled 3d designs of mechanical parts and assemblies' ) ;
#50 = DATE_AND_TIME ( #290, #52 ) ;
#51 = PLANE ( 'NONE',  #96 ) ;
#52 = LOCAL_TIME ( 16, 26, 28.00000000000000000, #167 ) ;
#53 = AXIS2_PLACEMENT_3D ( 'NONE', #300, #233, #349 ) ;
#54 = CARTESIAN_POINT ( 'NONE',  ( 10.00000000000000000, 1.224646799147353256E-15, 0.000000000000000000 ) ) ;
#55 = ADVANCED_FACE ( 'NONE', ( #191, #136 ), #51, .T. ) ;
#56 = DIRECTION ( 'NONE',  ( -0.000000000000000000, -0.000000000000000000, -1.000000000000000000 ) ) ;
#57 = CARTESIAN_POINT ( 'NONE',  ( 0.000000000000000000, 0.000000000000000000, 357.0000000000000000 ) ) ;
#58 =( GEOMETRIC_REPRESENTATION_CONTEXT ( 3 ) GLOBAL_UNCERTAINTY_ASSIGNED_CONTEXT ( ( #199 ) ) GLOBAL_UNIT_ASSIGNED_CONTEXT ( ( #215, #104, #37 ) ) REPRESENTATION_CONTEXT ( 'NONE', 'WORKASPACE' ) );
#59 = FACE_OUTER_BOUND ( 'NONE', #273, .T. ) ;
#60 = ORIENTED_EDGE ( 'NONE', *, *, #327, .T. ) ;
#61 = ADVANCED_BREP_SHAPE_REPRESENTATION ( 'd710', ( #205, #122 ), #58 ) ;
#62 = CARTESIAN_POINT ( 'NONE',  ( -10.00000000000000000, 0.000000000000000000, 0.000000000000000000 ) ) ;
#63 = EDGE_LOOP ( 'NONE', ( #130, #36 ) ) ;
#64 = CIRCLE ( 'NONE', #283, 0.7000000000000000666 ) ;
#65 = CIRCLE ( 'NONE', #176, 4.500000000000000000 ) ;
#66 = PERSON_AND_ORGANIZATION ( #363, #117 ) ;
#67 = VERTEX_POINT ( 'NONE', #284 ) ;
#68 = MECHANICAL_CONTEXT ( 'NONE', #338, 'mechanical' ) ;
#69 = ORIENTED_EDGE ( 'NONE', *, *, #327, .F. ) ;
#70 = EDGE_LOOP ( 'NONE', ( #3, #128, #365, #98 ) ) ;
#71 = CIRCLE ( 'NONE', #182, 10.00000000000000000 ) ;
#72 = ORIENTED_EDGE ( 'NONE', *, *, #202, .F. ) ;
#73 = CC_DESIGN_PERSON_AND_ORGANIZATION_ASSIGNMENT ( #370, #46, ( #217 ) ) ;
#74 = VERTEX_POINT ( 'NONE', #229 ) ;
#75 = APPROVAL_STATUS ( 'not_yet_approved' ) ;
#76 = DIRECTION ( 'NONE',  ( -1.000000000000000000, 0.000000000000000000, 0.000000000000000000 ) ) ;
#77 = APPROVAL_DATE_TIME ( #101, #282 ) ;
#78 = CARTESIAN_POINT ( 'NONE',  ( 0.000000000000000000, 0.000000000000000000, 7.000000000000000000 ) ) ;
#79 = CC_DESIGN_APPROVAL ( #324, ( #246 ) ) ;
#80 = AXIS2_PLACEMENT_3D ( 'NONE', #208, #145, #325 ) ;
#81 = FACE_OUTER_BOUND ( 'NONE', #281, .T. ) ;
#82 = SECURITY_CLASSIFICATION_LEVEL ( 'unclassified' ) ;
#83 = EDGE_CURVE ( 'NONE', #332, #180, #115, .T. ) ;
#84 = DIRECTION ( 'NONE',  ( 1.000000000000000000, 0.000000000000000000, 0.000000000000000000 ) ) ;
#85 = CARTESIAN_POINT ( 'NONE',  ( -4.500000000000000000, 0.000000000000000000, 357.0000000000000000 ) ) ;
#86 = CC_DESIGN_DATE_AND_TIME_ASSIGNMENT ( #242, #97, ( #135 ) ) ;
#87 = VECTOR ( 'NONE', #212, 1000.000000000000000 ) ;
#88 = DESIGN_CONTEXT ( 'detailed design', #49, 'design' ) ;
#89 = DIRECTION ( 'NONE',  ( 1.000000000000000000, 0.000000000000000000, 0.000000000000000000 ) ) ;
#90 = DIRECTION ( 'NONE',  ( 0.000000000000000000, 0.000000000000000000, 1.000000000000000000 ) ) ;
#91 = AXIS2_PLACEMENT_3D ( 'NONE', #255, #289, #166 ) ;
#92 = DIRECTION ( 'NONE',  ( 1.000000000000000000, 0.000000000000000000, 0.000000000000000000 ) ) ;
#93 = EDGE_CURVE ( 'NONE', #311, #74, #344, .T. ) ;
#94 = FACE_BOUND ( 'NONE', #249, .T. ) ;
#95 = COORDINATED_UNIVERSAL_TIME_OFFSET ( 1, 0, .AHEAD. ) ;
#96 = AXIS2_PLACEMENT_3D ( 'NONE', #312, #259, #44 ) ;
#97 = DATE_TIME_ROLE ( 'creation_date' ) ;
#98 = ORIENTED_EDGE ( 'NONE', *, *, #103, .T. ) ;
#99 = CALENDAR_DATE ( 2022, 8, 7 ) ;
#100 = EDGE_LOOP ( 'NONE', ( #296, #159, #102, #33 ) ) ;
#101 = DATE_AND_TIME ( #1, #200 ) ;
#102 = ORIENTED_EDGE ( 'NONE', *, *, #238, .F. ) ;
#103 = EDGE_CURVE ( 'NONE', #219, #221, #374, .T. ) ;
#104 =( NAMED_UNIT ( * ) PLANE_ANGLE_UNIT ( ) SI_UNIT ( $, .RADIAN. ) );
#105 = ORIENTED_EDGE ( 'NONE', *, *, #257, .F. ) ;
#106 = ADVANCED_FACE ( 'NONE', ( #111 ), #198, .T. ) ;
#107 = CIRCLE ( 'NONE', #234, 10.00000000000000000 ) ;
#108 = ORIENTED_EDGE ( 'NONE', *, *, #335, .T. ) ;
#109 = DIRECTION ( 'NONE',  ( -0.000000000000000000, -0.000000000000000000, -1.000000000000000000 ) ) ;
#110 = DIRECTION ( 'NONE',  ( 0.000000000000000000, 0.000000000000000000, 1.000000000000000000 ) ) ;
#111 = FACE_OUTER_BOUND ( 'NONE', #10, .T. ) ;
#112 = APPROVAL_ROLE ( '' ) ;
#113 = CARTESIAN_POINT ( 'NONE',  ( -4.500000000000000000, 0.000000000000000000, 0.000000000000000000 ) ) ;
#114 = DIRECTION ( 'NONE',  ( -0.000000000000000000, -0.000000000000000000, -1.000000000000000000 ) ) ;
#115 = CIRCLE ( 'NONE', #143, 4.500000000000000000 ) ;
#116 = LINE ( 'NONE', #203, #150 ) ;
#117 = ORGANIZATION ( 'NEURÈENÝ', 'NEURÈENÝ', '' ) ;
#118 = LINE ( 'NONE', #326, #266 ) ;
#119 = DIRECTION ( 'NONE',  ( 1.000000000000000000, 0.000000000000000000, -0.000000000000000000 ) ) ;
#120 = ADVANCED_FACE ( 'NONE', ( #81 ), #22, .F. ) ;
#121 = DIRECTION ( 'NONE',  ( 1.000000000000000000, 0.000000000000000000, 0.000000000000000000 ) ) ;
#122 = AXIS2_PLACEMENT_3D ( 'NONE', #333, #275, #330 ) ;
#123 = DIRECTION ( 'NONE',  ( 1.000000000000000000, 0.000000000000000000, 0.000000000000000000 ) ) ;
#124 = DIRECTION ( 'NONE',  ( 0.000000000000000000, 0.000000000000000000, -1.000000000000000000 ) ) ;
#125 = EDGE_LOOP ( 'NONE', ( #152, #40, #8, #307 ) ) ;
#126 = AXIS2_PLACEMENT_3D ( 'NONE', #196, #291, #19 ) ;
#127 = PERSON_AND_ORGANIZATION_ROLE ( 'design_owner' ) ;
#128 = ORIENTED_EDGE ( 'NONE', *, *, #17, .F. ) ;
#129 = CC_DESIGN_APPROVAL ( #303, ( #135 ) ) ;
#130 = ORIENTED_EDGE ( 'NONE', *, *, #238, .T. ) ;
#131 = ORIENTED_EDGE ( 'NONE', *, *, #268, .T. ) ;
#132 = APPROVAL_ROLE ( '' ) ;
#133 = ORIENTED_EDGE ( 'NONE', *, *, #335, .F. ) ;
#134 = AXIS2_PLACEMENT_3D ( 'NONE', #235, #27, #89 ) ;
#135 = PRODUCT_DEFINITION ( 'NEZNÁMÝ', '', #217, #88 ) ;
#136 = FACE_OUTER_BOUND ( 'NONE', #241, .T. ) ;
#137 = CARTESIAN_POINT ( 'NONE',  ( -10.00000000000000000, 0.000000000000000000, 7.000000000000000000 ) ) ;
#138 = EDGE_CURVE ( 'NONE', #156, #7, #171, .T. ) ;
#139 = FACE_OUTER_BOUND ( 'NONE', #70, .T. ) ;
#140 = EDGE_CURVE ( 'NONE', #332, #7, #267, .T. ) ;
#141 = FACE_OUTER_BOUND ( 'NONE', #334, .T. ) ;
#142 = ORIENTED_EDGE ( 'NONE', *, *, #17, .T. ) ;
#143 = AXIS2_PLACEMENT_3D ( 'NONE', #12, #110, #316 ) ;
#144 = CARTESIAN_POINT ( 'NONE',  ( 6.700000000000001066, 0.000000000000000000, 6.999999999999992006 ) ) ;
#145 = DIRECTION ( 'NONE',  ( 0.000000000000000000, 0.000000000000000000, 1.000000000000000000 ) ) ;
#146 = DIRECTION ( 'NONE',  ( -1.000000000000000000, 0.000000000000000000, 0.000000000000000000 ) ) ;
#147 = ORIENTED_EDGE ( 'NONE', *, *, #362, .T. ) ;
#148 = AXIS2_PLACEMENT_3D ( 'NONE', #263, #13, #163 ) ;
#149 = EDGE_CURVE ( 'NONE', #67, #221, #116, .T. ) ;
#150 = VECTOR ( 'NONE', #28, 1000.000000000000000 ) ;
#151 = APPROVAL_DATE_TIME ( #211, #303 ) ;
#152 = ORIENTED_EDGE ( 'NONE', *, *, #93, .F. ) ;
#153 = COORDINATED_UNIVERSAL_TIME_OFFSET ( 1, 0, .AHEAD. ) ;
#154 = VERTEX_POINT ( 'NONE', #375 ) ;
#155 = LINE ( 'NONE', #185, #240 ) ;
#156 = VERTEX_POINT ( 'NONE', #323 ) ;
#157 = APPROVAL_PERSON_ORGANIZATION ( #314, #324, #112 ) ;
#158 = DIRECTION ( 'NONE',  ( 0.000000000000000000, 0.000000000000000000, -1.000000000000000000 ) ) ;
#159 = ORIENTED_EDGE ( 'NONE', *, *, #47, .T. ) ;
#160 = ORIENTED_EDGE ( 'NONE', *, *, #362, .F. ) ;
#161 = EDGE_CURVE ( 'NONE', #223, #361, #118, .T. ) ;
#162 = VECTOR ( 'NONE', #109, 1000.000000000000000 ) ;
#163 = DIRECTION ( 'NONE',  ( -1.000000000000000000, 0.000000000000000000, 0.000000000000000000 ) ) ;
#164 = LOCAL_TIME ( 16, 26, 28.00000000000000000, #95 ) ;
#165 = DIRECTION ( 'NONE',  ( -1.000000000000000000, 0.000000000000000000, 0.000000000000000000 ) ) ;
#166 = DIRECTION ( 'NONE',  ( 0.000000000000000000, 0.000000000000000000, -1.000000000000000000 ) ) ;
#167 = COORDINATED_UNIVERSAL_TIME_OFFSET ( 1, 0, .AHEAD. ) ;
#168 = DIRECTION ( 'NONE',  ( 1.000000000000000000, 0.000000000000000000, 0.000000000000000000 ) ) ;
#169 = APPROVAL_DATE_TIME ( #317, #324 ) ;
#170 = DIRECTION ( 'NONE',  ( -0.000000000000000000, -0.000000000000000000, -1.000000000000000000 ) ) ;
#171 = CIRCLE ( 'NONE', #193, 4.500000000000000000 ) ;
#172 = DIRECTION ( 'NONE',  ( 0.000000000000000000, 0.000000000000000000, 1.000000000000000000 ) ) ;
#173 = ADVANCED_FACE ( 'NONE', ( #377 ), #201, .F. ) ;
#174 = PLANE ( 'NONE',  #5 ) ;
#175 = CARTESIAN_POINT ( 'NONE',  ( -6.000000000000000888, 0.000000000000000000, 357.0000000000000000 ) ) ;
#176 = AXIS2_PLACEMENT_3D ( 'NONE', #236, #352, #92 ) ;
#177 = DIRECTION ( 'NONE',  ( -0.000000000000000000, -0.000000000000000000, -1.000000000000000000 ) ) ;
#178 = ORIENTED_EDGE ( 'NONE', *, *, #21, .T. ) ;
#179 = DIRECTION ( 'NONE',  ( -1.000000000000000000, 0.000000000000000000, 0.000000000000000000 ) ) ;
#180 = VERTEX_POINT ( 'NONE', #297 ) ;
#181 = CARTESIAN_POINT ( 'NONE',  ( 0.000000000000000000, 0.000000000000000000, 0.000000000000000000 ) ) ;
#182 = AXIS2_PLACEMENT_3D ( 'NONE', #181, #248, #355 ) ;
#183 = APPROVAL_STATUS ( 'not_yet_approved' ) ;
#184 = ORIENTED_EDGE ( 'NONE', *, *, #262, .F. ) ;
#185 = CARTESIAN_POINT ( 'NONE',  ( 4.500000000000000000, 5.510910596163088569E-16, 357.0000000000000000 ) ) ;
#186 = CALENDAR_DATE ( 2022, 8, 7 ) ;
#187 = ORIENTED_EDGE ( 'NONE', *, *, #138, .T. ) ;
#188 = AXIS2_PLACEMENT_3D ( 'NONE', #269, #378, #121 ) ;
#189 = PERSON_AND_ORGANIZATION ( #363, #117 ) ;
#190 = VERTEX_POINT ( 'NONE', #144 ) ;
#191 = FACE_BOUND ( 'NONE', #63, .T. ) ;
#192 = APPROVAL_PERSON_ORGANIZATION ( #66, #282, #304 ) ;
#193 = AXIS2_PLACEMENT_3D ( 'NONE', #315, #210, #351 ) ;
#194 = DIRECTION ( 'NONE',  ( 1.224646799147353207E-16, 1.000000000000000000, -0.000000000000000000 ) ) ;
#195 = PERSON_AND_ORGANIZATION ( #363, #117 ) ;
#196 = CARTESIAN_POINT ( 'NONE',  ( 0.000000000000000000, 0.000000000000000000, 7.699999999999985079 ) ) ;
#197 = PERSON_AND_ORGANIZATION ( #363, #117 ) ;
#198 = CYLINDRICAL_SURFACE ( 'NONE', #294, 6.000000000000000888 ) ;
#199 = UNCERTAINTY_MEASURE_WITH_UNIT (LENGTH_MEASURE( 1.000000000000000082E-05 ), #215, 'distance_accuracy_value', 'NONE');
#200 = LOCAL_TIME ( 16, 26, 28.00000000000000000, #153 ) ;
#201 = CYLINDRICAL_SURFACE ( 'NONE', #260, 4.500000000000000000 ) ;
#202 = EDGE_CURVE ( 'NONE', #67, #38, #107, .T. ) ;
#203 = CARTESIAN_POINT ( 'NONE',  ( 10.00000000000000000, 1.224646799147353256E-15, 7.000000000000000000 ) ) ;
#204 = CC_DESIGN_PERSON_AND_ORGANIZATION_ASSIGNMENT ( #195, #225, ( #217 ) ) ;
#205 = MANIFOLD_SOLID_BREP ( 'Odebrat vysunutím3', #207 ) ;
#206 = FACE_OUTER_BOUND ( 'NONE', #100, .T. ) ;
#207 = CLOSED_SHELL ( 'NONE', ( #173, #226, #106, #251, #2, #55, #230, #15, #31, #120, #321 ) ) ;
#208 = CARTESIAN_POINT ( 'NONE',  ( 0.000000000000000000, 0.000000000000000000, 7.699999999999985079 ) ) ;
#209 = LOCAL_TIME ( 16, 26, 28.00000000000000000, #252 ) ;
#210 = DIRECTION ( 'NONE',  ( -0.000000000000000000, -0.000000000000000000, -1.000000000000000000 ) ) ;
#211 = DATE_AND_TIME ( #99, #164 ) ;
#212 = DIRECTION ( 'NONE',  ( -0.000000000000000000, -0.000000000000000000, -1.000000000000000000 ) ) ;
#213 = ORIENTED_EDGE ( 'NONE', *, *, #83, .F. ) ;
#214 = CIRCLE ( 'NONE', #80, 6.000000000000000888 ) ;
#215 =( LENGTH_UNIT ( ) NAMED_UNIT ( * ) SI_UNIT ( .MILLI., .METRE. ) );
#216 = ORIENTED_EDGE ( 'NONE', *, *, #342, .F. ) ;
#217 = PRODUCT_DEFINITION_FORMATION_WITH_SPECIFIED_SOURCE ( 'LIBOVOLNÝ', '', #276, .NOT_KNOWN. ) ;
#218 = CYLINDRICAL_SURFACE ( 'NONE', #319, 4.500000000000000000 ) ;
#219 = VERTEX_POINT ( 'NONE', #62 ) ;
#220 = AXIS2_PLACEMENT_3D ( 'NONE', #368, #114, #348 ) ;
#221 = VERTEX_POINT ( 'NONE', #54 ) ;
#222 = EDGE_CURVE ( 'NONE', #361, #74, #359, .T. ) ;
#223 = VERTEX_POINT ( 'NONE', #175 ) ;
#224 = CARTESIAN_POINT ( 'NONE',  ( 0.000000000000000000, 0.000000000000000000, 357.0000000000000000 ) ) ;
#225 = PERSON_AND_ORGANIZATION_ROLE ( 'creator' ) ;
#226 = ADVANCED_FACE ( 'NONE', ( #206 ), #25, .F. ) ;
#227 = PRODUCT_DEFINITION_SHAPE ( 'NONE', 'NONE',  #135 ) ;
#228 = DIRECTION ( 'NONE',  ( -1.000000000000000000, 1.224646799147353454E-16, 0.000000000000000000 ) ) ;
#229 = CARTESIAN_POINT ( 'NONE',  ( 6.000000000000000888, 7.347880794884120722E-16, 7.699999999999985079 ) ) ;
#230 = ADVANCED_FACE ( 'NONE', ( #94, #59 ), #174, .F. ) ;
#231 = PLANE ( 'NONE',  #237 ) ;
#232 = CIRCLE ( 'NONE', #91, 0.7000000000000000666 ) ;
#233 = DIRECTION ( 'NONE',  ( 0.000000000000000000, 0.000000000000000000, 1.000000000000000000 ) ) ;
#234 = AXIS2_PLACEMENT_3D ( 'NONE', #23, #90, #270 ) ;
#235 = CARTESIAN_POINT ( 'NONE',  ( 0.000000000000000000, 0.000000000000000000, 7.699999999999985079 ) ) ;
#236 = CARTESIAN_POINT ( 'NONE',  ( 0.000000000000000000, 0.000000000000000000, 357.0000000000000000 ) ) ;
#237 = AXIS2_PLACEMENT_3D ( 'NONE', #256, #14, #16 ) ;
#238 = EDGE_CURVE ( 'NONE', #190, #154, #29, .T. ) ;
#239 = CARTESIAN_POINT ( 'NONE',  ( 6.000000000000000888, 7.347880794884120722E-16, 357.0000000000000000 ) ) ;
#240 = VECTOR ( 'NONE', #158, 1000.000000000000000 ) ;
#241 = EDGE_LOOP ( 'NONE', ( #142, #299 ) ) ;
#242 = DATE_AND_TIME ( #186, #345 ) ;
#243 = EDGE_CURVE ( 'NONE', #223, #311, #247, .T. ) ;
#244 = ORIENTED_EDGE ( 'NONE', *, *, #243, .T. ) ;
#245 = PERSON_AND_ORGANIZATION ( #363, #117 ) ;
#246 = SECURITY_CLASSIFICATION ( '', '', #82 ) ;
#247 = CIRCLE ( 'NONE', #285, 6.000000000000000888 ) ;
#248 = DIRECTION ( 'NONE',  ( 0.000000000000000000, 0.000000000000000000, 1.000000000000000000 ) ) ;
#249 = EDGE_LOOP ( 'NONE', ( #302, #337 ) ) ;
#250 = ORIENTED_EDGE ( 'NONE', *, *, #83, .T. ) ;
#251 = ADVANCED_FACE ( 'NONE', ( #141 ), #292, .T. ) ;
#252 = COORDINATED_UNIVERSAL_TIME_OFFSET ( 1, 0, .AHEAD. ) ;
#253 = ORIENTED_EDGE ( 'NONE', *, *, #161, .F. ) ;
#254 = AXIS2_PLACEMENT_3D ( 'NONE', #39, #358, #301 ) ;
#255 = CARTESIAN_POINT ( 'NONE',  ( 6.700000000000001066, 0.000000000000000000, 7.699999999999985079 ) ) ;
#256 = CARTESIAN_POINT ( 'NONE',  ( 0.000000000000000000, 0.000000000000000000, 357.0000000000000000 ) ) ;
#257 = EDGE_CURVE ( 'NONE', #74, #361, #214, .T. ) ;
#258 = AXIS2_PLACEMENT_3D ( 'NONE', #369, #318, #168 ) ;
#259 = DIRECTION ( 'NONE',  ( 0.000000000000000000, 0.000000000000000000, 1.000000000000000000 ) ) ;
#260 = AXIS2_PLACEMENT_3D ( 'NONE', #57, #322, #179 ) ;
#261 = CYLINDRICAL_SURFACE ( 'NONE', #148, 6.000000000000000888 ) ;
#262 = EDGE_CURVE ( 'NONE', #180, #332, #65, .T. ) ;
#263 = CARTESIAN_POINT ( 'NONE',  ( 0.000000000000000000, 0.000000000000000000, 357.0000000000000000 ) ) ;
#264 = CC_DESIGN_PERSON_AND_ORGANIZATION_ASSIGNMENT ( #197, #346, ( #246 ) ) ;
#265 = CARTESIAN_POINT ( 'NONE',  ( 0.000000000000000000, 0.000000000000000000, 7.000000000000000000 ) ) ;
#266 = VECTOR ( 'NONE', #177, 1000.000000000000000 ) ;
#267 = LINE ( 'NONE', #85, #278 ) ;
#268 = EDGE_CURVE ( 'NONE', #7, #156, #271, .T. ) ;
#269 = CARTESIAN_POINT ( 'NONE',  ( 0.000000000000000000, 0.000000000000000000, 0.000000000000000000 ) ) ;
#270 = DIRECTION ( 'NONE',  ( 1.000000000000000000, 0.000000000000000000, 0.000000000000000000 ) ) ;
#271 = CIRCLE ( 'NONE', #188, 4.500000000000000000 ) ;
#272 = PERSON_AND_ORGANIZATION_ROLE ( 'creator' ) ;
#273 = EDGE_LOOP ( 'NONE', ( #30, #133 ) ) ;
#274 = ORIENTED_EDGE ( 'NONE', *, *, #140, .F. ) ;
#275 = DIRECTION ( 'NONE',  ( 0.000000000000000000, 0.000000000000000000, 1.000000000000000000 ) ) ;
#276 = PRODUCT ( 'd710', 'd710', '', ( #68 ) ) ;
#277 = ORIENTED_EDGE ( 'NONE', *, *, #41, .F. ) ;
#278 = VECTOR ( 'NONE', #26, 1000.000000000000000 ) ;
#279 = ORIENTED_EDGE ( 'NONE', *, *, #140, .T. ) ;
#280 = PERSON_AND_ORGANIZATION ( #363, #117 ) ;
#281 = EDGE_LOOP ( 'NONE', ( #360, #105, #178, #277 ) ) ;
#282 = APPROVAL ( #183, 'NEURÈENÝ' ) ;
#283 = AXIS2_PLACEMENT_3D ( 'NONE', #372, #194, #228 ) ;
#284 = CARTESIAN_POINT ( 'NONE',  ( 10.00000000000000000, 1.224646799147353256E-15, 7.000000000000000000 ) ) ;
#285 = AXIS2_PLACEMENT_3D ( 'NONE', #320, #172, #293 ) ;
#286 = FACE_OUTER_BOUND ( 'NONE', #125, .T. ) ;
#287 = FACE_OUTER_BOUND ( 'NONE', #341, .T. ) ;
#288 = SHAPE_DEFINITION_REPRESENTATION ( #227, #61 ) ;
#289 = DIRECTION ( 'NONE',  ( 0.000000000000000000, -1.000000000000000000, 0.000000000000000000 ) ) ;
#290 = CALENDAR_DATE ( 2022, 8, 7 ) ;
#291 = DIRECTION ( 'NONE',  ( 0.000000000000000000, 0.000000000000000000, 1.000000000000000000 ) ) ;
#292 = CYLINDRICAL_SURFACE ( 'NONE', #354, 10.00000000000000000 ) ;
#293 = DIRECTION ( 'NONE',  ( 1.000000000000000000, 0.000000000000000000, 0.000000000000000000 ) ) ;
#294 = AXIS2_PLACEMENT_3D ( 'NONE', #224, #170, #76 ) ;
#295 = CARTESIAN_POINT ( 'NONE',  ( 0.000000000000000000, 0.000000000000000000, 7.000000000000000000 ) ) ;
#296 = ORIENTED_EDGE ( 'NONE', *, *, #222, .F. ) ;
#297 = CARTESIAN_POINT ( 'NONE',  ( 4.500000000000000000, 5.510910596163088569E-16, 357.0000000000000000 ) ) ;
#298 = PRODUCT_RELATED_PRODUCT_CATEGORY ( 'detail', '', ( #276 ) ) ;
#299 = ORIENTED_EDGE ( 'NONE', *, *, #202, .T. ) ;
#300 = CARTESIAN_POINT ( 'NONE',  ( 0.000000000000000000, 0.000000000000000000, 7.699999999999985079 ) ) ;
#301 = DIRECTION ( 'NONE',  ( 1.000000000000000000, 0.000000000000000000, 0.000000000000000000 ) ) ;
#302 = ORIENTED_EDGE ( 'NONE', *, *, #268, .F. ) ;
#303 = APPROVAL ( #9, 'NEURÈENÝ' ) ;
#304 = APPROVAL_ROLE ( '' ) ;
#305 = ORIENTED_EDGE ( 'NONE', *, *, #93, .T. ) ;
#306 = APPLICATION_PROTOCOL_DEFINITION ( 'international standard', 'config_control_design', 1994, #49 ) ;
#307 = ORIENTED_EDGE ( 'NONE', *, *, #222, .T. ) ;
#308 = EDGE_LOOP ( 'NONE', ( #69, #381, #279, #131 ) ) ;
#309 = AXIS2_PLACEMENT_3D ( 'NONE', #295, #56, #123 ) ;
#310 = CARTESIAN_POINT ( 'NONE',  ( 0.000000000000000000, 0.000000000000000000, 357.0000000000000000 ) ) ;
#311 = VERTEX_POINT ( 'NONE', #239 ) ;
#312 = CARTESIAN_POINT ( 'NONE',  ( 0.000000000000000000, 0.000000000000000000, 7.000000000000000000 ) ) ;
#313 = CIRCLE ( 'NONE', #258, 10.00000000000000000 ) ;
#314 = PERSON_AND_ORGANIZATION ( #363, #117 ) ;
#315 = CARTESIAN_POINT ( 'NONE',  ( 0.000000000000000000, 0.000000000000000000, 0.000000000000000000 ) ) ;
#316 = DIRECTION ( 'NONE',  ( 1.000000000000000000, 0.000000000000000000, 0.000000000000000000 ) ) ;
#317 = DATE_AND_TIME ( #43, #209 ) ;
#318 = DIRECTION ( 'NONE',  ( 0.000000000000000000, 0.000000000000000000, 1.000000000000000000 ) ) ;
#319 = AXIS2_PLACEMENT_3D ( 'NONE', #310, #124, #328 ) ;
#320 = CARTESIAN_POINT ( 'NONE',  ( 0.000000000000000000, 0.000000000000000000, 357.0000000000000000 ) ) ;
#321 = ADVANCED_FACE ( 'NONE', ( #353 ), #218, .F. ) ;
#322 = DIRECTION ( 'NONE',  ( 0.000000000000000000, 0.000000000000000000, -1.000000000000000000 ) ) ;
#323 = CARTESIAN_POINT ( 'NONE',  ( 4.500000000000000000, 5.510910596163088569E-16, 0.000000000000000000 ) ) ;
#324 = APPROVAL ( #75, 'NEURÈENÝ' ) ;
#325 = DIRECTION ( 'NONE',  ( 1.000000000000000000, 0.000000000000000000, 0.000000000000000000 ) ) ;
#326 = CARTESIAN_POINT ( 'NONE',  ( -6.000000000000000888, 0.000000000000000000, 357.0000000000000000 ) ) ;
#327 = EDGE_CURVE ( 'NONE', #180, #156, #155, .T. ) ;
#328 = DIRECTION ( 'NONE',  ( -1.000000000000000000, 0.000000000000000000, 0.000000000000000000 ) ) ;
#329 = CC_DESIGN_DATE_AND_TIME_ASSIGNMENT ( #50, #343, ( #246 ) ) ;
#330 = DIRECTION ( 'NONE',  ( 1.000000000000000000, 0.000000000000000000, 0.000000000000000000 ) ) ;
#331 = APPROVAL_PERSON_ORGANIZATION ( #280, #303, #132 ) ;
#332 = VERTEX_POINT ( 'NONE', #32 ) ;
#333 = CARTESIAN_POINT ( 'NONE',  ( 0.000000000000000000, 0.000000000000000000, 0.000000000000000000 ) ) ;
#334 = EDGE_LOOP ( 'NONE', ( #72, #356, #108, #216 ) ) ;
#335 = EDGE_CURVE ( 'NONE', #221, #219, #71, .T. ) ;
#336 = CARTESIAN_POINT ( 'NONE',  ( -10.00000000000000000, 0.000000000000000000, 7.000000000000000000 ) ) ;
#337 = ORIENTED_EDGE ( 'NONE', *, *, #138, .F. ) ;
#338 = APPLICATION_CONTEXT ( 'configuration controlled 3d designs of mechanical parts and assemblies' ) ;
#339 = CIRCLE ( 'NONE', #220, 6.700000000000001066 ) ;
#340 = ORIENTED_EDGE ( 'NONE', *, *, #257, .T. ) ;
#341 = EDGE_LOOP ( 'NONE', ( #244, #147 ) ) ;
#342 = EDGE_CURVE ( 'NONE', #38, #219, #380, .T. ) ;
#343 = DATE_TIME_ROLE ( 'classification_date' ) ;
#344 = LINE ( 'NONE', #347, #162 ) ;
#345 = LOCAL_TIME ( 16, 26, 28.00000000000000000, #34 ) ;
#346 = PERSON_AND_ORGANIZATION_ROLE ( 'classification_officer' ) ;
#347 = CARTESIAN_POINT ( 'NONE',  ( 6.000000000000000888, 7.347880794884120722E-16, 357.0000000000000000 ) ) ;
#348 = DIRECTION ( 'NONE',  ( 1.000000000000000000, 0.000000000000000000, 0.000000000000000000 ) ) ;
#349 = DIRECTION ( 'NONE',  ( 1.000000000000000000, 0.000000000000000000, 0.000000000000000000 ) ) ;
#350 = EDGE_LOOP ( 'NONE', ( #213, #184 ) ) ;
#351 = DIRECTION ( 'NONE',  ( 1.000000000000000000, 0.000000000000000000, 0.000000000000000000 ) ) ;
#352 = DIRECTION ( 'NONE',  ( 0.000000000000000000, 0.000000000000000000, 1.000000000000000000 ) ) ;
#353 = FACE_OUTER_BOUND ( 'NONE', #308, .T. ) ;
#354 = AXIS2_PLACEMENT_3D ( 'NONE', #265, #20, #146 ) ;
#355 = DIRECTION ( 'NONE',  ( 1.000000000000000000, 0.000000000000000000, 0.000000000000000000 ) ) ;
#356 = ORIENTED_EDGE ( 'NONE', *, *, #149, .T. ) ;
#357 = AXIS2_PLACEMENT_3D ( 'NONE', #45, #371, #84 ) ;
#358 = DIRECTION ( 'NONE',  ( 0.000000000000000000, 0.000000000000000000, 1.000000000000000000 ) ) ;
#359 = CIRCLE ( 'NONE', #53, 6.000000000000000888 ) ;
#360 = ORIENTED_EDGE ( 'NONE', *, *, #47, .F. ) ;
#361 = VERTEX_POINT ( 'NONE', #4 ) ;
#362 = EDGE_CURVE ( 'NONE', #311, #223, #367, .T. ) ;
#363 = PERSON ( 'NEURÈENÝ', 'NEURÈENÝ', 'NEURÈENÝ', ('NEURÈENÝ'), ('NEURÈENÝ'), ('NEURÈENÝ') ) ;
#364 = APPLICATION_PROTOCOL_DEFINITION ( 'international standard', 'config_control_design', 1994, #338 ) ;
#365 = ORIENTED_EDGE ( 'NONE', *, *, #342, .T. ) ;
#366 = EDGE_LOOP ( 'NONE', ( #250, #60, #187, #274 ) ) ;
#367 = CIRCLE ( 'NONE', #254, 6.000000000000000888 ) ;
#368 = CARTESIAN_POINT ( 'NONE',  ( 0.000000000000000000, 0.000000000000000000, 7.000000000000000000 ) ) ;
#369 = CARTESIAN_POINT ( 'NONE',  ( 0.000000000000000000, 0.000000000000000000, 7.000000000000000000 ) ) ;
#370 = PERSON_AND_ORGANIZATION ( #363, #117 ) ;
#371 = DIRECTION ( 'NONE',  ( 0.000000000000000000, 0.000000000000000000, 1.000000000000000000 ) ) ;
#372 = CARTESIAN_POINT ( 'NONE',  ( -6.700000000000001066, 8.205133554287267548E-16, 7.699999999999985079 ) ) ;
#373 = FACE_BOUND ( 'NONE', #350, .T. ) ;
#374 = CIRCLE ( 'NONE', #357, 10.00000000000000000 ) ;
#375 = CARTESIAN_POINT ( 'NONE',  ( -6.700000000000001066, 8.205133554287267548E-16, 6.999999999999992006 ) ) ;
#376 = CARTESIAN_POINT ( 'NONE',  ( 0.000000000000000000, 0.000000000000000000, 0.000000000000000000 ) ) ;
#377 = FACE_OUTER_BOUND ( 'NONE', #366, .T. ) ;
#378 = DIRECTION ( 'NONE',  ( -0.000000000000000000, -0.000000000000000000, -1.000000000000000000 ) ) ;
#379 = DIRECTION ( 'NONE',  ( 0.000000000000000000, 0.000000000000000000, 1.000000000000000000 ) ) ;
#380 = LINE ( 'NONE', #336, #87 ) ;
#381 = ORIENTED_EDGE ( 'NONE', *, *, #262, .T. ) ;
ENDSEC;
END-ISO-10303-21;
