ISO-10303-21;
HEADER;
FILE_DESCRIPTION (( 'STEP AP203' ),
    '1' );
FILE_NAME ('970f.STEP',
    '2022-07-08T15:55:03',
    ( '' ),
    ( '' ),
    'SwSTEP 2.0',
    'SolidWorks 2019',
    '' );
FILE_SCHEMA (( 'CONFIG_CONTROL_DESIGN' ));
ENDSEC;

DATA;
#1 = CC_DESIGN_PERSON_AND_ORGANIZATION_ASSIGNMENT ( #316, #283, ( #114 ) ) ;
#2 = CARTESIAN_POINT ( 'NONE',  ( 4.000000000000000000, 4.898587196589412829E-16, 0.000000000000000000 ) ) ;
#3 = AXIS2_PLACEMENT_3D ( 'NONE', #272, #7, #362 ) ;
#4 = CARTESIAN_POINT ( 'NONE',  ( 4.000000000000000000, 4.898587196589412829E-16, 3.000000000000000000 ) ) ;
#5 = EDGE_LOOP ( 'NONE', ( #318, #358, #133, #180 ) ) ;
#6 = CARTESIAN_POINT ( 'NONE',  ( -2.000000000000000000, 0.000000000000000000, 178.0000000000000000 ) ) ;
#7 = DIRECTION ( 'NONE',  ( -0.000000000000000000, -0.000000000000000000, -1.000000000000000000 ) ) ;
#8 = AXIS2_PLACEMENT_3D ( 'NONE', #322, #49, #138 ) ;
#9 = CARTESIAN_POINT ( 'NONE',  ( 0.000000000000000000, 0.000000000000000000, 3.000000000000000000 ) ) ;
#10 = ORIENTED_EDGE ( 'NONE', *, *, #27, .T. ) ;
#11 = VERTEX_POINT ( 'NONE', #168 ) ;
#12 = CLOSED_SHELL ( 'NONE', ( #378, #247, #73, #266, #154, #372, #117, #192, #345, #57, #22 ) ) ;
#13 = PERSON ( 'NEURÈENÝ', 'NEURÈENÝ', 'NEURÈENÝ', ('NEURÈENÝ'), ('NEURÈENÝ'), ('NEURÈENÝ') ) ;
#14 = APPLICATION_CONTEXT ( 'configuration controlled 3d designs of mechanical parts and assemblies' ) ;
#15 = CALENDAR_DATE ( 2022, 8, 7 ) ;
#16 = DIRECTION ( 'NONE',  ( 1.224646799147353207E-16, 1.000000000000000000, -0.000000000000000000 ) ) ;
#17 = VECTOR ( 'NONE', #64, 1000.000000000000000 ) ;
#18 = CARTESIAN_POINT ( 'NONE',  ( 0.000000000000000000, 0.000000000000000000, 0.000000000000000000 ) ) ;
#19 = LOCAL_TIME ( 17, 55, 3.000000000000000000, #141 ) ;
#20 = DATE_AND_TIME ( #165, #351 ) ;
#21 = DIRECTION ( 'NONE',  ( -1.000000000000000000, 0.000000000000000000, 0.000000000000000000 ) ) ;
#22 = ADVANCED_FACE ( 'NONE', ( #23 ), #260, .F. ) ;
#23 = FACE_OUTER_BOUND ( 'NONE', #5, .T. ) ;
#24 = DIRECTION ( 'NONE',  ( 1.000000000000000000, 0.000000000000000000, 0.000000000000000000 ) ) ;
#25 = CARTESIAN_POINT ( 'NONE',  ( -4.000000000000000000, 0.000000000000000000, 3.000000000000000000 ) ) ;
#26 = DIRECTION ( 'NONE',  ( -0.000000000000000000, -0.000000000000000000, -1.000000000000000000 ) ) ;
#27 = EDGE_CURVE ( 'NONE', #103, #251, #129, .T. ) ;
#28 = DIRECTION ( 'NONE',  ( -1.000000000000000000, 0.000000000000000000, 0.000000000000000000 ) ) ;
#29 = CARTESIAN_POINT ( 'NONE',  ( 1.000000000000000000, 1.224646799147353207E-16, 178.0000000000000000 ) ) ;
#30 = ORIENTED_EDGE ( 'NONE', *, *, #127, .T. ) ;
#31 = FACE_OUTER_BOUND ( 'NONE', #239, .T. ) ;
#32 = EDGE_CURVE ( 'NONE', #251, #70, #136, .T. ) ;
#33 = CARTESIAN_POINT ( 'NONE',  ( 2.000000000000000000, 2.449293598294706414E-16, 178.0000000000000000 ) ) ;
#34 = ORIENTED_EDGE ( 'NONE', *, *, #67, .F. ) ;
#35 = AXIS2_PLACEMENT_3D ( 'NONE', #287, #346, #194 ) ;
#36 = LINE ( 'NONE', #125, #17 ) ;
#37 = APPLICATION_CONTEXT ( 'configuration controlled 3d designs of mechanical parts and assemblies' ) ;
#38 =( LENGTH_UNIT ( ) NAMED_UNIT ( * ) SI_UNIT ( .MILLI., .METRE. ) );
#39 = ORIENTED_EDGE ( 'NONE', *, *, #98, .T. ) ;
#40 = DIRECTION ( 'NONE',  ( -0.000000000000000000, -0.000000000000000000, -1.000000000000000000 ) ) ;
#41 = ORIENTED_EDGE ( 'NONE', *, *, #285, .F. ) ;
#42 = CIRCLE ( 'NONE', #241, 2.000000000000000000 ) ;
#43 = DIRECTION ( 'NONE',  ( 0.000000000000000000, 0.000000000000000000, -1.000000000000000000 ) ) ;
#44 = EDGE_CURVE ( 'NONE', #343, #282, #215, .T. ) ;
#45 = DATE_AND_TIME ( #319, #19 ) ;
#46 = VERTEX_POINT ( 'NONE', #257 ) ;
#47 = PERSON_AND_ORGANIZATION_ROLE ( 'classification_officer' ) ;
#48 = APPROVAL_ROLE ( '' ) ;
#49 = DIRECTION ( 'NONE',  ( 0.000000000000000000, 0.000000000000000000, 1.000000000000000000 ) ) ;
#50 = APPROVAL_ROLE ( '' ) ;
#51 = PERSON_AND_ORGANIZATION_ROLE ( 'creator' ) ;
#52 = EDGE_CURVE ( 'NONE', #320, #343, #188, .T. ) ;
#53 = CIRCLE ( 'NONE', #278, 2.000000000000000000 ) ;
#54 = APPROVAL ( #227, 'NEURÈENÝ' ) ;
#55 = CC_DESIGN_APPROVAL ( #54, ( #296 ) ) ;
#56 = DIRECTION ( 'NONE',  ( -0.000000000000000000, -0.000000000000000000, -1.000000000000000000 ) ) ;
#57 = ADVANCED_FACE ( 'NONE', ( #264 ), #349, .F. ) ;
#58 = DIRECTION ( 'NONE',  ( 1.000000000000000000, 0.000000000000000000, 0.000000000000000000 ) ) ;
#59 = DIRECTION ( 'NONE',  ( 1.000000000000000000, 0.000000000000000000, 0.000000000000000000 ) ) ;
#60 = DIRECTION ( 'NONE',  ( 0.000000000000000000, 0.000000000000000000, 1.000000000000000000 ) ) ;
#61 = AXIS2_PLACEMENT_3D ( 'NONE', #9, #363, #71 ) ;
#62 = DIRECTION ( 'NONE',  ( 1.000000000000000000, 0.000000000000000000, 0.000000000000000000 ) ) ;
#63 = ORIENTED_EDGE ( 'NONE', *, *, #361, .F. ) ;
#64 = DIRECTION ( 'NONE',  ( -0.000000000000000000, -0.000000000000000000, -1.000000000000000000 ) ) ;
#65 = DIRECTION ( 'NONE',  ( 1.000000000000000000, 0.000000000000000000, 0.000000000000000000 ) ) ;
#66 = ORIENTED_EDGE ( 'NONE', *, *, #175, .F. ) ;
#67 = EDGE_CURVE ( 'NONE', #211, #46, #342, .T. ) ;
#68 = AXIS2_PLACEMENT_3D ( 'NONE', #203, #325, #58 ) ;
#69 = CYLINDRICAL_SURFACE ( 'NONE', #177, 1.000000000000000000 ) ;
#70 = VERTEX_POINT ( 'NONE', #116 ) ;
#71 = DIRECTION ( 'NONE',  ( 1.000000000000000000, 0.000000000000000000, -0.000000000000000000 ) ) ;
#72 = ORIENTED_EDGE ( 'NONE', *, *, #208, .T. ) ;
#73 = ADVANCED_FACE ( 'NONE', ( #200 ), #161, .T. ) ;
#74 = CARTESIAN_POINT ( 'NONE',  ( -2.299999999999999822, 2.816687638038912056E-16, 2.999999999999998668 ) ) ;
#75 = VECTOR ( 'NONE', #196, 1000.000000000000000 ) ;
#76 = DIRECTION ( 'NONE',  ( 0.000000000000000000, 0.000000000000000000, 1.000000000000000000 ) ) ;
#77 = ORIENTED_EDGE ( 'NONE', *, *, #185, .T. ) ;
#78 = PERSON_AND_ORGANIZATION ( #13, #242 ) ;
#79 = APPROVAL ( #134, 'NEURÈENÝ' ) ;
#80 = COORDINATED_UNIVERSAL_TIME_OFFSET ( 1, 0, .AHEAD. ) ;
#81 = DIRECTION ( 'NONE',  ( 0.000000000000000000, 0.000000000000000000, -1.000000000000000000 ) ) ;
#82 = CIRCLE ( 'NONE', #176, 1.000000000000000000 ) ;
#83 = CIRCLE ( 'NONE', #155, 4.000000000000000000 ) ;
#84 =( GEOMETRIC_REPRESENTATION_CONTEXT ( 3 ) GLOBAL_UNCERTAINTY_ASSIGNED_CONTEXT ( ( #198 ) ) GLOBAL_UNIT_ASSIGNED_CONTEXT ( ( #38, #221, #308 ) ) REPRESENTATION_CONTEXT ( 'NONE', 'WORKASPACE' ) );
#85 = MECHANICAL_CONTEXT ( 'NONE', #37, 'mechanical' ) ;
#86 = VERTEX_POINT ( 'NONE', #29 ) ;
#87 = DIRECTION ( 'NONE',  ( -1.000000000000000000, 0.000000000000000000, 0.000000000000000000 ) ) ;
#88 = CARTESIAN_POINT ( 'NONE',  ( -4.000000000000000000, 0.000000000000000000, 3.000000000000000000 ) ) ;
#89 = EDGE_CURVE ( 'NONE', #368, #91, #42, .T. ) ;
#90 = DIRECTION ( 'NONE',  ( 0.000000000000000000, 0.000000000000000000, 1.000000000000000000 ) ) ;
#91 = VERTEX_POINT ( 'NONE', #267 ) ;
#92 = EDGE_CURVE ( 'NONE', #46, #211, #182, .T. ) ;
#93 = PLANE ( 'NONE',  #224 ) ;
#94 = AXIS2_PLACEMENT_3D ( 'NONE', #258, #173, #28 ) ;
#95 = AXIS2_PLACEMENT_3D ( 'NONE', #18, #76, #24 ) ;
#96 = ORIENTED_EDGE ( 'NONE', *, *, #140, .F. ) ;
#97 = DIRECTION ( 'NONE',  ( 1.000000000000000000, 0.000000000000000000, 0.000000000000000000 ) ) ;
#98 = EDGE_CURVE ( 'NONE', #91, #343, #270, .T. ) ;
#99 = VERTEX_POINT ( 'NONE', #271 ) ;
#100 = CARTESIAN_POINT ( 'NONE',  ( 2.000000000000000000, 2.449293598294706414E-16, 3.299999999999997158 ) ) ;
#101 = CIRCLE ( 'NONE', #317, 0.2999999999999999334 ) ;
#102 = DIRECTION ( 'NONE',  ( 1.000000000000000000, 0.000000000000000000, 0.000000000000000000 ) ) ;
#103 = VERTEX_POINT ( 'NONE', #4 ) ;
#104 = LINE ( 'NONE', #131, #250 ) ;
#105 = DIRECTION ( 'NONE',  ( -1.000000000000000000, 0.000000000000000000, 0.000000000000000000 ) ) ;
#106 = AXIS2_PLACEMENT_3D ( 'NONE', #380, #16, #229 ) ;
#107 = EDGE_CURVE ( 'NONE', #343, #320, #231, .T. ) ;
#108 = COORDINATED_UNIVERSAL_TIME_OFFSET ( 1, 0, .AHEAD. ) ;
#109 = CARTESIAN_POINT ( 'NONE',  ( 0.000000000000000000, 0.000000000000000000, 3.299999999999997158 ) ) ;
#110 = APPROVAL_DATE_TIME ( #321, #79 ) ;
#111 = EDGE_LOOP ( 'NONE', ( #364, #30, #280, #201 ) ) ;
#112 = APPROVAL_DATE_TIME ( #167, #190 ) ;
#113 = ORIENTED_EDGE ( 'NONE', *, *, #92, .T. ) ;
#114 = PRODUCT_DEFINITION_FORMATION_WITH_SPECIFIED_SOURCE ( 'LIBOVOLNÝ', '', #186, .NOT_KNOWN. ) ;
#115 = APPROVAL_STATUS ( 'not_yet_approved' ) ;
#116 = CARTESIAN_POINT ( 'NONE',  ( -4.000000000000000000, 0.000000000000000000, 0.000000000000000000 ) ) ;
#117 = ADVANCED_FACE ( 'NONE', ( #178, #31 ), #93, .F. ) ;
#118 = DIRECTION ( 'NONE',  ( 1.000000000000000000, 0.000000000000000000, 0.000000000000000000 ) ) ;
#119 = CARTESIAN_POINT ( 'NONE',  ( 1.000000000000000000, 1.224646799147353207E-16, 178.0000000000000000 ) ) ;
#120 = DIRECTION ( 'NONE',  ( 1.000000000000000000, 0.000000000000000000, 0.000000000000000000 ) ) ;
#121 = DIRECTION ( 'NONE',  ( -0.000000000000000000, -0.000000000000000000, -1.000000000000000000 ) ) ;
#122 = CC_DESIGN_PERSON_AND_ORGANIZATION_ASSIGNMENT ( #78, #51, ( #147 ) ) ;
#123 = AXIS2_PLACEMENT_3D ( 'NONE', #234, #26, #97 ) ;
#124 = EDGE_CURVE ( 'NONE', #11, #282, #162, .T. ) ;
#125 = CARTESIAN_POINT ( 'NONE',  ( 2.000000000000000000, 2.449293598294706414E-16, 178.0000000000000000 ) ) ;
#126 = DIRECTION ( 'NONE',  ( 0.000000000000000000, 0.000000000000000000, 1.000000000000000000 ) ) ;
#127 = EDGE_CURVE ( 'NONE', #103, #225, #238, .T. ) ;
#128 = DIRECTION ( 'NONE',  ( 1.000000000000000000, 0.000000000000000000, -0.000000000000000000 ) ) ;
#129 = CIRCLE ( 'NONE', #8, 4.000000000000000000 ) ;
#130 = ORIENTED_EDGE ( 'NONE', *, *, #208, .F. ) ;
#131 = CARTESIAN_POINT ( 'NONE',  ( -1.000000000000000000, 0.000000000000000000, 178.0000000000000000 ) ) ;
#132 = ORIENTED_EDGE ( 'NONE', *, *, #44, .T. ) ;
#133 = ORIENTED_EDGE ( 'NONE', *, *, #291, .T. ) ;
#134 = APPROVAL_STATUS ( 'not_yet_approved' ) ;
#135 = PERSON_AND_ORGANIZATION ( #13, #242 ) ;
#136 = LINE ( 'NONE', #25, #75 ) ;
#137 = PRODUCT_DEFINITION_SHAPE ( 'NONE', 'NONE',  #147 ) ;
#138 = DIRECTION ( 'NONE',  ( 1.000000000000000000, 0.000000000000000000, 0.000000000000000000 ) ) ;
#139 = EDGE_LOOP ( 'NONE', ( #41, #96, #39, #204 ) ) ;
#140 = EDGE_CURVE ( 'NONE', #91, #368, #53, .T. ) ;
#141 = COORDINATED_UNIVERSAL_TIME_OFFSET ( 1, 0, .AHEAD. ) ;
#142 = CARTESIAN_POINT ( 'NONE',  ( 0.000000000000000000, 0.000000000000000000, 178.0000000000000000 ) ) ;
#143 = CARTESIAN_POINT ( 'NONE',  ( 0.000000000000000000, 0.000000000000000000, 0.000000000000000000 ) ) ;
#144 = VECTOR ( 'NONE', #179, 1000.000000000000000 ) ;
#145 = LOCAL_TIME ( 17, 55, 3.000000000000000000, #80 ) ;
#146 = CARTESIAN_POINT ( 'NONE',  ( 0.000000000000000000, 0.000000000000000000, 0.000000000000000000 ) ) ;
#147 = PRODUCT_DEFINITION ( 'NEZNÁMÝ', '', #114, #152 ) ;
#148 = CARTESIAN_POINT ( 'NONE',  ( 0.000000000000000000, 0.000000000000000000, 178.0000000000000000 ) ) ;
#149 = CARTESIAN_POINT ( 'NONE',  ( 4.000000000000000000, 4.898587196589412829E-16, 3.000000000000000000 ) ) ;
#150 = CARTESIAN_POINT ( 'NONE',  ( 0.000000000000000000, 0.000000000000000000, 3.000000000000000000 ) ) ;
#151 = ORIENTED_EDGE ( 'NONE', *, *, #305, .F. ) ;
#152 = DESIGN_CONTEXT ( 'detailed design', #14, 'design' ) ;
#153 = FACE_OUTER_BOUND ( 'NONE', #174, .T. ) ;
#154 = ADVANCED_FACE ( 'NONE', ( #206 ), #303, .T. ) ;
#155 = AXIS2_PLACEMENT_3D ( 'NONE', #183, #276, #102 ) ;
#156 = ORIENTED_EDGE ( 'NONE', *, *, #89, .F. ) ;
#157 = CC_DESIGN_SECURITY_CLASSIFICATION ( #296, ( #114 ) ) ;
#158 = FACE_OUTER_BOUND ( 'NONE', #331, .T. ) ;
#159 = CALENDAR_DATE ( 2022, 8, 7 ) ;
#160 = DATE_TIME_ROLE ( 'creation_date' ) ;
#161 = CYLINDRICAL_SURFACE ( 'NONE', #94, 2.000000000000000000 ) ;
#162 = CIRCLE ( 'NONE', #306, 2.299999999999999822 ) ;
#163 = PERSON_AND_ORGANIZATION ( #13, #242 ) ;
#164 = DIRECTION ( 'NONE',  ( 1.000000000000000000, 0.000000000000000000, 0.000000000000000000 ) ) ;
#165 = CALENDAR_DATE ( 2022, 8, 7 ) ;
#166 = ORIENTED_EDGE ( 'NONE', *, *, #299, .F. ) ;
#167 = DATE_AND_TIME ( #159, #145 ) ;
#168 = CARTESIAN_POINT ( 'NONE',  ( 2.299999999999999822, 0.000000000000000000, 2.999999999999998668 ) ) ;
#169 = AXIS2_PLACEMENT_3D ( 'NONE', #146, #265, #327 ) ;
#170 = DIRECTION ( 'NONE',  ( 0.000000000000000000, 0.000000000000000000, -1.000000000000000000 ) ) ;
#171 = ORIENTED_EDGE ( 'NONE', *, *, #291, .F. ) ;
#172 = ADVANCED_BREP_SHAPE_REPRESENTATION ( '970f', ( #324, #95 ), #84 ) ;
#173 = DIRECTION ( 'NONE',  ( -0.000000000000000000, -0.000000000000000000, -1.000000000000000000 ) ) ;
#174 = EDGE_LOOP ( 'NONE', ( #334, #77, #113, #171 ) ) ;
#175 = EDGE_CURVE ( 'NONE', #282, #11, #273, .T. ) ;
#176 = AXIS2_PLACEMENT_3D ( 'NONE', #337, #249, #65 ) ;
#177 = AXIS2_PLACEMENT_3D ( 'NONE', #307, #279, #281 ) ;
#178 = FACE_BOUND ( 'NONE', #244, .T. ) ;
#179 = DIRECTION ( 'NONE',  ( -0.000000000000000000, -0.000000000000000000, -1.000000000000000000 ) ) ;
#180 = ORIENTED_EDGE ( 'NONE', *, *, #67, .T. ) ;
#181 = FACE_OUTER_BOUND ( 'NONE', #253, .T. ) ;
#182 = CIRCLE ( 'NONE', #169, 1.000000000000000000 ) ;
#183 = CARTESIAN_POINT ( 'NONE',  ( 0.000000000000000000, 0.000000000000000000, 0.000000000000000000 ) ) ;
#184 = FACE_BOUND ( 'NONE', #189, .T. ) ;
#185 = EDGE_CURVE ( 'NONE', #86, #46, #212, .T. ) ;
#186 = PRODUCT ( '970f', '970f', '', ( #85 ) ) ;
#187 = DIRECTION ( 'NONE',  ( 0.000000000000000000, 0.000000000000000000, -1.000000000000000000 ) ) ;
#188 = CIRCLE ( 'NONE', #197, 2.000000000000000000 ) ;
#189 = EDGE_LOOP ( 'NONE', ( #275, #371 ) ) ;
#190 = APPROVAL ( #115, 'NEURÈENÝ' ) ;
#191 = COORDINATED_UNIVERSAL_TIME_OFFSET ( 1, 0, .AHEAD. ) ;
#192 = ADVANCED_FACE ( 'NONE', ( #297 ), #381, .T. ) ;
#193 = PERSON_AND_ORGANIZATION ( #13, #242 ) ;
#194 = DIRECTION ( 'NONE',  ( 1.000000000000000000, 0.000000000000000000, 0.000000000000000000 ) ) ;
#195 = PERSON_AND_ORGANIZATION_ROLE ( 'design_owner' ) ;
#196 = DIRECTION ( 'NONE',  ( -0.000000000000000000, -0.000000000000000000, -1.000000000000000000 ) ) ;
#197 = AXIS2_PLACEMENT_3D ( 'NONE', #259, #375, #164 ) ;
#198 = UNCERTAINTY_MEASURE_WITH_UNIT (LENGTH_MEASURE( 1.000000000000000082E-05 ), #38, 'distance_accuracy_value', 'NONE');
#199 = COORDINATED_UNIVERSAL_TIME_OFFSET ( 1, 0, .AHEAD. ) ;
#200 = FACE_OUTER_BOUND ( 'NONE', #255, .T. ) ;
#201 = ORIENTED_EDGE ( 'NONE', *, *, #32, .F. ) ;
#202 = AXIS2_PLACEMENT_3D ( 'NONE', #205, #326, #59 ) ;
#203 = CARTESIAN_POINT ( 'NONE',  ( 0.000000000000000000, 0.000000000000000000, 3.000000000000000000 ) ) ;
#204 = ORIENTED_EDGE ( 'NONE', *, *, #107, .T. ) ;
#205 = CARTESIAN_POINT ( 'NONE',  ( 0.000000000000000000, 0.000000000000000000, 3.299999999999997158 ) ) ;
#206 = FACE_OUTER_BOUND ( 'NONE', #340, .T. ) ;
#207 = ORIENTED_EDGE ( 'NONE', *, *, #107, .F. ) ;
#208 = EDGE_CURVE ( 'NONE', #251, #103, #360, .T. ) ;
#209 = AXIS2_PLACEMENT_3D ( 'NONE', #365, #126, #213 ) ;
#210 = CARTESIAN_POINT ( 'NONE',  ( 0.000000000000000000, 0.000000000000000000, 3.000000000000000000 ) ) ;
#211 = VERTEX_POINT ( 'NONE', #298 ) ;
#212 = LINE ( 'NONE', #119, #323 ) ;
#213 = DIRECTION ( 'NONE',  ( 1.000000000000000000, 0.000000000000000000, 0.000000000000000000 ) ) ;
#214 = ORIENTED_EDGE ( 'NONE', *, *, #354, .F. ) ;
#215 = CIRCLE ( 'NONE', #106, 0.2999999999999999334 ) ;
#216 = PRODUCT_RELATED_PRODUCT_CATEGORY ( 'detail', '', ( #186 ) ) ;
#217 = ORIENTED_EDGE ( 'NONE', *, *, #127, .F. ) ;
#218 = PLANE ( 'NONE',  #61 ) ;
#219 = ORIENTED_EDGE ( 'NONE', *, *, #140, .T. ) ;
#220 = CC_DESIGN_PERSON_AND_ORGANIZATION_ASSIGNMENT ( #135, #195, ( #186 ) ) ;
#221 =( NAMED_UNIT ( * ) PLANE_ANGLE_UNIT ( ) SI_UNIT ( $, .RADIAN. ) );
#222 = ORIENTED_EDGE ( 'NONE', *, *, #354, .T. ) ;
#223 = PERSON_AND_ORGANIZATION ( #13, #242 ) ;
#224 = AXIS2_PLACEMENT_3D ( 'NONE', #143, #330, #302 ) ;
#225 = VERTEX_POINT ( 'NONE', #2 ) ;
#226 = APPROVAL_PERSON_ORGANIZATION ( #347, #190, #50 ) ;
#227 = APPROVAL_STATUS ( 'not_yet_approved' ) ;
#228 = DIRECTION ( 'NONE',  ( 0.000000000000000000, 0.000000000000000000, 1.000000000000000000 ) ) ;
#229 = DIRECTION ( 'NONE',  ( -1.000000000000000000, 1.224646799147353207E-16, 0.000000000000000000 ) ) ;
#230 = CC_DESIGN_PERSON_AND_ORGANIZATION_ASSIGNMENT ( #193, #47, ( #296 ) ) ;
#231 = CIRCLE ( 'NONE', #295, 2.000000000000000000 ) ;
#232 = APPROVAL_PERSON_ORGANIZATION ( #223, #79, #48 ) ;
#233 = ORIENTED_EDGE ( 'NONE', *, *, #32, .T. ) ;
#234 = CARTESIAN_POINT ( 'NONE',  ( 0.000000000000000000, 0.000000000000000000, 3.000000000000000000 ) ) ;
#235 = AXIS2_PLACEMENT_3D ( 'NONE', #252, #339, #274 ) ;
#236 = CC_DESIGN_APPROVAL ( #79, ( #147 ) ) ;
#237 = FACE_OUTER_BOUND ( 'NONE', #338, .T. ) ;
#238 = LINE ( 'NONE', #149, #144 ) ;
#239 = EDGE_LOOP ( 'NONE', ( #214, #151 ) ) ;
#240 = CARTESIAN_POINT ( 'NONE',  ( 0.000000000000000000, 0.000000000000000000, 3.299999999999997158 ) ) ;
#241 = AXIS2_PLACEMENT_3D ( 'NONE', #148, #300, #62 ) ;
#242 = ORGANIZATION ( 'NEURÈENÝ', 'NEURÈENÝ', '' ) ;
#243 = DIRECTION ( 'NONE',  ( 0.000000000000000000, 0.000000000000000000, 1.000000000000000000 ) ) ;
#244 = EDGE_LOOP ( 'NONE', ( #34, #248 ) ) ;
#245 = CC_DESIGN_DATE_AND_TIME_ASSIGNMENT ( #290, #293, ( #296 ) ) ;
#246 = PLANE ( 'NONE',  #335 ) ;
#247 = ADVANCED_FACE ( 'NONE', ( #237 ), #269, .F. ) ;
#248 = ORIENTED_EDGE ( 'NONE', *, *, #92, .F. ) ;
#249 = DIRECTION ( 'NONE',  ( 0.000000000000000000, 0.000000000000000000, 1.000000000000000000 ) ) ;
#250 = VECTOR ( 'NONE', #187, 1000.000000000000000 ) ;
#251 = VERTEX_POINT ( 'NONE', #88 ) ;
#252 = CARTESIAN_POINT ( 'NONE',  ( 0.000000000000000000, 0.000000000000000000, 178.0000000000000000 ) ) ;
#253 = EDGE_LOOP ( 'NONE', ( #219, #292 ) ) ;
#254 = FACE_BOUND ( 'NONE', #313, .T. ) ;
#255 = EDGE_LOOP ( 'NONE', ( #156, #366, #328, #341 ) ) ;
#256 = SECURITY_CLASSIFICATION_LEVEL ( 'unclassified' ) ;
#257 = CARTESIAN_POINT ( 'NONE',  ( 1.000000000000000000, 1.224646799147353207E-16, 0.000000000000000000 ) ) ;
#258 = CARTESIAN_POINT ( 'NONE',  ( 0.000000000000000000, 0.000000000000000000, 178.0000000000000000 ) ) ;
#259 = CARTESIAN_POINT ( 'NONE',  ( 0.000000000000000000, 0.000000000000000000, 3.299999999999997158 ) ) ;
#260 = CYLINDRICAL_SURFACE ( 'NONE', #329, 1.000000000000000000 ) ;
#261 = AXIS2_PLACEMENT_3D ( 'NONE', #109, #228, #376 ) ;
#262 = LOCAL_TIME ( 17, 55, 3.000000000000000000, #191 ) ;
#263 = PERSON_AND_ORGANIZATION_ROLE ( 'design_supplier' ) ;
#264 = FACE_OUTER_BOUND ( 'NONE', #268, .T. ) ;
#265 = DIRECTION ( 'NONE',  ( -0.000000000000000000, -0.000000000000000000, -1.000000000000000000 ) ) ;
#266 = ADVANCED_FACE ( 'NONE', ( #309 ), #332, .T. ) ;
#267 = CARTESIAN_POINT ( 'NONE',  ( -2.000000000000000000, 0.000000000000000000, 178.0000000000000000 ) ) ;
#268 = EDGE_LOOP ( 'NONE', ( #277, #310, #350, #66 ) ) ;
#269 = TOROIDAL_SURFACE ( 'NONE', #202, 2.299999999999999822, 0.2999999999999999889 ) ;
#270 = LINE ( 'NONE', #6, #301 ) ;
#271 = CARTESIAN_POINT ( 'NONE',  ( -1.000000000000000000, 0.000000000000000000, 178.0000000000000000 ) ) ;
#272 = CARTESIAN_POINT ( 'NONE',  ( 0.000000000000000000, 0.000000000000000000, 3.000000000000000000 ) ) ;
#273 = CIRCLE ( 'NONE', #123, 2.299999999999999822 ) ;
#274 = DIRECTION ( 'NONE',  ( 1.000000000000000000, 0.000000000000000000, 0.000000000000000000 ) ) ;
#275 = ORIENTED_EDGE ( 'NONE', *, *, #124, .T. ) ;
#276 = DIRECTION ( 'NONE',  ( 0.000000000000000000, 0.000000000000000000, 1.000000000000000000 ) ) ;
#277 = ORIENTED_EDGE ( 'NONE', *, *, #44, .F. ) ;
#278 = AXIS2_PLACEMENT_3D ( 'NONE', #357, #90, #118 ) ;
#279 = DIRECTION ( 'NONE',  ( 0.000000000000000000, 0.000000000000000000, -1.000000000000000000 ) ) ;
#280 = ORIENTED_EDGE ( 'NONE', *, *, #305, .T. ) ;
#281 = DIRECTION ( 'NONE',  ( -1.000000000000000000, 0.000000000000000000, 0.000000000000000000 ) ) ;
#282 = VERTEX_POINT ( 'NONE', #74 ) ;
#283 = PERSON_AND_ORGANIZATION_ROLE ( 'creator' ) ;
#284 = ORIENTED_EDGE ( 'NONE', *, *, #124, .F. ) ;
#285 = EDGE_CURVE ( 'NONE', #368, #320, #36, .T. ) ;
#286 = CIRCLE ( 'NONE', #209, 4.000000000000000000 ) ;
#287 = CARTESIAN_POINT ( 'NONE',  ( 0.000000000000000000, 0.000000000000000000, 0.000000000000000000 ) ) ;
#288 = APPROVAL_PERSON_ORGANIZATION ( #374, #54, #289 ) ;
#289 = APPROVAL_ROLE ( '' ) ;
#290 = DATE_AND_TIME ( #344, #336 ) ;
#291 = EDGE_CURVE ( 'NONE', #99, #211, #104, .T. ) ;
#292 = ORIENTED_EDGE ( 'NONE', *, *, #89, .T. ) ;
#293 = DATE_TIME_ROLE ( 'classification_date' ) ;
#294 = CARTESIAN_POINT ( 'NONE',  ( 0.000000000000000000, 0.000000000000000000, 178.0000000000000000 ) ) ;
#295 = AXIS2_PLACEMENT_3D ( 'NONE', #240, #60, #359 ) ;
#296 = SECURITY_CLASSIFICATION ( '', '', #256 ) ;
#297 = FACE_OUTER_BOUND ( 'NONE', #139, .T. ) ;
#298 = CARTESIAN_POINT ( 'NONE',  ( -1.000000000000000000, 0.000000000000000000, 0.000000000000000000 ) ) ;
#299 = EDGE_CURVE ( 'NONE', #86, #99, #377, .T. ) ;
#300 = DIRECTION ( 'NONE',  ( 0.000000000000000000, 0.000000000000000000, 1.000000000000000000 ) ) ;
#301 = VECTOR ( 'NONE', #121, 1000.000000000000000 ) ;
#302 = DIRECTION ( 'NONE',  ( 1.000000000000000000, 0.000000000000000000, -0.000000000000000000 ) ) ;
#303 = CYLINDRICAL_SURFACE ( 'NONE', #3, 4.000000000000000000 ) ;
#304 = CARTESIAN_POINT ( 'NONE',  ( 2.299999999999999822, 0.000000000000000000, 3.299999999999997158 ) ) ;
#305 = EDGE_CURVE ( 'NONE', #225, #70, #286, .T. ) ;
#306 = AXIS2_PLACEMENT_3D ( 'NONE', #210, #56, #120 ) ;
#307 = CARTESIAN_POINT ( 'NONE',  ( 0.000000000000000000, 0.000000000000000000, 178.0000000000000000 ) ) ;
#308 =( NAMED_UNIT ( * ) SI_UNIT ( $, .STERADIAN. ) SOLID_ANGLE_UNIT ( ) );
#309 = FACE_OUTER_BOUND ( 'NONE', #111, .T. ) ;
#310 = ORIENTED_EDGE ( 'NONE', *, *, #52, .F. ) ;
#311 = CARTESIAN_POINT ( 'NONE',  ( -2.000000000000000000, 0.000000000000000000, 3.299999999999997158 ) ) ;
#312 = CC_DESIGN_APPROVAL ( #190, ( #114 ) ) ;
#313 = EDGE_LOOP ( 'NONE', ( #63, #166 ) ) ;
#314 = ORIENTED_EDGE ( 'NONE', *, *, #352, .F. ) ;
#315 = APPROVAL_DATE_TIME ( #20, #54 ) ;
#316 = PERSON_AND_ORGANIZATION ( #13, #242 ) ;
#317 = AXIS2_PLACEMENT_3D ( 'NONE', #304, #333, #43 ) ;
#318 = ORIENTED_EDGE ( 'NONE', *, *, #185, .F. ) ;
#319 = CALENDAR_DATE ( 2022, 8, 7 ) ;
#320 = VERTEX_POINT ( 'NONE', #100 ) ;
#321 = DATE_AND_TIME ( #15, #262 ) ;
#322 = CARTESIAN_POINT ( 'NONE',  ( 0.000000000000000000, 0.000000000000000000, 3.000000000000000000 ) ) ;
#323 = VECTOR ( 'NONE', #170, 1000.000000000000000 ) ;
#324 = MANIFOLD_SOLID_BREP ( 'Odebrat vysunutím3', #12 ) ;
#325 = DIRECTION ( 'NONE',  ( 0.000000000000000000, 0.000000000000000000, 1.000000000000000000 ) ) ;
#326 = DIRECTION ( 'NONE',  ( 0.000000000000000000, 0.000000000000000000, 1.000000000000000000 ) ) ;
#327 = DIRECTION ( 'NONE',  ( 1.000000000000000000, 0.000000000000000000, 0.000000000000000000 ) ) ;
#328 = ORIENTED_EDGE ( 'NONE', *, *, #52, .T. ) ;
#329 = AXIS2_PLACEMENT_3D ( 'NONE', #294, #81, #21 ) ;
#330 = DIRECTION ( 'NONE',  ( 0.000000000000000000, 0.000000000000000000, 1.000000000000000000 ) ) ;
#331 = EDGE_LOOP ( 'NONE', ( #72, #10 ) ) ;
#332 = CYLINDRICAL_SURFACE ( 'NONE', #355, 4.000000000000000000 ) ;
#333 = DIRECTION ( 'NONE',  ( 0.000000000000000000, -1.000000000000000000, 0.000000000000000000 ) ) ;
#334 = ORIENTED_EDGE ( 'NONE', *, *, #361, .T. ) ;
#335 = AXIS2_PLACEMENT_3D ( 'NONE', #367, #243, #128 ) ;
#336 = LOCAL_TIME ( 17, 55, 3.000000000000000000, #199 ) ;
#337 = CARTESIAN_POINT ( 'NONE',  ( 0.000000000000000000, 0.000000000000000000, 178.0000000000000000 ) ) ;
#338 = EDGE_LOOP ( 'NONE', ( #207, #132, #284, #314 ) ) ;
#339 = DIRECTION ( 'NONE',  ( 0.000000000000000000, 0.000000000000000000, 1.000000000000000000 ) ) ;
#340 = EDGE_LOOP ( 'NONE', ( #217, #130, #233, #222 ) ) ;
#341 = ORIENTED_EDGE ( 'NONE', *, *, #98, .F. ) ;
#342 = CIRCLE ( 'NONE', #35, 1.000000000000000000 ) ;
#343 = VERTEX_POINT ( 'NONE', #311 ) ;
#344 = CALENDAR_DATE ( 2022, 8, 7 ) ;
#345 = ADVANCED_FACE ( 'NONE', ( #254, #181 ), #246, .T. ) ;
#346 = DIRECTION ( 'NONE',  ( -0.000000000000000000, -0.000000000000000000, -1.000000000000000000 ) ) ;
#347 = PERSON_AND_ORGANIZATION ( #13, #242 ) ;
#348 = APPLICATION_PROTOCOL_DEFINITION ( 'international standard', 'config_control_design', 1994, #14 ) ;
#349 = TOROIDAL_SURFACE ( 'NONE', #261, 2.299999999999999822, 0.2999999999999999889 ) ;
#350 = ORIENTED_EDGE ( 'NONE', *, *, #352, .T. ) ;
#351 = LOCAL_TIME ( 17, 55, 3.000000000000000000, #108 ) ;
#352 = EDGE_CURVE ( 'NONE', #320, #11, #101, .T. ) ;
#353 = DIRECTION ( 'NONE',  ( -0.000000000000000000, -0.000000000000000000, -1.000000000000000000 ) ) ;
#354 = EDGE_CURVE ( 'NONE', #70, #225, #83, .T. ) ;
#355 = AXIS2_PLACEMENT_3D ( 'NONE', #150, #40, #105 ) ;
#356 = CC_DESIGN_PERSON_AND_ORGANIZATION_ASSIGNMENT ( #163, #263, ( #114 ) ) ;
#357 = CARTESIAN_POINT ( 'NONE',  ( 0.000000000000000000, 0.000000000000000000, 178.0000000000000000 ) ) ;
#358 = ORIENTED_EDGE ( 'NONE', *, *, #299, .T. ) ;
#359 = DIRECTION ( 'NONE',  ( 1.000000000000000000, 0.000000000000000000, 0.000000000000000000 ) ) ;
#360 = CIRCLE ( 'NONE', #68, 4.000000000000000000 ) ;
#361 = EDGE_CURVE ( 'NONE', #99, #86, #82, .T. ) ;
#362 = DIRECTION ( 'NONE',  ( -1.000000000000000000, 0.000000000000000000, 0.000000000000000000 ) ) ;
#363 = DIRECTION ( 'NONE',  ( 0.000000000000000000, 0.000000000000000000, 1.000000000000000000 ) ) ;
#364 = ORIENTED_EDGE ( 'NONE', *, *, #27, .F. ) ;
#365 = CARTESIAN_POINT ( 'NONE',  ( 0.000000000000000000, 0.000000000000000000, 0.000000000000000000 ) ) ;
#366 = ORIENTED_EDGE ( 'NONE', *, *, #285, .T. ) ;
#367 = CARTESIAN_POINT ( 'NONE',  ( 0.000000000000000000, 0.000000000000000000, 178.0000000000000000 ) ) ;
#368 = VERTEX_POINT ( 'NONE', #33 ) ;
#369 = CC_DESIGN_DATE_AND_TIME_ASSIGNMENT ( #45, #160, ( #147 ) ) ;
#370 = APPLICATION_PROTOCOL_DEFINITION ( 'international standard', 'config_control_design', 1994, #37 ) ;
#371 = ORIENTED_EDGE ( 'NONE', *, *, #175, .T. ) ;
#372 = ADVANCED_FACE ( 'NONE', ( #184, #158 ), #218, .T. ) ;
#373 = AXIS2_PLACEMENT_3D ( 'NONE', #142, #353, #87 ) ;
#374 = PERSON_AND_ORGANIZATION ( #13, #242 ) ;
#375 = DIRECTION ( 'NONE',  ( 0.000000000000000000, 0.000000000000000000, 1.000000000000000000 ) ) ;
#376 = DIRECTION ( 'NONE',  ( 1.000000000000000000, 0.000000000000000000, 0.000000000000000000 ) ) ;
#377 = CIRCLE ( 'NONE', #235, 1.000000000000000000 ) ;
#378 = ADVANCED_FACE ( 'NONE', ( #153 ), #69, .F. ) ;
#379 = SHAPE_DEFINITION_REPRESENTATION ( #137, #172 ) ;
#380 = CARTESIAN_POINT ( 'NONE',  ( -2.299999999999999822, 2.816687638038912056E-16, 3.299999999999997158 ) ) ;
#381 = CYLINDRICAL_SURFACE ( 'NONE', #373, 2.000000000000000000 ) ;
ENDSEC;
END-ISO-10303-21;
