ISO-10303-21;
HEADER;
FILE_DESCRIPTION (( 'STEP AP203' ),
    '1' );
FILE_NAME ('1d3c.STEP',
    '2022-07-08T15:28:23',
    ( '' ),
    ( '' ),
    'SwSTEP 2.0',
    'SolidWorks 2019',
    '' );
FILE_SCHEMA (( 'CONFIG_CONTROL_DESIGN' ));
ENDSEC;

DATA;
#1 = EDGE_CURVE ( 'NONE', #137, #176, #375, .T. ) ;
#2 = DIRECTION ( 'NONE',  ( 1.000000000000000000, 0.000000000000000000, 0.000000000000000000 ) ) ;
#3 = AXIS2_PLACEMENT_3D ( 'NONE', #72, #9, #192 ) ;
#4 = DIRECTION ( 'NONE',  ( 1.000000000000000000, 0.000000000000000000, 0.000000000000000000 ) ) ;
#5 = CC_DESIGN_DATE_AND_TIME_ASSIGNMENT ( #379, #116, ( #128 ) ) ;
#6 = AXIS2_PLACEMENT_3D ( 'NONE', #178, #282, #37 ) ;
#7 = DIRECTION ( 'NONE',  ( 1.000000000000000000, 0.000000000000000000, 0.000000000000000000 ) ) ;
#8 = DATE_AND_TIME ( #177, #114 ) ;
#9 = DIRECTION ( 'NONE',  ( 0.000000000000000000, 0.000000000000000000, -1.000000000000000000 ) ) ;
#10 = CARTESIAN_POINT ( 'NONE',  ( 4.000000000000000000, 4.898587196589412829E-16, 155.0000000000000000 ) ) ;
#11 = ORIENTED_EDGE ( 'NONE', *, *, #233, .T. ) ;
#12 = AXIS2_PLACEMENT_3D ( 'NONE', #326, #27, #144 ) ;
#13 = DIRECTION ( 'NONE',  ( 0.000000000000000000, 0.000000000000000000, 1.000000000000000000 ) ) ;
#14 = FACE_BOUND ( 'NONE', #156, .T. ) ;
#15 = AXIS2_PLACEMENT_3D ( 'NONE', #361, #276, #4 ) ;
#16 =( NAMED_UNIT ( * ) SI_UNIT ( $, .STERADIAN. ) SOLID_ANGLE_UNIT ( ) );
#17 = DIRECTION ( 'NONE',  ( -0.000000000000000000, -0.000000000000000000, -1.000000000000000000 ) ) ;
#18 = ADVANCED_FACE ( 'NONE', ( #98 ), #223, .T. ) ;
#19 = CARTESIAN_POINT ( 'NONE',  ( 0.000000000000000000, 0.000000000000000000, 0.000000000000000000 ) ) ;
#20 = APPLICATION_CONTEXT ( 'configuration controlled 3d designs of mechanical parts and assemblies' ) ;
#21 = CYLINDRICAL_SURFACE ( 'NONE', #180, 4.000000000000000000 ) ;
#22 = DIRECTION ( 'NONE',  ( -0.000000000000000000, -0.000000000000000000, -1.000000000000000000 ) ) ;
#23 = AXIS2_PLACEMENT_3D ( 'NONE', #253, #284, #230 ) ;
#24 = VERTEX_POINT ( 'NONE', #101 ) ;
#25 = DIRECTION ( 'NONE',  ( 1.000000000000000000, 0.000000000000000000, 0.000000000000000000 ) ) ;
#26 = FACE_OUTER_BOUND ( 'NONE', #256, .T. ) ;
#27 = DIRECTION ( 'NONE',  ( 0.000000000000000000, 0.000000000000000000, 1.000000000000000000 ) ) ;
#28 = CALENDAR_DATE ( 2022, 8, 7 ) ;
#29 = CC_DESIGN_APPROVAL ( #118, ( #359 ) ) ;
#30 = DIRECTION ( 'NONE',  ( -0.000000000000000000, -0.000000000000000000, -1.000000000000000000 ) ) ;
#31 = ADVANCED_FACE ( 'NONE', ( #337 ), #89, .F. ) ;
#32 = ORIENTED_EDGE ( 'NONE', *, *, #40, .T. ) ;
#33 = LINE ( 'NONE', #121, #209 ) ;
#34 = ORIENTED_EDGE ( 'NONE', *, *, #109, .T. ) ;
#35 = APPROVAL_DATE_TIME ( #8, #118 ) ;
#36 = CC_DESIGN_SECURITY_CLASSIFICATION ( #359, ( #154 ) ) ;
#37 = DIRECTION ( 'NONE',  ( 1.000000000000000000, 0.000000000000000000, 0.000000000000000000 ) ) ;
#38 =( LENGTH_UNIT ( ) NAMED_UNIT ( * ) SI_UNIT ( .MILLI., .METRE. ) );
#39 = FACE_OUTER_BOUND ( 'NONE', #334, .T. ) ;
#40 = EDGE_CURVE ( 'NONE', #363, #142, #228, .T. ) ;
#41 = DIRECTION ( 'NONE',  ( 0.000000000000000000, 0.000000000000000000, 1.000000000000000000 ) ) ;
#42 = PERSON_AND_ORGANIZATION_ROLE ( 'design_owner' ) ;
#43 = DIRECTION ( 'NONE',  ( -0.000000000000000000, -0.000000000000000000, -1.000000000000000000 ) ) ;
#44 = CARTESIAN_POINT ( 'NONE',  ( 2.100000000000000089, 2.571758278209441957E-16, 0.000000000000000000 ) ) ;
#45 = DIRECTION ( 'NONE',  ( 0.000000000000000000, 0.000000000000000000, 1.000000000000000000 ) ) ;
#46 = AXIS2_PLACEMENT_3D ( 'NONE', #348, #259, #257 ) ;
#47 = CARTESIAN_POINT ( 'NONE',  ( 0.000000000000000000, 0.000000000000000000, 155.0000000000000000 ) ) ;
#48 = ADVANCED_FACE ( 'NONE', ( #14, #159 ), #355, .T. ) ;
#49 = APPROVAL_PERSON_ORGANIZATION ( #173, #289, #347 ) ;
#50 = ADVANCED_FACE ( 'NONE', ( #275 ), #244, .F. ) ;
#51 = ORIENTED_EDGE ( 'NONE', *, *, #285, .F. ) ;
#52 = CYLINDRICAL_SURFACE ( 'NONE', #338, 7.000000000000000000 ) ;
#53 = ORIENTED_EDGE ( 'NONE', *, *, #369, .T. ) ;
#54 = ORIENTED_EDGE ( 'NONE', *, *, #207, .F. ) ;
#55 = CIRCLE ( 'NONE', #171, 2.100000000000000089 ) ;
#56 = DIRECTION ( 'NONE',  ( -1.000000000000000000, 0.000000000000000000, 0.000000000000000000 ) ) ;
#57 = DATE_TIME_ROLE ( 'classification_date' ) ;
#58 = ORIENTED_EDGE ( 'NONE', *, *, #370, .T. ) ;
#59 = PERSON_AND_ORGANIZATION ( #112, #196 ) ;
#60 = DIRECTION ( 'NONE',  ( 1.000000000000000000, 0.000000000000000000, 0.000000000000000000 ) ) ;
#61 = DIRECTION ( 'NONE',  ( -0.000000000000000000, -0.000000000000000000, -1.000000000000000000 ) ) ;
#62 = ORIENTED_EDGE ( 'NONE', *, *, #285, .T. ) ;
#63 = AXIS2_PLACEMENT_3D ( 'NONE', #294, #30, #349 ) ;
#64 = CARTESIAN_POINT ( 'NONE',  ( 0.000000000000000000, 0.000000000000000000, 155.0000000000000000 ) ) ;
#65 = CARTESIAN_POINT ( 'NONE',  ( 0.000000000000000000, 0.000000000000000000, 5.500000000000005329 ) ) ;
#66 = ORIENTED_EDGE ( 'NONE', *, *, #238, .F. ) ;
#67 = COORDINATED_UNIVERSAL_TIME_OFFSET ( 1, 0, .AHEAD. ) ;
#68 = DIRECTION ( 'NONE',  ( 0.000000000000000000, 0.000000000000000000, 1.000000000000000000 ) ) ;
#69 = LINE ( 'NONE', #155, #336 ) ;
#70 = ORIENTED_EDGE ( 'NONE', *, *, #369, .F. ) ;
#71 = DIRECTION ( 'NONE',  ( 0.000000000000000000, 0.000000000000000000, -1.000000000000000000 ) ) ;
#72 = CARTESIAN_POINT ( 'NONE',  ( 0.000000000000000000, 0.000000000000000000, 155.0000000000000000 ) ) ;
#73 = AXIS2_PLACEMENT_3D ( 'NONE', #185, #61, #333 ) ;
#74 = PERSON_AND_ORGANIZATION ( #112, #196 ) ;
#75 = AXIS2_PLACEMENT_3D ( 'NONE', #19, #106, #136 ) ;
#76 = LINE ( 'NONE', #339, #295 ) ;
#77 = DESIGN_CONTEXT ( 'detailed design', #20, 'design' ) ;
#78 = EDGE_CURVE ( 'NONE', #142, #327, #69, .T. ) ;
#79 = DIRECTION ( 'NONE',  ( 1.000000000000000000, 0.000000000000000000, 0.000000000000000000 ) ) ;
#80 = APPROVAL ( #199, 'NEURÈENÝ' ) ;
#81 =( NAMED_UNIT ( * ) PLANE_ANGLE_UNIT ( ) SI_UNIT ( $, .RADIAN. ) );
#82 = EDGE_CURVE ( 'NONE', #186, #151, #165, .T. ) ;
#83 = PERSON_AND_ORGANIZATION ( #112, #196 ) ;
#84 = DIRECTION ( 'NONE',  ( 0.000000000000000000, 0.000000000000000000, -1.000000000000000000 ) ) ;
#85 = AXIS2_PLACEMENT_3D ( 'NONE', #127, #41, #225 ) ;
#86 = EDGE_CURVE ( 'NONE', #176, #153, #322, .T. ) ;
#87 = CYLINDRICAL_SURFACE ( 'NONE', #63, 7.000000000000000000 ) ;
#88 = PERSON_AND_ORGANIZATION_ROLE ( 'creator' ) ;
#89 = TOROIDAL_SURFACE ( 'NONE', #195, 4.500000000000000888, 0.5000000000000000000 ) ;
#90 = ORIENTED_EDGE ( 'NONE', *, *, #152, .T. ) ;
#91 = AXIS2_PLACEMENT_3D ( 'NONE', #262, #290, #140 ) ;
#92 = VERTEX_POINT ( 'NONE', #10 ) ;
#93 = COORDINATED_UNIVERSAL_TIME_OFFSET ( 1, 0, .AHEAD. ) ;
#94 = DIRECTION ( 'NONE',  ( 0.000000000000000000, -1.000000000000000000, 0.000000000000000000 ) ) ;
#95 = CARTESIAN_POINT ( 'NONE',  ( 0.000000000000000000, 0.000000000000000000, 155.0000000000000000 ) ) ;
#96 = EDGE_LOOP ( 'NONE', ( #298, #265, #123, #360 ) ) ;
#97 = CC_DESIGN_DATE_AND_TIME_ASSIGNMENT ( #328, #57, ( #359 ) ) ;
#98 = FACE_OUTER_BOUND ( 'NONE', #315, .T. ) ;
#99 = ORIENTED_EDGE ( 'NONE', *, *, #215, .T. ) ;
#100 = CARTESIAN_POINT ( 'NONE',  ( 0.000000000000000000, 0.000000000000000000, 0.000000000000000000 ) ) ;
#101 = CARTESIAN_POINT ( 'NONE',  ( -4.500000000000000888, 5.510910596163088569E-16, 5.000000000000002665 ) ) ;
#102 = CIRCLE ( 'NONE', #235, 7.000000000000000000 ) ;
#103 = DIRECTION ( 'NONE',  ( 1.000000000000000000, 0.000000000000000000, 0.000000000000000000 ) ) ;
#104 = CARTESIAN_POINT ( 'NONE',  ( -4.000000000000000000, 0.000000000000000000, 5.500000000000005329 ) ) ;
#105 = EDGE_CURVE ( 'NONE', #272, #137, #309, .T. ) ;
#106 = DIRECTION ( 'NONE',  ( -0.000000000000000000, -0.000000000000000000, -1.000000000000000000 ) ) ;
#107 = AXIS2_PLACEMENT_3D ( 'NONE', #306, #43, #7 ) ;
#108 = TOROIDAL_SURFACE ( 'NONE', #126, 4.500000000000000888, 0.5000000000000000000 ) ;
#109 = EDGE_CURVE ( 'NONE', #92, #272, #130, .T. ) ;
#110 = CARTESIAN_POINT ( 'NONE',  ( 4.000000000000000000, 4.898587196589412829E-16, 155.0000000000000000 ) ) ;
#111 = ORIENTED_EDGE ( 'NONE', *, *, #1, .T. ) ;
#112 = PERSON ( 'NEURÈENÝ', 'NEURÈENÝ', 'NEURÈENÝ', ('NEURÈENÝ'), ('NEURÈENÝ'), ('NEURÈENÝ') ) ;
#113 = FACE_OUTER_BOUND ( 'NONE', #296, .T. ) ;
#114 = LOCAL_TIME ( 17, 28, 23.00000000000000000, #93 ) ;
#115 = EDGE_CURVE ( 'NONE', #272, #92, #280, .T. ) ;
#116 = DATE_TIME_ROLE ( 'creation_date' ) ;
#117 = ORIENTED_EDGE ( 'NONE', *, *, #82, .T. ) ;
#118 = APPROVAL ( #270, 'NEURÈENÝ' ) ;
#119 = DIRECTION ( 'NONE',  ( 1.000000000000000000, 0.000000000000000000, 0.000000000000000000 ) ) ;
#120 = SHAPE_DEFINITION_REPRESENTATION ( #313, #181 ) ;
#121 = CARTESIAN_POINT ( 'NONE',  ( 2.100000000000000089, 2.571758278209441957E-16, 155.0000000000000000 ) ) ;
#122 = ORIENTED_EDGE ( 'NONE', *, *, #78, .F. ) ;
#123 = ORIENTED_EDGE ( 'NONE', *, *, #78, .T. ) ;
#124 = CIRCLE ( 'NONE', #46, 7.000000000000000000 ) ;
#125 = ORIENTED_EDGE ( 'NONE', *, *, #215, .F. ) ;
#126 = AXIS2_PLACEMENT_3D ( 'NONE', #194, #45, #2 ) ;
#127 = CARTESIAN_POINT ( 'NONE',  ( 0.000000000000000000, 0.000000000000000000, 5.000000000000000000 ) ) ;
#128 = PRODUCT_DEFINITION ( 'NEZNÁMÝ', '', #154, #77 ) ;
#129 = CYLINDRICAL_SURFACE ( 'NONE', #341, 2.100000000000000089 ) ;
#130 = CIRCLE ( 'NONE', #344, 4.000000000000000000 ) ;
#131 = DIRECTION ( 'NONE',  ( 0.000000000000000000, 0.000000000000000000, 1.000000000000000000 ) ) ;
#132 = CIRCLE ( 'NONE', #229, 4.500000000000000888 ) ;
#133 = CARTESIAN_POINT ( 'NONE',  ( -2.100000000000000089, 0.000000000000000000, 0.000000000000000000 ) ) ;
#134 = CARTESIAN_POINT ( 'NONE',  ( 0.000000000000000000, 0.000000000000000000, 155.0000000000000000 ) ) ;
#135 = MECHANICAL_CONTEXT ( 'NONE', #380, 'mechanical' ) ;
#136 = DIRECTION ( 'NONE',  ( 1.000000000000000000, 0.000000000000000000, 0.000000000000000000 ) ) ;
#137 = VERTEX_POINT ( 'NONE', #104 ) ;
#138 = APPROVAL_PERSON_ORGANIZATION ( #83, #80, #288 ) ;
#139 = COORDINATED_UNIVERSAL_TIME_OFFSET ( 1, 0, .AHEAD. ) ;
#140 = DIRECTION ( 'NONE',  ( 1.000000000000000000, 0.000000000000000000, -0.000000000000000000 ) ) ;
#141 = EDGE_CURVE ( 'NONE', #363, #248, #76, .T. ) ;
#142 = VERTEX_POINT ( 'NONE', #314 ) ;
#143 = CARTESIAN_POINT ( 'NONE',  ( 0.000000000000000000, 0.000000000000000000, 5.000000000000000000 ) ) ;
#144 = DIRECTION ( 'NONE',  ( 1.000000000000000000, 0.000000000000000000, 0.000000000000000000 ) ) ;
#145 = APPROVAL_PERSON_ORGANIZATION ( #350, #118, #274 ) ;
#146 = DATE_AND_TIME ( #28, #191 ) ;
#147 = CARTESIAN_POINT ( 'NONE',  ( 7.000000000000000000, 8.572527594031473190E-16, 0.000000000000000000 ) ) ;
#148 = EDGE_LOOP ( 'NONE', ( #149, #278, #219, #111 ) ) ;
#149 = ORIENTED_EDGE ( 'NONE', *, *, #217, .F. ) ;
#150 = FACE_BOUND ( 'NONE', #297, .T. ) ;
#151 = VERTEX_POINT ( 'NONE', #44 ) ;
#152 = EDGE_CURVE ( 'NONE', #137, #24, #162, .T. ) ;
#153 = VERTEX_POINT ( 'NONE', #342 ) ;
#154 = PRODUCT_DEFINITION_FORMATION_WITH_SPECIFIED_SOURCE ( 'LIBOVOLNÝ', '', #311, .NOT_KNOWN. ) ;
#155 = CARTESIAN_POINT ( 'NONE',  ( -7.000000000000000000, 0.000000000000000000, 5.000000000000000000 ) ) ;
#156 = EDGE_LOOP ( 'NONE', ( #51, #54 ) ) ;
#157 = CIRCLE ( 'NONE', #167, 2.100000000000000089 ) ;
#158 = DIRECTION ( 'NONE',  ( 1.000000000000000000, 0.000000000000000000, -0.000000000000000000 ) ) ;
#159 = FACE_OUTER_BOUND ( 'NONE', #357, .T. ) ;
#160 = APPLICATION_PROTOCOL_DEFINITION ( 'international standard', 'config_control_design', 1994, #20 ) ;
#161 = FACE_OUTER_BOUND ( 'NONE', #148, .T. ) ;
#162 = CIRCLE ( 'NONE', #304, 0.5000000000000004441 ) ;
#163 = CARTESIAN_POINT ( 'NONE',  ( -4.500000000000000888, 5.510910596163089556E-16, 5.500000000000005329 ) ) ;
#164 = ORIENTED_EDGE ( 'NONE', *, *, #207, .T. ) ;
#165 = CIRCLE ( 'NONE', #107, 2.100000000000000089 ) ;
#166 = CARTESIAN_POINT ( 'NONE',  ( -2.100000000000000089, 0.000000000000000000, 155.0000000000000000 ) ) ;
#167 = AXIS2_PLACEMENT_3D ( 'NONE', #331, #13, #60 ) ;
#168 = DIRECTION ( 'NONE',  ( 0.000000000000000000, 0.000000000000000000, 1.000000000000000000 ) ) ;
#169 = ORIENTED_EDGE ( 'NONE', *, *, #202, .F. ) ;
#170 = DIRECTION ( 'NONE',  ( -0.000000000000000000, -0.000000000000000000, -1.000000000000000000 ) ) ;
#171 = AXIS2_PLACEMENT_3D ( 'NONE', #47, #131, #252 ) ;
#172 = EDGE_LOOP ( 'NONE', ( #240, #90, #125, #307 ) ) ;
#173 = PERSON_AND_ORGANIZATION ( #112, #196 ) ;
#174 = EDGE_LOOP ( 'NONE', ( #175, #70, #200, #378 ) ) ;
#175 = ORIENTED_EDGE ( 'NONE', *, *, #152, .F. ) ;
#176 = VERTEX_POINT ( 'NONE', #249 ) ;
#177 = CALENDAR_DATE ( 2022, 8, 7 ) ;
#178 = CARTESIAN_POINT ( 'NONE',  ( 0.000000000000000000, 0.000000000000000000, 5.000000000000000000 ) ) ;
#179 = DIRECTION ( 'NONE',  ( 0.000000000000000000, 0.000000000000000000, 1.000000000000000000 ) ) ;
#180 = AXIS2_PLACEMENT_3D ( 'NONE', #134, #22, #373 ) ;
#181 = ADVANCED_BREP_SHAPE_REPRESENTATION ( '1d3c', ( #205, #283 ), #246 ) ;
#182 = ORIENTED_EDGE ( 'NONE', *, *, #238, .T. ) ;
#183 = DIRECTION ( 'NONE',  ( -1.000000000000000000, 0.000000000000000000, 0.000000000000000000 ) ) ;
#184 = ADVANCED_FACE ( 'NONE', ( #161 ), #21, .T. ) ;
#185 = CARTESIAN_POINT ( 'NONE',  ( 0.000000000000000000, 0.000000000000000000, 155.0000000000000000 ) ) ;
#186 = VERTEX_POINT ( 'NONE', #133 ) ;
#187 = DIRECTION ( 'NONE',  ( 0.000000000000000000, 0.000000000000000000, -1.000000000000000000 ) ) ;
#188 = DIRECTION ( 'NONE',  ( 1.000000000000000000, 0.000000000000000000, 0.000000000000000000 ) ) ;
#189 = FACE_BOUND ( 'NONE', #300, .T. ) ;
#190 = CLOSED_SHELL ( 'NONE', ( #299, #226, #18, #264, #261, #251, #291, #184, #48, #31, #50 ) ) ;
#191 = LOCAL_TIME ( 17, 28, 23.00000000000000000, #204 ) ;
#192 = DIRECTION ( 'NONE',  ( -1.000000000000000000, 0.000000000000000000, 0.000000000000000000 ) ) ;
#193 = CC_DESIGN_PERSON_AND_ORGANIZATION_ASSIGNMENT ( #59, #308, ( #154 ) ) ;
#194 = CARTESIAN_POINT ( 'NONE',  ( 0.000000000000000000, 0.000000000000000000, 5.500000000000005329 ) ) ;
#195 = AXIS2_PLACEMENT_3D ( 'NONE', #65, #362, #188 ) ;
#196 = ORGANIZATION ( 'NEURÈENÝ', 'NEURÈENÝ', '' ) ;
#197 = CC_DESIGN_PERSON_AND_ORGANIZATION_ASSIGNMENT ( #74, #42, ( #311 ) ) ;
#198 = DIRECTION ( 'NONE',  ( -1.000000000000000000, 1.224646799147351482E-16, 0.000000000000000000 ) ) ;
#199 = APPROVAL_STATUS ( 'not_yet_approved' ) ;
#200 = ORIENTED_EDGE ( 'NONE', *, *, #86, .T. ) ;
#201 = LOCAL_TIME ( 17, 28, 23.00000000000000000, #67 ) ;
#202 = EDGE_CURVE ( 'NONE', #151, #186, #352, .T. ) ;
#203 = ORIENTED_EDGE ( 'NONE', *, *, #237, .F. ) ;
#204 = COORDINATED_UNIVERSAL_TIME_OFFSET ( 1, 0, .AHEAD. ) ;
#205 = MANIFOLD_SOLID_BREP ( 'Odebrat vysunutím3', #190 ) ;
#206 = ORIENTED_EDGE ( 'NONE', *, *, #258, .F. ) ;
#207 = EDGE_CURVE ( 'NONE', #232, #247, #55, .T. ) ;
#208 = CARTESIAN_POINT ( 'NONE',  ( -4.000000000000000000, 0.000000000000000000, 155.0000000000000000 ) ) ;
#209 = VECTOR ( 'NONE', #84, 1000.000000000000000 ) ;
#210 = EDGE_LOOP ( 'NONE', ( #66, #164, #58, #117 ) ) ;
#211 = ORIENTED_EDGE ( 'NONE', *, *, #141, .T. ) ;
#212 = CC_DESIGN_PERSON_AND_ORGANIZATION_ASSIGNMENT ( #292, #317, ( #128 ) ) ;
#213 = ORIENTED_EDGE ( 'NONE', *, *, #109, .F. ) ;
#214 = CARTESIAN_POINT ( 'NONE',  ( -4.000000000000000000, 0.000000000000000000, 155.0000000000000000 ) ) ;
#215 = EDGE_CURVE ( 'NONE', #153, #24, #132, .T. ) ;
#216 = ORIENTED_EDGE ( 'NONE', *, *, #370, .F. ) ;
#217 = EDGE_CURVE ( 'NONE', #92, #176, #371, .T. ) ;
#218 = AXIS2_PLACEMENT_3D ( 'NONE', #100, #68, #158 ) ;
#219 = ORIENTED_EDGE ( 'NONE', *, *, #105, .T. ) ;
#220 = PERSON_AND_ORGANIZATION ( #112, #196 ) ;
#221 = DIRECTION ( 'NONE',  ( 0.000000000000000000, 0.000000000000000000, 1.000000000000000000 ) ) ;
#222 = ORIENTED_EDGE ( 'NONE', *, *, #293, .T. ) ;
#223 = CYLINDRICAL_SURFACE ( 'NONE', #73, 4.000000000000000000 ) ;
#224 = CARTESIAN_POINT ( 'NONE',  ( -7.000000000000000000, 0.000000000000000000, 0.000000000000000000 ) ) ;
#225 = DIRECTION ( 'NONE',  ( 1.000000000000000000, 0.000000000000000000, 0.000000000000000000 ) ) ;
#226 = ADVANCED_FACE ( 'NONE', ( #227 ), #108, .F. ) ;
#227 = FACE_OUTER_BOUND ( 'NONE', #172, .T. ) ;
#228 = CIRCLE ( 'NONE', #85, 7.000000000000000000 ) ;
#229 = AXIS2_PLACEMENT_3D ( 'NONE', #368, #231, #255 ) ;
#230 = DIRECTION ( 'NONE',  ( 1.000000000000000000, 0.000000000000000000, 0.000000000000000000 ) ) ;
#231 = DIRECTION ( 'NONE',  ( -0.000000000000000000, -0.000000000000000000, -1.000000000000000000 ) ) ;
#232 = VERTEX_POINT ( 'NONE', #340 ) ;
#233 = EDGE_CURVE ( 'NONE', #142, #363, #325, .T. ) ;
#234 = AXIS2_PLACEMENT_3D ( 'NONE', #95, #221, #332 ) ;
#235 = AXIS2_PLACEMENT_3D ( 'NONE', #319, #168, #25 ) ;
#236 = APPROVAL_STATUS ( 'not_yet_approved' ) ;
#237 = EDGE_CURVE ( 'NONE', #248, #327, #102, .T. ) ;
#238 = EDGE_CURVE ( 'NONE', #232, #151, #33, .T. ) ;
#239 = PERSON_AND_ORGANIZATION ( #112, #196 ) ;
#240 = ORIENTED_EDGE ( 'NONE', *, *, #1, .F. ) ;
#241 = ORIENTED_EDGE ( 'NONE', *, *, #115, .T. ) ;
#242 = CARTESIAN_POINT ( 'NONE',  ( 4.500000000000000888, 0.000000000000000000, 5.500000000000005329 ) ) ;
#243 = CARTESIAN_POINT ( 'NONE',  ( -2.100000000000000089, 0.000000000000000000, 155.0000000000000000 ) ) ;
#244 = CYLINDRICAL_SURFACE ( 'NONE', #3, 2.100000000000000089 ) ;
#245 = SECURITY_CLASSIFICATION_LEVEL ( 'unclassified' ) ;
#246 =( GEOMETRIC_REPRESENTATION_CONTEXT ( 3 ) GLOBAL_UNCERTAINTY_ASSIGNED_CONTEXT ( ( #366 ) ) GLOBAL_UNIT_ASSIGNED_CONTEXT ( ( #38, #81, #16 ) ) REPRESENTATION_CONTEXT ( 'NONE', 'WORKASPACE' ) );
#247 = VERTEX_POINT ( 'NONE', #166 ) ;
#248 = VERTEX_POINT ( 'NONE', #147 ) ;
#249 = CARTESIAN_POINT ( 'NONE',  ( 4.000000000000000000, 4.898587196589412829E-16, 5.500000000000005329 ) ) ;
#250 = APPLICATION_PROTOCOL_DEFINITION ( 'international standard', 'config_control_design', 1994, #380 ) ;
#251 = ADVANCED_FACE ( 'NONE', ( #150, #26 ), #267, .T. ) ;
#252 = DIRECTION ( 'NONE',  ( 1.000000000000000000, 0.000000000000000000, 0.000000000000000000 ) ) ;
#253 = CARTESIAN_POINT ( 'NONE',  ( 0.000000000000000000, 0.000000000000000000, 155.0000000000000000 ) ) ;
#254 = CARTESIAN_POINT ( 'NONE',  ( 0.000000000000000000, 0.000000000000000000, 0.000000000000000000 ) ) ;
#255 = DIRECTION ( 'NONE',  ( 1.000000000000000000, 0.000000000000000000, 0.000000000000000000 ) ) ;
#256 = EDGE_LOOP ( 'NONE', ( #11, #32 ) ) ;
#257 = DIRECTION ( 'NONE',  ( 1.000000000000000000, 0.000000000000000000, 0.000000000000000000 ) ) ;
#258 = EDGE_CURVE ( 'NONE', #327, #248, #124, .T. ) ;
#259 = DIRECTION ( 'NONE',  ( 0.000000000000000000, 0.000000000000000000, 1.000000000000000000 ) ) ;
#260 = ORIENTED_EDGE ( 'NONE', *, *, #237, .T. ) ;
#261 = ADVANCED_FACE ( 'NONE', ( #381 ), #52, .T. ) ;
#262 = CARTESIAN_POINT ( 'NONE',  ( 0.000000000000000000, 0.000000000000000000, 5.000000000000000000 ) ) ;
#263 = CIRCLE ( 'NONE', #6, 4.500000000000000888 ) ;
#264 = ADVANCED_FACE ( 'NONE', ( #113 ), #87, .T. ) ;
#265 = ORIENTED_EDGE ( 'NONE', *, *, #233, .F. ) ;
#266 = APPROVAL_DATE_TIME ( #146, #289 ) ;
#267 = PLANE ( 'NONE',  #91 ) ;
#268 = ORIENTED_EDGE ( 'NONE', *, *, #202, .T. ) ;
#269 = ORIENTED_EDGE ( 'NONE', *, *, #217, .T. ) ;
#270 = APPROVAL_STATUS ( 'not_yet_approved' ) ;
#271 = CARTESIAN_POINT ( 'NONE',  ( 7.000000000000000000, 8.572527594031473190E-16, 5.000000000000000000 ) ) ;
#272 = VERTEX_POINT ( 'NONE', #208 ) ;
#273 = CC_DESIGN_APPROVAL ( #289, ( #154 ) ) ;
#274 = APPROVAL_ROLE ( '' ) ;
#275 = FACE_OUTER_BOUND ( 'NONE', #210, .T. ) ;
#276 = DIRECTION ( 'NONE',  ( 0.000000000000000000, 0.000000000000000000, 1.000000000000000000 ) ) ;
#277 = DIRECTION ( 'NONE',  ( 0.000000000000000000, 0.000000000000000000, -1.000000000000000000 ) ) ;
#278 = ORIENTED_EDGE ( 'NONE', *, *, #115, .F. ) ;
#279 = DIRECTION ( 'NONE',  ( -0.000000000000000000, -0.000000000000000000, -1.000000000000000000 ) ) ;
#280 = CIRCLE ( 'NONE', #23, 4.000000000000000000 ) ;
#281 = PERSON_AND_ORGANIZATION_ROLE ( 'classification_officer' ) ;
#282 = DIRECTION ( 'NONE',  ( -0.000000000000000000, -0.000000000000000000, -1.000000000000000000 ) ) ;
#283 = AXIS2_PLACEMENT_3D ( 'NONE', #254, #335, #103 ) ;
#284 = DIRECTION ( 'NONE',  ( 0.000000000000000000, 0.000000000000000000, 1.000000000000000000 ) ) ;
#285 = EDGE_CURVE ( 'NONE', #247, #232, #157, .T. ) ;
#286 = COORDINATED_UNIVERSAL_TIME_OFFSET ( 1, 0, .AHEAD. ) ;
#287 = AXIS2_PLACEMENT_3D ( 'NONE', #143, #324, #119 ) ;
#288 = APPROVAL_ROLE ( '' ) ;
#289 = APPROVAL ( #236, 'NEURÈENÝ' ) ;
#290 = DIRECTION ( 'NONE',  ( 0.000000000000000000, 0.000000000000000000, 1.000000000000000000 ) ) ;
#291 = ADVANCED_FACE ( 'NONE', ( #189, #39 ), #358, .F. ) ;
#292 = PERSON_AND_ORGANIZATION ( #112, #196 ) ;
#293 = EDGE_CURVE ( 'NONE', #24, #153, #263, .T. ) ;
#294 = CARTESIAN_POINT ( 'NONE',  ( 0.000000000000000000, 0.000000000000000000, 5.000000000000000000 ) ) ;
#295 = VECTOR ( 'NONE', #17, 1000.000000000000000 ) ;
#296 = EDGE_LOOP ( 'NONE', ( #343, #211, #260, #122 ) ) ;
#297 = EDGE_LOOP ( 'NONE', ( #99, #222 ) ) ;
#298 = ORIENTED_EDGE ( 'NONE', *, *, #141, .F. ) ;
#299 = ADVANCED_FACE ( 'NONE', ( #302 ), #129, .F. ) ;
#300 = EDGE_LOOP ( 'NONE', ( #346, #169 ) ) ;
#301 = VECTOR ( 'NONE', #279, 1000.000000000000000 ) ;
#302 = FACE_OUTER_BOUND ( 'NONE', #323, .T. ) ;
#303 = DIRECTION ( 'NONE',  ( -0.000000000000000000, -0.000000000000000000, -1.000000000000000000 ) ) ;
#304 = AXIS2_PLACEMENT_3D ( 'NONE', #163, #316, #198 ) ;
#305 = CC_DESIGN_PERSON_AND_ORGANIZATION_ASSIGNMENT ( #220, #281, ( #359 ) ) ;
#306 = CARTESIAN_POINT ( 'NONE',  ( 0.000000000000000000, 0.000000000000000000, 0.000000000000000000 ) ) ;
#307 = ORIENTED_EDGE ( 'NONE', *, *, #86, .F. ) ;
#308 = PERSON_AND_ORGANIZATION_ROLE ( 'design_supplier' ) ;
#309 = LINE ( 'NONE', #214, #301 ) ;
#310 = CIRCLE ( 'NONE', #15, 4.000000000000000000 ) ;
#311 = PRODUCT ( '1d3c', '1d3c', '', ( #135 ) ) ;
#312 = LOCAL_TIME ( 17, 28, 23.00000000000000000, #139 ) ;
#313 = PRODUCT_DEFINITION_SHAPE ( 'NONE', 'NONE',  #128 ) ;
#314 = CARTESIAN_POINT ( 'NONE',  ( -7.000000000000000000, 0.000000000000000000, 5.000000000000000000 ) ) ;
#315 = EDGE_LOOP ( 'NONE', ( #213, #269, #53, #353 ) ) ;
#316 = DIRECTION ( 'NONE',  ( 1.224646799147353207E-16, 1.000000000000000000, -0.000000000000000000 ) ) ;
#317 = PERSON_AND_ORGANIZATION_ROLE ( 'creator' ) ;
#318 = LOCAL_TIME ( 17, 28, 23.00000000000000000, #286 ) ;
#319 = CARTESIAN_POINT ( 'NONE',  ( 0.000000000000000000, 0.000000000000000000, 0.000000000000000000 ) ) ;
#320 = APPROVAL_DATE_TIME ( #345, #80 ) ;
#321 = CARTESIAN_POINT ( 'NONE',  ( 0.000000000000000000, 0.000000000000000000, 5.000000000000000000 ) ) ;
#322 = CIRCLE ( 'NONE', #364, 0.5000000000000004441 ) ;
#323 = EDGE_LOOP ( 'NONE', ( #62, #182, #268, #216 ) ) ;
#324 = DIRECTION ( 'NONE',  ( 0.000000000000000000, 0.000000000000000000, 1.000000000000000000 ) ) ;
#325 = CIRCLE ( 'NONE', #287, 7.000000000000000000 ) ;
#326 = CARTESIAN_POINT ( 'NONE',  ( 0.000000000000000000, 0.000000000000000000, 5.500000000000005329 ) ) ;
#327 = VERTEX_POINT ( 'NONE', #224 ) ;
#328 = DATE_AND_TIME ( #356, #201 ) ;
#329 = CARTESIAN_POINT ( 'NONE',  ( 0.000000000000000000, 0.000000000000000000, 155.0000000000000000 ) ) ;
#330 = CC_DESIGN_PERSON_AND_ORGANIZATION_ASSIGNMENT ( #239, #88, ( #154 ) ) ;
#331 = CARTESIAN_POINT ( 'NONE',  ( 0.000000000000000000, 0.000000000000000000, 155.0000000000000000 ) ) ;
#332 = DIRECTION ( 'NONE',  ( 1.000000000000000000, 0.000000000000000000, -0.000000000000000000 ) ) ;
#333 = DIRECTION ( 'NONE',  ( -1.000000000000000000, 0.000000000000000000, 0.000000000000000000 ) ) ;
#334 = EDGE_LOOP ( 'NONE', ( #206, #203 ) ) ;
#335 = DIRECTION ( 'NONE',  ( 0.000000000000000000, 0.000000000000000000, 1.000000000000000000 ) ) ;
#336 = VECTOR ( 'NONE', #303, 1000.000000000000000 ) ;
#337 = FACE_OUTER_BOUND ( 'NONE', #174, .T. ) ;
#338 = AXIS2_PLACEMENT_3D ( 'NONE', #321, #170, #56 ) ;
#339 = CARTESIAN_POINT ( 'NONE',  ( 7.000000000000000000, 8.572527594031473190E-16, 5.000000000000000000 ) ) ;
#340 = CARTESIAN_POINT ( 'NONE',  ( 2.100000000000000089, 2.571758278209441957E-16, 155.0000000000000000 ) ) ;
#341 = AXIS2_PLACEMENT_3D ( 'NONE', #64, #71, #183 ) ;
#342 = CARTESIAN_POINT ( 'NONE',  ( 4.500000000000000888, 0.000000000000000000, 5.000000000000002665 ) ) ;
#343 = ORIENTED_EDGE ( 'NONE', *, *, #40, .F. ) ;
#344 = AXIS2_PLACEMENT_3D ( 'NONE', #329, #179, #79 ) ;
#345 = DATE_AND_TIME ( #374, #312 ) ;
#346 = ORIENTED_EDGE ( 'NONE', *, *, #82, .F. ) ;
#347 = APPROVAL_ROLE ( '' ) ;
#348 = CARTESIAN_POINT ( 'NONE',  ( 0.000000000000000000, 0.000000000000000000, 0.000000000000000000 ) ) ;
#349 = DIRECTION ( 'NONE',  ( -1.000000000000000000, 0.000000000000000000, 0.000000000000000000 ) ) ;
#350 = PERSON_AND_ORGANIZATION ( #112, #196 ) ;
#351 = PRODUCT_RELATED_PRODUCT_CATEGORY ( 'detail', '', ( #311 ) ) ;
#352 = CIRCLE ( 'NONE', #75, 2.100000000000000089 ) ;
#353 = ORIENTED_EDGE ( 'NONE', *, *, #105, .F. ) ;
#354 = LINE ( 'NONE', #243, #372 ) ;
#355 = PLANE ( 'NONE',  #234 ) ;
#356 = CALENDAR_DATE ( 2022, 8, 7 ) ;
#357 = EDGE_LOOP ( 'NONE', ( #241, #34 ) ) ;
#358 = PLANE ( 'NONE',  #218 ) ;
#359 = SECURITY_CLASSIFICATION ( '', '', #245 ) ;
#360 = ORIENTED_EDGE ( 'NONE', *, *, #258, .T. ) ;
#361 = CARTESIAN_POINT ( 'NONE',  ( 0.000000000000000000, 0.000000000000000000, 5.500000000000005329 ) ) ;
#362 = DIRECTION ( 'NONE',  ( 0.000000000000000000, 0.000000000000000000, 1.000000000000000000 ) ) ;
#363 = VERTEX_POINT ( 'NONE', #271 ) ;
#364 = AXIS2_PLACEMENT_3D ( 'NONE', #242, #94, #277 ) ;
#365 = DIRECTION ( 'NONE',  ( -0.000000000000000000, -0.000000000000000000, -1.000000000000000000 ) ) ;
#366 = UNCERTAINTY_MEASURE_WITH_UNIT (LENGTH_MEASURE( 1.000000000000000082E-05 ), #38, 'distance_accuracy_value', 'NONE');
#367 = CC_DESIGN_APPROVAL ( #80, ( #128 ) ) ;
#368 = CARTESIAN_POINT ( 'NONE',  ( 0.000000000000000000, 0.000000000000000000, 5.000000000000000000 ) ) ;
#369 = EDGE_CURVE ( 'NONE', #176, #137, #310, .T. ) ;
#370 = EDGE_CURVE ( 'NONE', #247, #186, #354, .T. ) ;
#371 = LINE ( 'NONE', #110, #377 ) ;
#372 = VECTOR ( 'NONE', #187, 1000.000000000000000 ) ;
#373 = DIRECTION ( 'NONE',  ( -1.000000000000000000, 0.000000000000000000, 0.000000000000000000 ) ) ;
#374 = CALENDAR_DATE ( 2022, 8, 7 ) ;
#375 = CIRCLE ( 'NONE', #12, 4.000000000000000000 ) ;
#376 = CALENDAR_DATE ( 2022, 8, 7 ) ;
#377 = VECTOR ( 'NONE', #365, 1000.000000000000000 ) ;
#378 = ORIENTED_EDGE ( 'NONE', *, *, #293, .F. ) ;
#379 = DATE_AND_TIME ( #376, #318 ) ;
#380 = APPLICATION_CONTEXT ( 'configuration controlled 3d designs of mechanical parts and assemblies' ) ;
#381 = FACE_OUTER_BOUND ( 'NONE', #96, .T. ) ;
ENDSEC;
END-ISO-10303-21;
