ISO-10303-21;
HEADER;
FILE_DESCRIPTION (( 'STEP AP203' ),
    '1' );
FILE_NAME ('74b8.STEP',
    '2022-07-08T14:44:32',
    ( '' ),
    ( '' ),
    'SwSTEP 2.0',
    'SolidWorks 2019',
    '' );
FILE_SCHEMA (( 'CONFIG_CONTROL_DESIGN' ));
ENDSEC;

DATA;
#1 = FACE_OUTER_BOUND ( 'NONE', #23, .T. ) ;
#2 = CC_DESIGN_PERSON_AND_ORGANIZATION_ASSIGNMENT ( #313, #110, ( #83 ) ) ;
#3 = FACE_OUTER_BOUND ( 'NONE', #10, .T. ) ;
#4 = ORIENTED_EDGE ( 'NONE', *, *, #203, .T. ) ;
#5 = CYLINDRICAL_SURFACE ( 'NONE', #52, 3.250000000000000444 ) ;
#6 = DIRECTION ( 'NONE',  ( -0.000000000000000000, -0.000000000000000000, -1.000000000000000000 ) ) ;
#7 = ORIENTED_EDGE ( 'NONE', *, *, #349, .F. ) ;
#8 = CC_DESIGN_DATE_AND_TIME_ASSIGNMENT ( #318, #252, ( #140 ) ) ;
#9 = LINE ( 'NONE', #39, #261 ) ;
#10 = EDGE_LOOP ( 'NONE', ( #303, #164, #11, #74 ) ) ;
#11 = ORIENTED_EDGE ( 'NONE', *, *, #30, .T. ) ;
#12 = ORIENTED_EDGE ( 'NONE', *, *, #137, .F. ) ;
#13 = AXIS2_PLACEMENT_3D ( 'NONE', #60, #317, #276 ) ;
#14 = DATE_AND_TIME ( #254, #379 ) ;
#15 = SECURITY_CLASSIFICATION_LEVEL ( 'unclassified' ) ;
#16 = FACE_OUTER_BOUND ( 'NONE', #100, .T. ) ;
#17 = ADVANCED_FACE ( 'NONE', ( #16 ), #177, .T. ) ;
#18 = APPROVAL_STATUS ( 'not_yet_approved' ) ;
#19 = CARTESIAN_POINT ( 'NONE',  ( -5.500000000000000000, 6.735557395310442023E-16, 5.499999999999949374 ) ) ;
#20 = CC_DESIGN_PERSON_AND_ORGANIZATION_ASSIGNMENT ( #283, #208, ( #212 ) ) ;
#21 = PERSON_AND_ORGANIZATION ( #314, #224 ) ;
#22 = EDGE_LOOP ( 'NONE', ( #67, #330 ) ) ;
#23 = EDGE_LOOP ( 'NONE', ( #118, #154 ) ) ;
#24 = AXIS2_PLACEMENT_3D ( 'NONE', #329, #127, #267 ) ;
#25 = EDGE_CURVE ( 'NONE', #227, #53, #328, .T. ) ;
#26 = CARTESIAN_POINT ( 'NONE',  ( 5.000000000000000000, 6.123233995736766282E-16, 705.0000000000000000 ) ) ;
#27 = DIRECTION ( 'NONE',  ( 1.000000000000000000, 0.000000000000000000, 0.000000000000000000 ) ) ;
#28 = CYLINDRICAL_SURFACE ( 'NONE', #114, 8.000000000000000000 ) ;
#29 = FACE_OUTER_BOUND ( 'NONE', #272, .T. ) ;
#30 = EDGE_CURVE ( 'NONE', #333, #36, #182, .T. ) ;
#31 = VECTOR ( 'NONE', #365, 1000.000000000000000 ) ;
#32 = DIRECTION ( 'NONE',  ( 1.000000000000000000, 0.000000000000000000, 0.000000000000000000 ) ) ;
#33 = ORIENTED_EDGE ( 'NONE', *, *, #355, .T. ) ;
#34 = CARTESIAN_POINT ( 'NONE',  ( 0.000000000000000000, 0.000000000000000000, 705.0000000000000000 ) ) ;
#35 = APPLICATION_CONTEXT ( 'configuration controlled 3d designs of mechanical parts and assemblies' ) ;
#36 = VERTEX_POINT ( 'NONE', #143 ) ;
#37 = DIRECTION ( 'NONE',  ( 0.000000000000000000, 0.000000000000000000, 1.000000000000000000 ) ) ;
#38 = VERTEX_POINT ( 'NONE', #238 ) ;
#39 = CARTESIAN_POINT ( 'NONE',  ( -3.250000000000000444, 0.000000000000000000, 705.0000000000000000 ) ) ;
#40 = EDGE_CURVE ( 'NONE', #245, #192, #80, .T. ) ;
#41 = ORIENTED_EDGE ( 'NONE', *, *, #150, .F. ) ;
#42 = CC_DESIGN_APPROVAL ( #69, ( #163 ) ) ;
#43 = DIRECTION ( 'NONE',  ( 1.000000000000000000, 0.000000000000000000, 0.000000000000000000 ) ) ;
#44 = DIRECTION ( 'NONE',  ( 1.000000000000000000, 0.000000000000000000, 0.000000000000000000 ) ) ;
#45 = AXIS2_PLACEMENT_3D ( 'NONE', #262, #145, #175 ) ;
#46 = APPROVAL_STATUS ( 'not_yet_approved' ) ;
#47 = CC_DESIGN_APPROVAL ( #199, ( #140 ) ) ;
#48 = CALENDAR_DATE ( 2022, 8, 7 ) ;
#49 = VERTEX_POINT ( 'NONE', #133 ) ;
#50 = AXIS2_PLACEMENT_3D ( 'NONE', #295, #269, #32 ) ;
#51 = COORDINATED_UNIVERSAL_TIME_OFFSET ( 1, 0, .AHEAD. ) ;
#52 = AXIS2_PLACEMENT_3D ( 'NONE', #34, #242, #287 ) ;
#53 = VERTEX_POINT ( 'NONE', #311 ) ;
#54 = UNCERTAINTY_MEASURE_WITH_UNIT (LENGTH_MEASURE( 1.000000000000000082E-05 ), #301, 'distance_accuracy_value', 'NONE');
#55 = PERSON_AND_ORGANIZATION_ROLE ( 'creator' ) ;
#56 = AXIS2_PLACEMENT_3D ( 'NONE', #179, #148, #27 ) ;
#57 = ADVANCED_BREP_SHAPE_REPRESENTATION ( '74b8', ( #319, #340 ), #223 ) ;
#58 = CARTESIAN_POINT ( 'NONE',  ( 0.000000000000000000, 0.000000000000000000, 5.000000000000000000 ) ) ;
#59 = CC_DESIGN_PERSON_AND_ORGANIZATION_ASSIGNMENT ( #308, #176, ( #163 ) ) ;
#60 = CARTESIAN_POINT ( 'NONE',  ( 0.000000000000000000, 0.000000000000000000, 705.0000000000000000 ) ) ;
#61 = PLANE ( 'NONE',  #24 ) ;
#62 = DIRECTION ( 'NONE',  ( 0.000000000000000000, 0.000000000000000000, 1.000000000000000000 ) ) ;
#63 = CARTESIAN_POINT ( 'NONE',  ( 5.000000000000000000, 6.123233995736766282E-16, 5.499999999999949374 ) ) ;
#64 = FACE_OUTER_BOUND ( 'NONE', #228, .T. ) ;
#65 = EDGE_CURVE ( 'NONE', #270, #227, #87, .T. ) ;
#66 = AXIS2_PLACEMENT_3D ( 'NONE', #58, #374, #180 ) ;
#67 = ORIENTED_EDGE ( 'NONE', *, *, #25, .T. ) ;
#68 = LINE ( 'NONE', #189, #95 ) ;
#69 = APPROVAL ( #85, 'NEURÈENÝ' ) ;
#70 = ORIENTED_EDGE ( 'NONE', *, *, #196, .T. ) ;
#71 = EDGE_CURVE ( 'NONE', #333, #91, #237, .T. ) ;
#72 = ORIENTED_EDGE ( 'NONE', *, *, #231, .T. ) ;
#73 = EDGE_LOOP ( 'NONE', ( #304, #320, #356, #12 ) ) ;
#74 = ORIENTED_EDGE ( 'NONE', *, *, #273, .T. ) ;
#75 = DESIGN_CONTEXT ( 'detailed design', #168, 'design' ) ;
#76 = DIRECTION ( 'NONE',  ( -0.000000000000000000, -0.000000000000000000, -1.000000000000000000 ) ) ;
#77 = CARTESIAN_POINT ( 'NONE',  ( 0.000000000000000000, 0.000000000000000000, 0.000000000000000000 ) ) ;
#78 = DIRECTION ( 'NONE',  ( -0.000000000000000000, -0.000000000000000000, -1.000000000000000000 ) ) ;
#79 = APPLICATION_PROTOCOL_DEFINITION ( 'international standard', 'config_control_design', 1994, #35 ) ;
#80 = CIRCLE ( 'NONE', #13, 5.000000000000000000 ) ;
#81 = PERSON_AND_ORGANIZATION ( #314, #224 ) ;
#82 = MECHANICAL_CONTEXT ( 'NONE', #35, 'mechanical' ) ;
#83 = PRODUCT_DEFINITION ( 'NEZNÁMÝ', '', #163, #75 ) ;
#84 = CYLINDRICAL_SURFACE ( 'NONE', #169, 5.000000000000000000 ) ;
#85 = APPROVAL_STATUS ( 'not_yet_approved' ) ;
#86 = DIRECTION ( 'NONE',  ( 1.000000000000000000, 0.000000000000000000, -0.000000000000000000 ) ) ;
#87 = CIRCLE ( 'NONE', #358, 0.5000000000000004441 ) ;
#88 = DIRECTION ( 'NONE',  ( 1.000000000000000000, 0.000000000000000000, 0.000000000000000000 ) ) ;
#89 = DATE_AND_TIME ( #178, #288 ) ;
#90 = DIRECTION ( 'NONE',  ( -0.000000000000000000, -0.000000000000000000, -1.000000000000000000 ) ) ;
#91 = VERTEX_POINT ( 'NONE', #105 ) ;
#92 = AXIS2_PLACEMENT_3D ( 'NONE', #366, #302, #195 ) ;
#93 = APPROVAL_DATE_TIME ( #147, #199 ) ;
#94 = CARTESIAN_POINT ( 'NONE',  ( 0.000000000000000000, 0.000000000000000000, 0.000000000000000000 ) ) ;
#95 = VECTOR ( 'NONE', #6, 1000.000000000000000 ) ;
#96 = DIRECTION ( 'NONE',  ( 0.000000000000000000, 0.000000000000000000, 1.000000000000000000 ) ) ;
#97 = CIRCLE ( 'NONE', #306, 3.250000000000000444 ) ;
#98 = LINE ( 'NONE', #321, #103 ) ;
#99 = ORIENTED_EDGE ( 'NONE', *, *, #25, .F. ) ;
#100 = EDGE_LOOP ( 'NONE', ( #7, #72, #70, #152 ) ) ;
#101 = TOROIDAL_SURFACE ( 'NONE', #363, 5.500000000000000000, 0.5000000000000000000 ) ;
#102 = VERTEX_POINT ( 'NONE', #337 ) ;
#103 = VECTOR ( 'NONE', #125, 1000.000000000000000 ) ;
#104 = DIRECTION ( 'NONE',  ( 0.000000000000000000, 0.000000000000000000, -1.000000000000000000 ) ) ;
#105 = CARTESIAN_POINT ( 'NONE',  ( 8.000000000000000000, 9.797174393178825657E-16, 5.000000000000000000 ) ) ;
#106 = CARTESIAN_POINT ( 'NONE',  ( 0.000000000000000000, 0.000000000000000000, 5.499999999999949374 ) ) ;
#107 = DATE_AND_TIME ( #48, #215 ) ;
#108 = DIRECTION ( 'NONE',  ( 0.000000000000000000, 0.000000000000000000, 1.000000000000000000 ) ) ;
#109 = CIRCLE ( 'NONE', #282, 3.250000000000000444 ) ;
#110 = PERSON_AND_ORGANIZATION_ROLE ( 'creator' ) ;
#111 = DIRECTION ( 'NONE',  ( 0.000000000000000000, 0.000000000000000000, 1.000000000000000000 ) ) ;
#112 = CARTESIAN_POINT ( 'NONE',  ( 0.000000000000000000, 0.000000000000000000, 0.000000000000000000 ) ) ;
#113 = DIRECTION ( 'NONE',  ( -1.000000000000000000, 1.224646799147351482E-16, 0.000000000000000000 ) ) ;
#114 = AXIS2_PLACEMENT_3D ( 'NONE', #352, #149, #266 ) ;
#115 = COORDINATED_UNIVERSAL_TIME_OFFSET ( 1, 0, .AHEAD. ) ;
#116 = CIRCLE ( 'NONE', #45, 5.500000000000000000 ) ;
#117 = VERTEX_POINT ( 'NONE', #139 ) ;
#118 = ORIENTED_EDGE ( 'NONE', *, *, #322, .T. ) ;
#119 = LINE ( 'NONE', #151, #134 ) ;
#120 = PRODUCT_RELATED_PRODUCT_CATEGORY ( 'detail', '', ( #212 ) ) ;
#121 = ADVANCED_FACE ( 'NONE', ( #259 ), #84, .T. ) ;
#122 = DIRECTION ( 'NONE',  ( 0.000000000000000000, 0.000000000000000000, -1.000000000000000000 ) ) ;
#123 = ORIENTED_EDGE ( 'NONE', *, *, #355, .F. ) ;
#124 = LOCAL_TIME ( 16, 44, 32.00000000000000000, #309 ) ;
#125 = DIRECTION ( 'NONE',  ( -0.000000000000000000, -0.000000000000000000, -1.000000000000000000 ) ) ;
#126 = ORIENTED_EDGE ( 'NONE', *, *, #203, .F. ) ;
#127 = DIRECTION ( 'NONE',  ( 0.000000000000000000, 0.000000000000000000, 1.000000000000000000 ) ) ;
#128 = ORIENTED_EDGE ( 'NONE', *, *, #181, .T. ) ;
#129 = FACE_BOUND ( 'NONE', #22, .T. ) ;
#130 = EDGE_LOOP ( 'NONE', ( #378, #219 ) ) ;
#131 = ORIENTED_EDGE ( 'NONE', *, *, #40, .F. ) ;
#132 = AXIS2_PLACEMENT_3D ( 'NONE', #354, #62, #290 ) ;
#133 = CARTESIAN_POINT ( 'NONE',  ( 3.250000000000000444, 3.980102097228898231E-16, 0.000000000000000000 ) ) ;
#134 = VECTOR ( 'NONE', #185, 1000.000000000000000 ) ;
#135 = AXIS2_PLACEMENT_3D ( 'NONE', #141, #90, #239 ) ;
#136 = PERSON_AND_ORGANIZATION ( #314, #224 ) ;
#137 = EDGE_CURVE ( 'NONE', #53, #227, #116, .T. ) ;
#138 = EDGE_CURVE ( 'NONE', #222, #49, #264, .T. ) ;
#139 = CARTESIAN_POINT ( 'NONE',  ( -3.250000000000000444, 0.000000000000000000, 0.000000000000000000 ) ) ;
#140 = SECURITY_CLASSIFICATION ( '', '', #15 ) ;
#141 = CARTESIAN_POINT ( 'NONE',  ( 0.000000000000000000, 0.000000000000000000, 5.000000000000000000 ) ) ;
#142 = APPROVAL_ROLE ( '' ) ;
#143 = CARTESIAN_POINT ( 'NONE',  ( -8.000000000000000000, 0.000000000000000000, 0.000000000000000000 ) ) ;
#144 = CIRCLE ( 'NONE', #197, 0.5000000000000004441 ) ;
#145 = DIRECTION ( 'NONE',  ( -0.000000000000000000, -0.000000000000000000, -1.000000000000000000 ) ) ;
#146 = CARTESIAN_POINT ( 'NONE',  ( 0.000000000000000000, 0.000000000000000000, 5.499999999999949374 ) ) ;
#147 = DATE_AND_TIME ( #289, #124 ) ;
#148 = DIRECTION ( 'NONE',  ( 0.000000000000000000, 0.000000000000000000, 1.000000000000000000 ) ) ;
#149 = DIRECTION ( 'NONE',  ( -0.000000000000000000, -0.000000000000000000, -1.000000000000000000 ) ) ;
#150 = EDGE_CURVE ( 'NONE', #102, #222, #221, .T. ) ;
#151 = CARTESIAN_POINT ( 'NONE',  ( 5.000000000000000000, 6.123233995736766282E-16, 705.0000000000000000 ) ) ;
#152 = ORIENTED_EDGE ( 'NONE', *, *, #30, .F. ) ;
#153 = FACE_BOUND ( 'NONE', #247, .T. ) ;
#154 = ORIENTED_EDGE ( 'NONE', *, *, #40, .T. ) ;
#155 = CARTESIAN_POINT ( 'NONE',  ( 0.000000000000000000, 0.000000000000000000, 0.000000000000000000 ) ) ;
#156 = ORIENTED_EDGE ( 'NONE', *, *, #260, .T. ) ;
#157 = DIRECTION ( 'NONE',  ( -0.000000000000000000, -0.000000000000000000, -1.000000000000000000 ) ) ;
#158 = CARTESIAN_POINT ( 'NONE',  ( -8.000000000000000000, 0.000000000000000000, 5.000000000000000000 ) ) ;
#159 = CIRCLE ( 'NONE', #334, 8.000000000000000000 ) ;
#160 = EDGE_LOOP ( 'NONE', ( #344, #188 ) ) ;
#161 =( NAMED_UNIT ( * ) SI_UNIT ( $, .STERADIAN. ) SOLID_ANGLE_UNIT ( ) );
#162 = PLANE ( 'NONE',  #305 ) ;
#163 = PRODUCT_DEFINITION_FORMATION_WITH_SPECIFIED_SOURCE ( 'LIBOVOLNÝ', '', #212, .NOT_KNOWN. ) ;
#164 = ORIENTED_EDGE ( 'NONE', *, *, #71, .F. ) ;
#165 = CARTESIAN_POINT ( 'NONE',  ( 0.000000000000000000, 0.000000000000000000, 705.0000000000000000 ) ) ;
#166 = CARTESIAN_POINT ( 'NONE',  ( -8.000000000000000000, 0.000000000000000000, 5.000000000000000000 ) ) ;
#167 = AXIS2_PLACEMENT_3D ( 'NONE', #331, #170, #368 ) ;
#168 = APPLICATION_CONTEXT ( 'configuration controlled 3d designs of mechanical parts and assemblies' ) ;
#169 = AXIS2_PLACEMENT_3D ( 'NONE', #250, #76, #202 ) ;
#170 = DIRECTION ( 'NONE',  ( -0.000000000000000000, -0.000000000000000000, -1.000000000000000000 ) ) ;
#171 = APPROVAL_PERSON_ORGANIZATION ( #21, #257, #142 ) ;
#172 = COORDINATED_UNIVERSAL_TIME_OFFSET ( 1, 0, .AHEAD. ) ;
#173 = EDGE_CURVE ( 'NONE', #222, #102, #97, .T. ) ;
#174 = PERSON_AND_ORGANIZATION ( #314, #224 ) ;
#175 = DIRECTION ( 'NONE',  ( 1.000000000000000000, 0.000000000000000000, 0.000000000000000000 ) ) ;
#176 = PERSON_AND_ORGANIZATION_ROLE ( 'design_supplier' ) ;
#177 = CYLINDRICAL_SURFACE ( 'NONE', #135, 8.000000000000000000 ) ;
#178 = CALENDAR_DATE ( 2022, 8, 7 ) ;
#179 = CARTESIAN_POINT ( 'NONE',  ( 0.000000000000000000, 0.000000000000000000, 5.000000000000000000 ) ) ;
#180 = DIRECTION ( 'NONE',  ( 1.000000000000000000, 0.000000000000000000, 0.000000000000000000 ) ) ;
#181 = EDGE_CURVE ( 'NONE', #38, #53, #144, .T. ) ;
#182 = LINE ( 'NONE', #166, #31 ) ;
#183 = PRODUCT_DEFINITION_SHAPE ( 'NONE', 'NONE',  #83 ) ;
#184 = ADVANCED_FACE ( 'NONE', ( #220, #241 ), #61, .F. ) ;
#185 = DIRECTION ( 'NONE',  ( -0.000000000000000000, -0.000000000000000000, -1.000000000000000000 ) ) ;
#186 = CARTESIAN_POINT ( 'NONE',  ( 0.000000000000000000, 0.000000000000000000, 705.0000000000000000 ) ) ;
#187 = FACE_OUTER_BOUND ( 'NONE', #73, .T. ) ;
#188 = ORIENTED_EDGE ( 'NONE', *, *, #196, .F. ) ;
#189 = CARTESIAN_POINT ( 'NONE',  ( -5.000000000000000000, 0.000000000000000000, 705.0000000000000000 ) ) ;
#190 = EDGE_LOOP ( 'NONE', ( #300, #362, #353, #284 ) ) ;
#191 = CIRCLE ( 'NONE', #167, 3.250000000000000444 ) ;
#192 = VERTEX_POINT ( 'NONE', #218 ) ;
#193 = ADVANCED_FACE ( 'NONE', ( #298 ), #5, .F. ) ;
#194 = ORIENTED_EDGE ( 'NONE', *, *, #260, .F. ) ;
#195 = DIRECTION ( 'NONE',  ( 1.000000000000000000, 0.000000000000000000, 0.000000000000000000 ) ) ;
#196 = EDGE_CURVE ( 'NONE', #268, #36, #159, .T. ) ;
#197 = AXIS2_PLACEMENT_3D ( 'NONE', #19, #372, #113 ) ;
#198 = APPROVAL_ROLE ( '' ) ;
#199 = APPROVAL ( #46, 'NEURÈENÝ' ) ;
#200 = APPROVAL_ROLE ( '' ) ;
#201 = APPROVAL_PERSON_ORGANIZATION ( #81, #199, #200 ) ;
#202 = DIRECTION ( 'NONE',  ( -1.000000000000000000, 0.000000000000000000, 0.000000000000000000 ) ) ;
#203 = EDGE_CURVE ( 'NONE', #192, #38, #68, .T. ) ;
#204 = CARTESIAN_POINT ( 'NONE',  ( 0.000000000000000000, 0.000000000000000000, 705.0000000000000000 ) ) ;
#205 = PERSON_AND_ORGANIZATION_ROLE ( 'classification_officer' ) ;
#206 = AXIS2_PLACEMENT_3D ( 'NONE', #234, #346, #44 ) ;
#207 = EDGE_LOOP ( 'NONE', ( #194, #315, #4, #225 ) ) ;
#208 = PERSON_AND_ORGANIZATION_ROLE ( 'design_owner' ) ;
#209 = DIRECTION ( 'NONE',  ( 0.000000000000000000, -1.000000000000000000, 0.000000000000000000 ) ) ;
#210 = CC_DESIGN_DATE_AND_TIME_ASSIGNMENT ( #89, #373, ( #83 ) ) ;
#211 = ORIENTED_EDGE ( 'NONE', *, *, #138, .T. ) ;
#212 = PRODUCT ( '74b8', '74b8', '', ( #82 ) ) ;
#213 = ADVANCED_FACE ( 'NONE', ( #64 ), #380, .F. ) ;
#214 = DIRECTION ( 'NONE',  ( 0.000000000000000000, 0.000000000000000000, 1.000000000000000000 ) ) ;
#215 = LOCAL_TIME ( 16, 44, 32.00000000000000000, #51 ) ;
#216 = PLANE ( 'NONE',  #381 ) ;
#217 = SHAPE_DEFINITION_REPRESENTATION ( #183, #57 ) ;
#218 = CARTESIAN_POINT ( 'NONE',  ( -5.000000000000000000, 0.000000000000000000, 705.0000000000000000 ) ) ;
#219 = ORIENTED_EDGE ( 'NONE', *, *, #349, .T. ) ;
#220 = FACE_BOUND ( 'NONE', #243, .T. ) ;
#221 = CIRCLE ( 'NONE', #263, 3.250000000000000444 ) ;
#222 = VERTEX_POINT ( 'NONE', #325 ) ;
#223 =( GEOMETRIC_REPRESENTATION_CONTEXT ( 3 ) GLOBAL_UNCERTAINTY_ASSIGNED_CONTEXT ( ( #54 ) ) GLOBAL_UNIT_ASSIGNED_CONTEXT ( ( #301, #332, #161 ) ) REPRESENTATION_CONTEXT ( 'NONE', 'WORKASPACE' ) );
#224 = ORGANIZATION ( 'NEURÈENÝ', 'NEURÈENÝ', '' ) ;
#225 = ORIENTED_EDGE ( 'NONE', *, *, #279, .T. ) ;
#226 = CIRCLE ( 'NONE', #132, 5.000000000000000000 ) ;
#227 = VERTEX_POINT ( 'NONE', #350 ) ;
#228 = EDGE_LOOP ( 'NONE', ( #336, #211, #33, #235 ) ) ;
#229 = DIRECTION ( 'NONE',  ( 1.000000000000000000, 0.000000000000000000, 0.000000000000000000 ) ) ;
#230 = CARTESIAN_POINT ( 'NONE',  ( 5.500000000000000000, 0.000000000000000000, 5.499999999999949374 ) ) ;
#231 = EDGE_CURVE ( 'NONE', #91, #268, #98, .T. ) ;
#232 = CALENDAR_DATE ( 2022, 8, 7 ) ;
#233 = PERSON_AND_ORGANIZATION ( #314, #224 ) ;
#234 = CARTESIAN_POINT ( 'NONE',  ( 0.000000000000000000, 0.000000000000000000, 5.000000000000000000 ) ) ;
#235 = ORIENTED_EDGE ( 'NONE', *, *, #339, .F. ) ;
#236 = APPROVAL_DATE_TIME ( #107, #69 ) ;
#237 = CIRCLE ( 'NONE', #66, 8.000000000000000000 ) ;
#238 = CARTESIAN_POINT ( 'NONE',  ( -5.000000000000000000, 0.000000000000000000, 5.499999999999949374 ) ) ;
#239 = DIRECTION ( 'NONE',  ( -1.000000000000000000, 0.000000000000000000, 0.000000000000000000 ) ) ;
#240 = CARTESIAN_POINT ( 'NONE',  ( 8.000000000000000000, 9.797174393178825657E-16, 0.000000000000000000 ) ) ;
#241 = FACE_OUTER_BOUND ( 'NONE', #160, .T. ) ;
#242 = DIRECTION ( 'NONE',  ( 0.000000000000000000, 0.000000000000000000, -1.000000000000000000 ) ) ;
#243 = EDGE_LOOP ( 'NONE', ( #360, #123 ) ) ;
#244 = TOROIDAL_SURFACE ( 'NONE', #50, 5.500000000000000000, 0.5000000000000000000 ) ;
#245 = VERTEX_POINT ( 'NONE', #26 ) ;
#246 = DIRECTION ( 'NONE',  ( -1.000000000000000000, 0.000000000000000000, 0.000000000000000000 ) ) ;
#247 = EDGE_LOOP ( 'NONE', ( #41, #364 ) ) ;
#248 = ORIENTED_EDGE ( 'NONE', *, *, #65, .F. ) ;
#249 = CLOSED_SHELL ( 'NONE', ( #213, #327, #310, #17, #285, #347, #184, #121, #307, #293, #193 ) ) ;
#250 = CARTESIAN_POINT ( 'NONE',  ( 0.000000000000000000, 0.000000000000000000, 705.0000000000000000 ) ) ;
#251 = CIRCLE ( 'NONE', #56, 8.000000000000000000 ) ;
#252 = DATE_TIME_ROLE ( 'classification_date' ) ;
#253 = AXIS2_PLACEMENT_3D ( 'NONE', #165, #78, #275 ) ;
#254 = CALENDAR_DATE ( 2022, 8, 7 ) ;
#255 = EDGE_CURVE ( 'NONE', #270, #38, #294, .T. ) ;
#256 = DIRECTION ( 'NONE',  ( 0.000000000000000000, 0.000000000000000000, -1.000000000000000000 ) ) ;
#257 = APPROVAL ( #18, 'NEURÈENÝ' ) ;
#258 = CARTESIAN_POINT ( 'NONE',  ( 0.000000000000000000, 0.000000000000000000, 5.000000000000000000 ) ) ;
#259 = FACE_OUTER_BOUND ( 'NONE', #207, .T. ) ;
#260 = EDGE_CURVE ( 'NONE', #245, #270, #119, .T. ) ;
#261 = VECTOR ( 'NONE', #104, 1000.000000000000000 ) ;
#262 = CARTESIAN_POINT ( 'NONE',  ( 0.000000000000000000, 0.000000000000000000, 5.000000000000000000 ) ) ;
#263 = AXIS2_PLACEMENT_3D ( 'NONE', #371, #111, #341 ) ;
#264 = LINE ( 'NONE', #280, #376 ) ;
#265 = DIRECTION ( 'NONE',  ( 0.000000000000000000, 0.000000000000000000, 1.000000000000000000 ) ) ;
#266 = DIRECTION ( 'NONE',  ( -1.000000000000000000, 0.000000000000000000, 0.000000000000000000 ) ) ;
#267 = DIRECTION ( 'NONE',  ( 1.000000000000000000, 0.000000000000000000, -0.000000000000000000 ) ) ;
#268 = VERTEX_POINT ( 'NONE', #240 ) ;
#269 = DIRECTION ( 'NONE',  ( 0.000000000000000000, 0.000000000000000000, 1.000000000000000000 ) ) ;
#270 = VERTEX_POINT ( 'NONE', #63 ) ;
#271 = DIRECTION ( 'NONE',  ( 0.000000000000000000, 0.000000000000000000, 1.000000000000000000 ) ) ;
#272 = EDGE_LOOP ( 'NONE', ( #131, #156, #297, #126 ) ) ;
#273 = EDGE_CURVE ( 'NONE', #36, #268, #277, .T. ) ;
#274 = EDGE_LOOP ( 'NONE', ( #345, #128, #99, #248 ) ) ;
#275 = DIRECTION ( 'NONE',  ( -1.000000000000000000, 0.000000000000000000, 0.000000000000000000 ) ) ;
#276 = DIRECTION ( 'NONE',  ( 1.000000000000000000, 0.000000000000000000, 0.000000000000000000 ) ) ;
#277 = CIRCLE ( 'NONE', #291, 8.000000000000000000 ) ;
#278 = CC_DESIGN_PERSON_AND_ORGANIZATION_ASSIGNMENT ( #174, #55, ( #163 ) ) ;
#279 = EDGE_CURVE ( 'NONE', #38, #270, #226, .T. ) ;
#280 = CARTESIAN_POINT ( 'NONE',  ( 3.250000000000000444, 3.980102097228898231E-16, 705.0000000000000000 ) ) ;
#281 = DIRECTION ( 'NONE',  ( 0.000000000000000000, 0.000000000000000000, 1.000000000000000000 ) ) ;
#282 = AXIS2_PLACEMENT_3D ( 'NONE', #77, #157, #43 ) ;
#283 = PERSON_AND_ORGANIZATION ( #314, #224 ) ;
#284 = ORIENTED_EDGE ( 'NONE', *, *, #324, .T. ) ;
#285 = ADVANCED_FACE ( 'NONE', ( #3 ), #28, .T. ) ;
#286 = DIRECTION ( 'NONE',  ( 0.000000000000000000, 0.000000000000000000, -1.000000000000000000 ) ) ;
#287 = DIRECTION ( 'NONE',  ( -1.000000000000000000, 0.000000000000000000, 0.000000000000000000 ) ) ;
#288 = LOCAL_TIME ( 16, 44, 32.00000000000000000, #342 ) ;
#289 = CALENDAR_DATE ( 2022, 8, 7 ) ;
#290 = DIRECTION ( 'NONE',  ( 1.000000000000000000, 0.000000000000000000, 0.000000000000000000 ) ) ;
#291 = AXIS2_PLACEMENT_3D ( 'NONE', #94, #214, #323 ) ;
#292 = DIRECTION ( 'NONE',  ( 1.000000000000000000, 0.000000000000000000, -0.000000000000000000 ) ) ;
#293 = ADVANCED_FACE ( 'NONE', ( #187 ), #244, .F. ) ;
#294 = CIRCLE ( 'NONE', #375, 5.000000000000000000 ) ;
#295 = CARTESIAN_POINT ( 'NONE',  ( 0.000000000000000000, 0.000000000000000000, 5.499999999999949374 ) ) ;
#296 = CC_DESIGN_PERSON_AND_ORGANIZATION_ASSIGNMENT ( #136, #205, ( #140 ) ) ;
#297 = ORIENTED_EDGE ( 'NONE', *, *, #255, .T. ) ;
#298 = FACE_OUTER_BOUND ( 'NONE', #190, .T. ) ;
#299 = FACE_OUTER_BOUND ( 'NONE', #274, .T. ) ;
#300 = ORIENTED_EDGE ( 'NONE', *, *, #138, .F. ) ;
#301 =( LENGTH_UNIT ( ) NAMED_UNIT ( * ) SI_UNIT ( .MILLI., .METRE. ) );
#302 = DIRECTION ( 'NONE',  ( 0.000000000000000000, 0.000000000000000000, 1.000000000000000000 ) ) ;
#303 = ORIENTED_EDGE ( 'NONE', *, *, #231, .F. ) ;
#304 = ORIENTED_EDGE ( 'NONE', *, *, #181, .F. ) ;
#305 = AXIS2_PLACEMENT_3D ( 'NONE', #258, #343, #86 ) ;
#306 = AXIS2_PLACEMENT_3D ( 'NONE', #204, #281, #88 ) ;
#307 = ADVANCED_FACE ( 'NONE', ( #153, #1 ), #216, .T. ) ;
#308 = PERSON_AND_ORGANIZATION ( #314, #224 ) ;
#309 = COORDINATED_UNIVERSAL_TIME_OFFSET ( 1, 0, .AHEAD. ) ;
#310 = ADVANCED_FACE ( 'NONE', ( #29 ), #335, .T. ) ;
#311 = CARTESIAN_POINT ( 'NONE',  ( -5.500000000000000000, 6.735557395310442023E-16, 4.999999999999975131 ) ) ;
#312 = CIRCLE ( 'NONE', #92, 5.000000000000000000 ) ;
#313 = PERSON_AND_ORGANIZATION ( #314, #224 ) ;
#314 = PERSON ( 'NEURÈENÝ', 'NEURÈENÝ', 'NEURÈENÝ', ('NEURÈENÝ'), ('NEURÈENÝ'), ('NEURÈENÝ') ) ;
#315 = ORIENTED_EDGE ( 'NONE', *, *, #322, .F. ) ;
#316 = APPLICATION_PROTOCOL_DEFINITION ( 'international standard', 'config_control_design', 1994, #168 ) ;
#317 = DIRECTION ( 'NONE',  ( 0.000000000000000000, 0.000000000000000000, 1.000000000000000000 ) ) ;
#318 = DATE_AND_TIME ( #232, #351 ) ;
#319 = MANIFOLD_SOLID_BREP ( 'Odebrat vysunutím3', #249 ) ;
#320 = ORIENTED_EDGE ( 'NONE', *, *, #255, .F. ) ;
#321 = CARTESIAN_POINT ( 'NONE',  ( 8.000000000000000000, 9.797174393178825657E-16, 5.000000000000000000 ) ) ;
#322 = EDGE_CURVE ( 'NONE', #192, #245, #312, .T. ) ;
#323 = DIRECTION ( 'NONE',  ( 1.000000000000000000, 0.000000000000000000, 0.000000000000000000 ) ) ;
#324 = EDGE_CURVE ( 'NONE', #117, #49, #191, .T. ) ;
#325 = CARTESIAN_POINT ( 'NONE',  ( 3.250000000000000444, 3.980102097228898231E-16, 705.0000000000000000 ) ) ;
#326 = CARTESIAN_POINT ( 'NONE',  ( 0.000000000000000000, 0.000000000000000000, 705.0000000000000000 ) ) ;
#327 = ADVANCED_FACE ( 'NONE', ( #299 ), #101, .F. ) ;
#328 = CIRCLE ( 'NONE', #206, 5.500000000000000000 ) ;
#329 = CARTESIAN_POINT ( 'NONE',  ( 0.000000000000000000, 0.000000000000000000, 0.000000000000000000 ) ) ;
#330 = ORIENTED_EDGE ( 'NONE', *, *, #137, .T. ) ;
#331 = CARTESIAN_POINT ( 'NONE',  ( 0.000000000000000000, 0.000000000000000000, 0.000000000000000000 ) ) ;
#332 =( NAMED_UNIT ( * ) PLANE_ANGLE_UNIT ( ) SI_UNIT ( $, .RADIAN. ) );
#333 = VERTEX_POINT ( 'NONE', #158 ) ;
#334 = AXIS2_PLACEMENT_3D ( 'NONE', #155, #271, #359 ) ;
#335 = CYLINDRICAL_SURFACE ( 'NONE', #253, 5.000000000000000000 ) ;
#336 = ORIENTED_EDGE ( 'NONE', *, *, #150, .T. ) ;
#337 = CARTESIAN_POINT ( 'NONE',  ( -3.250000000000000444, 0.000000000000000000, 705.0000000000000000 ) ) ;
#338 = DIRECTION ( 'NONE',  ( 1.000000000000000000, 0.000000000000000000, 0.000000000000000000 ) ) ;
#339 = EDGE_CURVE ( 'NONE', #102, #117, #9, .T. ) ;
#340 = AXIS2_PLACEMENT_3D ( 'NONE', #112, #108, #338 ) ;
#341 = DIRECTION ( 'NONE',  ( 1.000000000000000000, 0.000000000000000000, 0.000000000000000000 ) ) ;
#342 = COORDINATED_UNIVERSAL_TIME_OFFSET ( 1, 0, .AHEAD. ) ;
#343 = DIRECTION ( 'NONE',  ( 0.000000000000000000, 0.000000000000000000, 1.000000000000000000 ) ) ;
#344 = ORIENTED_EDGE ( 'NONE', *, *, #273, .F. ) ;
#345 = ORIENTED_EDGE ( 'NONE', *, *, #279, .F. ) ;
#346 = DIRECTION ( 'NONE',  ( -0.000000000000000000, -0.000000000000000000, -1.000000000000000000 ) ) ;
#347 = ADVANCED_FACE ( 'NONE', ( #129, #361 ), #162, .T. ) ;
#348 = DIRECTION ( 'NONE',  ( 1.000000000000000000, 0.000000000000000000, 0.000000000000000000 ) ) ;
#349 = EDGE_CURVE ( 'NONE', #91, #333, #251, .T. ) ;
#350 = CARTESIAN_POINT ( 'NONE',  ( 5.500000000000000000, 0.000000000000000000, 4.999999999999975131 ) ) ;
#351 = LOCAL_TIME ( 16, 44, 32.00000000000000000, #115 ) ;
#352 = CARTESIAN_POINT ( 'NONE',  ( 0.000000000000000000, 0.000000000000000000, 5.000000000000000000 ) ) ;
#353 = ORIENTED_EDGE ( 'NONE', *, *, #339, .T. ) ;
#354 = CARTESIAN_POINT ( 'NONE',  ( 0.000000000000000000, 0.000000000000000000, 5.499999999999949374 ) ) ;
#355 = EDGE_CURVE ( 'NONE', #49, #117, #109, .T. ) ;
#356 = ORIENTED_EDGE ( 'NONE', *, *, #65, .T. ) ;
#357 = AXIS2_PLACEMENT_3D ( 'NONE', #326, #122, #246 ) ;
#358 = AXIS2_PLACEMENT_3D ( 'NONE', #230, #209, #286 ) ;
#359 = DIRECTION ( 'NONE',  ( 1.000000000000000000, 0.000000000000000000, 0.000000000000000000 ) ) ;
#360 = ORIENTED_EDGE ( 'NONE', *, *, #324, .F. ) ;
#361 = FACE_OUTER_BOUND ( 'NONE', #130, .T. ) ;
#362 = ORIENTED_EDGE ( 'NONE', *, *, #173, .T. ) ;
#363 = AXIS2_PLACEMENT_3D ( 'NONE', #106, #37, #229 ) ;
#364 = ORIENTED_EDGE ( 'NONE', *, *, #173, .F. ) ;
#365 = DIRECTION ( 'NONE',  ( -0.000000000000000000, -0.000000000000000000, -1.000000000000000000 ) ) ;
#366 = CARTESIAN_POINT ( 'NONE',  ( 0.000000000000000000, 0.000000000000000000, 705.0000000000000000 ) ) ;
#367 = CC_DESIGN_SECURITY_CLASSIFICATION ( #140, ( #163 ) ) ;
#368 = DIRECTION ( 'NONE',  ( 1.000000000000000000, 0.000000000000000000, 0.000000000000000000 ) ) ;
#369 = APPROVAL_DATE_TIME ( #14, #257 ) ;
#370 = APPROVAL_PERSON_ORGANIZATION ( #233, #69, #198 ) ;
#371 = CARTESIAN_POINT ( 'NONE',  ( 0.000000000000000000, 0.000000000000000000, 705.0000000000000000 ) ) ;
#372 = DIRECTION ( 'NONE',  ( 1.224646799147353207E-16, 1.000000000000000000, -0.000000000000000000 ) ) ;
#373 = DATE_TIME_ROLE ( 'creation_date' ) ;
#374 = DIRECTION ( 'NONE',  ( 0.000000000000000000, 0.000000000000000000, 1.000000000000000000 ) ) ;
#375 = AXIS2_PLACEMENT_3D ( 'NONE', #146, #265, #348 ) ;
#376 = VECTOR ( 'NONE', #256, 1000.000000000000000 ) ;
#377 = CC_DESIGN_APPROVAL ( #257, ( #83 ) ) ;
#378 = ORIENTED_EDGE ( 'NONE', *, *, #71, .T. ) ;
#379 = LOCAL_TIME ( 16, 44, 32.00000000000000000, #172 ) ;
#380 = CYLINDRICAL_SURFACE ( 'NONE', #357, 3.250000000000000444 ) ;
#381 = AXIS2_PLACEMENT_3D ( 'NONE', #186, #96, #292 ) ;
ENDSEC;
END-ISO-10303-21;
