ISO-10303-21;
HEADER;
FILE_DESCRIPTION (( 'STEP AP203' ),
    '1' );
FILE_NAME ('ac48.STEP',
    '2022-07-08T15:13:28',
    ( '' ),
    ( '' ),
    'SwSTEP 2.0',
    'SolidWorks 2019',
    '' );
FILE_SCHEMA (( 'CONFIG_CONTROL_DESIGN' ));
ENDSEC;

DATA;
#1 = DIRECTION ( 'NONE',  ( -1.000000000000000000, 0.000000000000000000, 0.000000000000000000 ) ) ;
#2 = CARTESIAN_POINT ( 'NONE',  ( 6.000000000000000888, 7.347880794884120722E-16, 157.0000000000000000 ) ) ;
#3 = DIRECTION ( 'NONE',  ( -0.000000000000000000, -0.000000000000000000, -1.000000000000000000 ) ) ;
#4 = CIRCLE ( 'NONE', #316, 10.00000000000000000 ) ;
#5 = CIRCLE ( 'NONE', #208, 2.500000000000000000 ) ;
#6 = DIRECTION ( 'NONE',  ( 1.000000000000000000, 0.000000000000000000, 0.000000000000000000 ) ) ;
#7 = ORIENTED_EDGE ( 'NONE', *, *, #182, .F. ) ;
#8 = DIRECTION ( 'NONE',  ( 0.000000000000000000, 0.000000000000000000, -1.000000000000000000 ) ) ;
#9 = EDGE_CURVE ( 'NONE', #365, #373, #4, .T. ) ;
#10 = FACE_BOUND ( 'NONE', #277, .T. ) ;
#11 = CIRCLE ( 'NONE', #304, 2.500000000000000000 ) ;
#12 = AXIS2_PLACEMENT_3D ( 'NONE', #97, #357, #302 ) ;
#13 = DIRECTION ( 'NONE',  ( 1.000000000000000000, 0.000000000000000000, 0.000000000000000000 ) ) ;
#14 = DATE_AND_TIME ( #372, #201 ) ;
#15 = ORIENTED_EDGE ( 'NONE', *, *, #273, .T. ) ;
#16 = DIRECTION ( 'NONE',  ( 0.000000000000000000, 0.000000000000000000, 1.000000000000000000 ) ) ;
#17 = EDGE_LOOP ( 'NONE', ( #126, #255 ) ) ;
#18 = EDGE_CURVE ( 'NONE', #310, #135, #224, .T. ) ;
#19 = APPROVAL_PERSON_ORGANIZATION ( #178, #54, #144 ) ;
#20 = PERSON_AND_ORGANIZATION ( #57, #258 ) ;
#21 = EDGE_LOOP ( 'NONE', ( #15, #282 ) ) ;
#22 = PERSON_AND_ORGANIZATION_ROLE ( 'creator' ) ;
#23 = ORIENTED_EDGE ( 'NONE', *, *, #110, .T. ) ;
#24 = CARTESIAN_POINT ( 'NONE',  ( -6.000000000000000888, 0.000000000000000000, 7.500000000000007105 ) ) ;
#25 = DATE_TIME_ROLE ( 'classification_date' ) ;
#26 = ORIENTED_EDGE ( 'NONE', *, *, #66, .T. ) ;
#27 = CARTESIAN_POINT ( 'NONE',  ( 0.000000000000000000, 0.000000000000000000, 157.0000000000000000 ) ) ;
#28 = EDGE_CURVE ( 'NONE', #172, #81, #90, .T. ) ;
#29 = DIRECTION ( 'NONE',  ( 1.000000000000000000, 0.000000000000000000, -0.000000000000000000 ) ) ;
#30 = CIRCLE ( 'NONE', #330, 2.500000000000000000 ) ;
#31 = PRODUCT_DEFINITION_FORMATION_WITH_SPECIFIED_SOURCE ( 'LIBOVOLNÝ', '', #248, .NOT_KNOWN. ) ;
#32 = DIRECTION ( 'NONE',  ( 1.000000000000000000, 0.000000000000000000, 0.000000000000000000 ) ) ;
#33 = FACE_OUTER_BOUND ( 'NONE', #80, .T. ) ;
#34 = DESIGN_CONTEXT ( 'detailed design', #74, 'design' ) ;
#35 = CARTESIAN_POINT ( 'NONE',  ( 0.000000000000000000, 0.000000000000000000, 7.000000000000000000 ) ) ;
#36 = EDGE_CURVE ( 'NONE', #227, #363, #366, .T. ) ;
#37 = DIRECTION ( 'NONE',  ( -1.000000000000000000, 0.000000000000000000, 0.000000000000000000 ) ) ;
#38 = CARTESIAN_POINT ( 'NONE',  ( -6.000000000000000888, 0.000000000000000000, 157.0000000000000000 ) ) ;
#39 = PRODUCT_RELATED_PRODUCT_CATEGORY ( 'detail', '', ( #248 ) ) ;
#40 = PLANE ( 'NONE',  #298 ) ;
#41 = CARTESIAN_POINT ( 'NONE',  ( 0.000000000000000000, 0.000000000000000000, 0.000000000000000000 ) ) ;
#42 = LOCAL_TIME ( 17, 13, 28.00000000000000000, #43 ) ;
#43 = COORDINATED_UNIVERSAL_TIME_OFFSET ( 1, 0, .AHEAD. ) ;
#44 = ORIENTED_EDGE ( 'NONE', *, *, #370, .T. ) ;
#45 = PERSON_AND_ORGANIZATION_ROLE ( 'design_owner' ) ;
#46 = ORIENTED_EDGE ( 'NONE', *, *, #315, .T. ) ;
#47 = CC_DESIGN_PERSON_AND_ORGANIZATION_ASSIGNMENT ( #20, #22, ( #379 ) ) ;
#48 = CALENDAR_DATE ( 2022, 8, 7 ) ;
#49 = EDGE_LOOP ( 'NONE', ( #348, #289 ) ) ;
#50 = CIRCLE ( 'NONE', #136, 6.500000000000000888 ) ;
#51 = CC_DESIGN_APPROVAL ( #84, ( #379 ) ) ;
#52 = DIRECTION ( 'NONE',  ( 1.000000000000000000, 0.000000000000000000, 0.000000000000000000 ) ) ;
#53 = ORIENTED_EDGE ( 'NONE', *, *, #66, .F. ) ;
#54 = APPROVAL ( #238, 'NEURÈENÝ' ) ;
#55 = ORIENTED_EDGE ( 'NONE', *, *, #210, .F. ) ;
#56 = CARTESIAN_POINT ( 'NONE',  ( 0.000000000000000000, 0.000000000000000000, 157.0000000000000000 ) ) ;
#57 = PERSON ( 'NEURÈENÝ', 'NEURÈENÝ', 'NEURÈENÝ', ('NEURÈENÝ'), ('NEURÈENÝ'), ('NEURÈENÝ') ) ;
#58 = CC_DESIGN_APPROVAL ( #376, ( #31 ) ) ;
#59 = DIRECTION ( 'NONE',  ( 0.000000000000000000, 0.000000000000000000, 1.000000000000000000 ) ) ;
#60 = LINE ( 'NONE', #184, #158 ) ;
#61 = ADVANCED_FACE ( 'NONE', ( #209 ), #271, .T. ) ;
#62 = COORDINATED_UNIVERSAL_TIME_OFFSET ( 1, 0, .AHEAD. ) ;
#63 = DIRECTION ( 'NONE',  ( 1.000000000000000000, 0.000000000000000000, 0.000000000000000000 ) ) ;
#64 = LOCAL_TIME ( 17, 13, 28.00000000000000000, #62 ) ;
#65 = DIRECTION ( 'NONE',  ( -0.000000000000000000, -0.000000000000000000, -1.000000000000000000 ) ) ;
#66 = EDGE_CURVE ( 'NONE', #259, #106, #30, .T. ) ;
#67 = CARTESIAN_POINT ( 'NONE',  ( 0.000000000000000000, 0.000000000000000000, 157.0000000000000000 ) ) ;
#68 = DIRECTION ( 'NONE',  ( 1.000000000000000000, 0.000000000000000000, 0.000000000000000000 ) ) ;
#69 = PLANE ( 'NONE',  #360 ) ;
#70 = VECTOR ( 'NONE', #349, 1000.000000000000000 ) ;
#71 = CC_DESIGN_APPROVAL ( #54, ( #226 ) ) ;
#72 = EDGE_CURVE ( 'NONE', #172, #339, #275, .T. ) ;
#73 = DIRECTION ( 'NONE',  ( 0.000000000000000000, 0.000000000000000000, 1.000000000000000000 ) ) ;
#74 = APPLICATION_CONTEXT ( 'configuration controlled 3d designs of mechanical parts and assemblies' ) ;
#75 = CYLINDRICAL_SURFACE ( 'NONE', #318, 2.500000000000000000 ) ;
#76 = UNCERTAINTY_MEASURE_WITH_UNIT (LENGTH_MEASURE( 1.000000000000000082E-05 ), #198, 'distance_accuracy_value', 'NONE');
#77 = EDGE_LOOP ( 'NONE', ( #314, #345 ) ) ;
#78 = VECTOR ( 'NONE', #279, 1000.000000000000000 ) ;
#79 = DATE_AND_TIME ( #48, #42 ) ;
#80 = EDGE_LOOP ( 'NONE', ( #263, #291, #134, #239 ) ) ;
#81 = VERTEX_POINT ( 'NONE', #295 ) ;
#82 = ORIENTED_EDGE ( 'NONE', *, *, #72, .F. ) ;
#83 = VECTOR ( 'NONE', #8, 1000.000000000000000 ) ;
#84 = APPROVAL ( #195, 'NEURÈENÝ' ) ;
#85 = SHAPE_DEFINITION_REPRESENTATION ( #207, #290 ) ;
#86 = ORIENTED_EDGE ( 'NONE', *, *, #342, .T. ) ;
#87 = PERSON_AND_ORGANIZATION ( #57, #258 ) ;
#88 = FACE_BOUND ( 'NONE', #17, .T. ) ;
#89 = ORIENTED_EDGE ( 'NONE', *, *, #36, .F. ) ;
#90 = CIRCLE ( 'NONE', #323, 6.000000000000000888 ) ;
#91 = CIRCLE ( 'NONE', #159, 10.00000000000000000 ) ;
#92 = EDGE_CURVE ( 'NONE', #106, #259, #11, .T. ) ;
#93 = DIRECTION ( 'NONE',  ( 0.000000000000000000, 0.000000000000000000, 1.000000000000000000 ) ) ;
#94 = CARTESIAN_POINT ( 'NONE',  ( 0.000000000000000000, 0.000000000000000000, 7.500000000000007105 ) ) ;
#95 = CARTESIAN_POINT ( 'NONE',  ( 0.000000000000000000, 0.000000000000000000, 7.000000000000000000 ) ) ;
#96 = CIRCLE ( 'NONE', #352, 2.500000000000000000 ) ;
#97 = CARTESIAN_POINT ( 'NONE',  ( 0.000000000000000000, 0.000000000000000000, 7.500000000000007105 ) ) ;
#98 = DIRECTION ( 'NONE',  ( -1.000000000000000000, 0.000000000000000000, 0.000000000000000000 ) ) ;
#99 = DIRECTION ( 'NONE',  ( 1.000000000000000000, 0.000000000000000000, 0.000000000000000000 ) ) ;
#100 = CARTESIAN_POINT ( 'NONE',  ( 0.000000000000000000, 0.000000000000000000, 0.000000000000000000 ) ) ;
#101 = CIRCLE ( 'NONE', #177, 10.00000000000000000 ) ;
#102 = CARTESIAN_POINT ( 'NONE',  ( 6.500000000000000888, 0.000000000000000000, 7.000000000000002665 ) ) ;
#103 = DATE_TIME_ROLE ( 'creation_date' ) ;
#104 = ORIENTED_EDGE ( 'NONE', *, *, #92, .F. ) ;
#105 = MECHANICAL_CONTEXT ( 'NONE', #180, 'mechanical' ) ;
#106 = VERTEX_POINT ( 'NONE', #155 ) ;
#107 = AXIS2_PLACEMENT_3D ( 'NONE', #266, #93, #150 ) ;
#108 = EDGE_LOOP ( 'NONE', ( #89, #202, #170, #371 ) ) ;
#109 = PERSON_AND_ORGANIZATION ( #57, #258 ) ;
#110 = EDGE_CURVE ( 'NONE', #106, #261, #60, .T. ) ;
#111 = EDGE_LOOP ( 'NONE', ( #319, #287, #229, #113 ) ) ;
#112 = APPLICATION_PROTOCOL_DEFINITION ( 'international standard', 'config_control_design', 1994, #180 ) ;
#113 = ORIENTED_EDGE ( 'NONE', *, *, #278, .F. ) ;
#114 = AXIS2_PLACEMENT_3D ( 'NONE', #145, #59, #122 ) ;
#115 = TOROIDAL_SURFACE ( 'NONE', #165, 6.500000000000000888, 0.5000000000000000000 ) ;
#116 = CARTESIAN_POINT ( 'NONE',  ( -10.00000000000000000, 0.000000000000000000, 7.000000000000000000 ) ) ;
#117 = DIRECTION ( 'NONE',  ( 0.000000000000000000, 0.000000000000000000, 1.000000000000000000 ) ) ;
#118 = PERSON_AND_ORGANIZATION ( #57, #258 ) ;
#119 = FACE_OUTER_BOUND ( 'NONE', #111, .T. ) ;
#120 = AXIS2_PLACEMENT_3D ( 'NONE', #297, #329, #1 ) ;
#121 = DIRECTION ( 'NONE',  ( 1.000000000000000000, 0.000000000000000000, 0.000000000000000000 ) ) ;
#122 = DIRECTION ( 'NONE',  ( 1.000000000000000000, 0.000000000000000000, 0.000000000000000000 ) ) ;
#123 = FACE_OUTER_BOUND ( 'NONE', #254, .T. ) ;
#124 = LOCAL_TIME ( 17, 13, 28.00000000000000000, #222 ) ;
#125 = CYLINDRICAL_SURFACE ( 'NONE', #240, 10.00000000000000000 ) ;
#126 = ORIENTED_EDGE ( 'NONE', *, *, #370, .F. ) ;
#127 = ADVANCED_FACE ( 'NONE', ( #119 ), #199, .F. ) ;
#128 = FACE_OUTER_BOUND ( 'NONE', #142, .T. ) ;
#129 = DIRECTION ( 'NONE',  ( -0.000000000000000000, -0.000000000000000000, -1.000000000000000000 ) ) ;
#130 = CC_DESIGN_SECURITY_CLASSIFICATION ( #226, ( #31 ) ) ;
#131 = ORIENTED_EDGE ( 'NONE', *, *, #9, .T. ) ;
#132 = EDGE_CURVE ( 'NONE', #285, #339, #50, .T. ) ;
#133 = CALENDAR_DATE ( 2022, 8, 7 ) ;
#134 = ORIENTED_EDGE ( 'NONE', *, *, #262, .T. ) ;
#135 = VERTEX_POINT ( 'NONE', #351 ) ;
#136 = AXIS2_PLACEMENT_3D ( 'NONE', #95, #380, #121 ) ;
#137 = APPROVAL_PERSON_ORGANIZATION ( #253, #84, #313 ) ;
#138 = EDGE_CURVE ( 'NONE', #135, #365, #296, .T. ) ;
#139 = LINE ( 'NONE', #317, #281 ) ;
#140 = ORIENTED_EDGE ( 'NONE', *, *, #210, .T. ) ;
#141 = CARTESIAN_POINT ( 'NONE',  ( -6.000000000000000888, 0.000000000000000000, 157.0000000000000000 ) ) ;
#142 = EDGE_LOOP ( 'NONE', ( #82, #194, #231, #148 ) ) ;
#143 = LINE ( 'NONE', #235, #70 ) ;
#144 = APPROVAL_ROLE ( '' ) ;
#145 = CARTESIAN_POINT ( 'NONE',  ( 0.000000000000000000, 0.000000000000000000, 157.0000000000000000 ) ) ;
#146 = ADVANCED_FACE ( 'NONE', ( #176, #212 ), #270, .T. ) ;
#147 = PERSON_AND_ORGANIZATION_ROLE ( 'design_supplier' ) ;
#148 = ORIENTED_EDGE ( 'NONE', *, *, #220, .F. ) ;
#149 = PERSON_AND_ORGANIZATION_ROLE ( 'classification_officer' ) ;
#150 = DIRECTION ( 'NONE',  ( 1.000000000000000000, 0.000000000000000000, 0.000000000000000000 ) ) ;
#151 = AXIS2_PLACEMENT_3D ( 'NONE', #378, #375, #63 ) ;
#152 = AXIS2_PLACEMENT_3D ( 'NONE', #205, #181, #29 ) ;
#153 = PERSON_AND_ORGANIZATION ( #57, #258 ) ;
#154 = ADVANCED_FACE ( 'NONE', ( #241 ), #353, .F. ) ;
#155 = CARTESIAN_POINT ( 'NONE',  ( -2.500000000000000000, 0.000000000000000000, 157.0000000000000000 ) ) ;
#156 = DIRECTION ( 'NONE',  ( 0.000000000000000000, 0.000000000000000000, 1.000000000000000000 ) ) ;
#157 = DIRECTION ( 'NONE',  ( 0.000000000000000000, 0.000000000000000000, 1.000000000000000000 ) ) ;
#158 = VECTOR ( 'NONE', #185, 1000.000000000000000 ) ;
#159 = AXIS2_PLACEMENT_3D ( 'NONE', #100, #216, #68 ) ;
#160 = DIRECTION ( 'NONE',  ( 0.000000000000000000, 0.000000000000000000, -1.000000000000000000 ) ) ;
#161 = CC_DESIGN_DATE_AND_TIME_ASSIGNMENT ( #14, #103, ( #379 ) ) ;
#162 = FACE_OUTER_BOUND ( 'NONE', #21, .T. ) ;
#163 = AXIS2_PLACEMENT_3D ( 'NONE', #377, #325, #242 ) ;
#164 =( NAMED_UNIT ( * ) SI_UNIT ( $, .STERADIAN. ) SOLID_ANGLE_UNIT ( ) );
#165 = AXIS2_PLACEMENT_3D ( 'NONE', #257, #16, #52 ) ;
#166 = EDGE_LOOP ( 'NONE', ( #228, #223 ) ) ;
#167 = DIRECTION ( 'NONE',  ( -0.000000000000000000, -0.000000000000000000, -1.000000000000000000 ) ) ;
#168 = ORIENTED_EDGE ( 'NONE', *, *, #28, .T. ) ;
#169 = APPROVAL_DATE_TIME ( #79, #84 ) ;
#170 = ORIENTED_EDGE ( 'NONE', *, *, #283, .T. ) ;
#171 = COORDINATED_UNIVERSAL_TIME_OFFSET ( 1, 0, .AHEAD. ) ;
#172 = VERTEX_POINT ( 'NONE', #24 ) ;
#173 = EDGE_LOOP ( 'NONE', ( #312, #196, #341, #131 ) ) ;
#174 = MANIFOLD_SOLID_BREP ( 'Odebrat vysunutím3', #356 ) ;
#175 = CC_DESIGN_PERSON_AND_ORGANIZATION_ASSIGNMENT ( #118, #326, ( #31 ) ) ;
#176 = FACE_BOUND ( 'NONE', #166, .T. ) ;
#177 = AXIS2_PLACEMENT_3D ( 'NONE', #358, #157, #99 ) ;
#178 = PERSON_AND_ORGANIZATION ( #57, #258 ) ;
#179 = DIRECTION ( 'NONE',  ( 1.000000000000000000, 0.000000000000000000, 0.000000000000000000 ) ) ;
#180 = APPLICATION_CONTEXT ( 'configuration controlled 3d designs of mechanical parts and assemblies' ) ;
#181 = DIRECTION ( 'NONE',  ( 0.000000000000000000, 0.000000000000000000, 1.000000000000000000 ) ) ;
#182 = EDGE_CURVE ( 'NONE', #227, #81, #143, .T. ) ;
#183 = APPROVAL_DATE_TIME ( #204, #54 ) ;
#184 = CARTESIAN_POINT ( 'NONE',  ( -2.500000000000000000, 0.000000000000000000, 157.0000000000000000 ) ) ;
#185 = DIRECTION ( 'NONE',  ( 0.000000000000000000, 0.000000000000000000, -1.000000000000000000 ) ) ;
#186 = DIRECTION ( 'NONE',  ( 1.000000000000000000, 0.000000000000000000, -0.000000000000000000 ) ) ;
#187 = CARTESIAN_POINT ( 'NONE',  ( 0.000000000000000000, 0.000000000000000000, 157.0000000000000000 ) ) ;
#188 = CIRCLE ( 'NONE', #367, 6.000000000000000888 ) ;
#189 = DIRECTION ( 'NONE',  ( -0.000000000000000000, -0.000000000000000000, -1.000000000000000000 ) ) ;
#190 = FACE_OUTER_BOUND ( 'NONE', #77, .T. ) ;
#191 = DIRECTION ( 'NONE',  ( -0.000000000000000000, -0.000000000000000000, -1.000000000000000000 ) ) ;
#192 = ORIENTED_EDGE ( 'NONE', *, *, #273, .F. ) ;
#193 = DIRECTION ( 'NONE',  ( 1.000000000000000000, 0.000000000000000000, 0.000000000000000000 ) ) ;
#194 = ORIENTED_EDGE ( 'NONE', *, *, #283, .F. ) ;
#195 = APPROVAL_STATUS ( 'not_yet_approved' ) ;
#196 = ORIENTED_EDGE ( 'NONE', *, *, #256, .F. ) ;
#197 = ADVANCED_FACE ( 'NONE', ( #88, #190 ), #69, .F. ) ;
#198 =( LENGTH_UNIT ( ) NAMED_UNIT ( * ) SI_UNIT ( .MILLI., .METRE. ) );
#199 = TOROIDAL_SURFACE ( 'NONE', #151, 6.500000000000000888, 0.5000000000000000000 ) ;
#200 = EDGE_LOOP ( 'NONE', ( #343, #140, #86, #321 ) ) ;
#201 = LOCAL_TIME ( 17, 13, 28.00000000000000000, #171 ) ;
#202 = ORIENTED_EDGE ( 'NONE', *, *, #182, .T. ) ;
#203 = CC_DESIGN_PERSON_AND_ORGANIZATION_ASSIGNMENT ( #109, #45, ( #248 ) ) ;
#204 = DATE_AND_TIME ( #269, #307 ) ;
#205 = CARTESIAN_POINT ( 'NONE',  ( 0.000000000000000000, 0.000000000000000000, 7.000000000000000000 ) ) ;
#206 = DIRECTION ( 'NONE',  ( -0.000000000000000000, -0.000000000000000000, -1.000000000000000000 ) ) ;
#207 = PRODUCT_DEFINITION_SHAPE ( 'NONE', 'NONE',  #379 ) ;
#208 = AXIS2_PLACEMENT_3D ( 'NONE', #347, #167, #193 ) ;
#209 = FACE_OUTER_BOUND ( 'NONE', #108, .T. ) ;
#210 = EDGE_CURVE ( 'NONE', #259, #369, #359, .T. ) ;
#211 = DIRECTION ( 'NONE',  ( 0.000000000000000000, 0.000000000000000000, 1.000000000000000000 ) ) ;
#212 = FACE_OUTER_BOUND ( 'NONE', #49, .T. ) ;
#213 = AXIS2_PLACEMENT_3D ( 'NONE', #41, #344, #13 ) ;
#214 = DIRECTION ( 'NONE',  ( 1.000000000000000000, 0.000000000000000000, 0.000000000000000000 ) ) ;
#215 = ADVANCED_FACE ( 'NONE', ( #10, #162 ), #40, .T. ) ;
#216 = DIRECTION ( 'NONE',  ( 0.000000000000000000, 0.000000000000000000, 1.000000000000000000 ) ) ;
#217 = CARTESIAN_POINT ( 'NONE',  ( -2.500000000000000000, 0.000000000000000000, 0.000000000000000000 ) ) ;
#218 = VECTOR ( 'NONE', #65, 1000.000000000000000 ) ;
#219 = DIRECTION ( 'NONE',  ( 0.000000000000000000, 0.000000000000000000, 1.000000000000000000 ) ) ;
#220 = EDGE_CURVE ( 'NONE', #339, #285, #374, .T. ) ;
#221 = CARTESIAN_POINT ( 'NONE',  ( 0.000000000000000000, 0.000000000000000000, 0.000000000000000000 ) ) ;
#222 = COORDINATED_UNIVERSAL_TIME_OFFSET ( 1, 0, .AHEAD. ) ;
#223 = ORIENTED_EDGE ( 'NONE', *, *, #220, .T. ) ;
#224 = CIRCLE ( 'NONE', #107, 10.00000000000000000 ) ;
#225 = CARTESIAN_POINT ( 'NONE',  ( -10.00000000000000000, 0.000000000000000000, 0.000000000000000000 ) ) ;
#226 = SECURITY_CLASSIFICATION ( '', '', #267 ) ;
#227 = VERTEX_POINT ( 'NONE', #2 ) ;
#228 = ORIENTED_EDGE ( 'NONE', *, *, #132, .T. ) ;
#229 = ORIENTED_EDGE ( 'NONE', *, *, #132, .F. ) ;
#230 = PERSON_AND_ORGANIZATION ( #57, #258 ) ;
#231 = ORIENTED_EDGE ( 'NONE', *, *, #278, .T. ) ;
#232 = AXIS2_PLACEMENT_3D ( 'NONE', #361, #274, #336 ) ;
#233 = CC_DESIGN_PERSON_AND_ORGANIZATION_ASSIGNMENT ( #153, #149, ( #226 ) ) ;
#234 = APPROVAL_DATE_TIME ( #364, #376 ) ;
#235 = CARTESIAN_POINT ( 'NONE',  ( 6.000000000000000888, 7.347880794884120722E-16, 157.0000000000000000 ) ) ;
#236 = DATE_AND_TIME ( #320, #64 ) ;
#237 = DIRECTION ( 'NONE',  ( 1.000000000000000000, 0.000000000000000000, 0.000000000000000000 ) ) ;
#238 = APPROVAL_STATUS ( 'not_yet_approved' ) ;
#239 = ORIENTED_EDGE ( 'NONE', *, *, #138, .F. ) ;
#240 = AXIS2_PLACEMENT_3D ( 'NONE', #334, #189, #98 ) ;
#241 = FACE_OUTER_BOUND ( 'NONE', #200, .T. ) ;
#242 = DIRECTION ( 'NONE',  ( -1.000000000000000000, 1.224646799147351482E-16, 0.000000000000000000 ) ) ;
#243 = CARTESIAN_POINT ( 'NONE',  ( 0.000000000000000000, 0.000000000000000000, 157.0000000000000000 ) ) ;
#244 = ADVANCED_FACE ( 'NONE', ( #123 ), #332, .T. ) ;
#245 = AXIS2_PLACEMENT_3D ( 'NONE', #35, #3, #247 ) ;
#246 = DIRECTION ( 'NONE',  ( -0.000000000000000000, -0.000000000000000000, -1.000000000000000000 ) ) ;
#247 = DIRECTION ( 'NONE',  ( -1.000000000000000000, 0.000000000000000000, 0.000000000000000000 ) ) ;
#248 = PRODUCT ( 'ac48', 'ac48', '', ( #105 ) ) ;
#249 = CC_DESIGN_PERSON_AND_ORGANIZATION_ASSIGNMENT ( #87, #147, ( #31 ) ) ;
#250 = DIRECTION ( 'NONE',  ( -1.000000000000000000, 0.000000000000000000, 0.000000000000000000 ) ) ;
#251 = AXIS2_PLACEMENT_3D ( 'NONE', #187, #129, #37 ) ;
#252 = FACE_OUTER_BOUND ( 'NONE', #354, .T. ) ;
#253 = PERSON_AND_ORGANIZATION ( #57, #258 ) ;
#254 = EDGE_LOOP ( 'NONE', ( #7, #192, #46, #168 ) ) ;
#255 = ORIENTED_EDGE ( 'NONE', *, *, #342, .F. ) ;
#256 = EDGE_CURVE ( 'NONE', #135, #310, #101, .T. ) ;
#257 = CARTESIAN_POINT ( 'NONE',  ( 0.000000000000000000, 0.000000000000000000, 7.500000000000007105 ) ) ;
#258 = ORGANIZATION ( 'NEURÈENÝ', 'NEURÈENÝ', '' ) ;
#259 = VERTEX_POINT ( 'NONE', #280 ) ;
#260 = DIRECTION ( 'NONE',  ( -0.000000000000000000, -0.000000000000000000, -1.000000000000000000 ) ) ;
#261 = VERTEX_POINT ( 'NONE', #217 ) ;
#262 = EDGE_CURVE ( 'NONE', #373, #365, #91, .T. ) ;
#263 = ORIENTED_EDGE ( 'NONE', *, *, #18, .F. ) ;
#264 = AXIS2_PLACEMENT_3D ( 'NONE', #272, #246, #214 ) ;
#265 = CARTESIAN_POINT ( 'NONE',  ( 0.000000000000000000, 0.000000000000000000, 157.0000000000000000 ) ) ;
#266 = CARTESIAN_POINT ( 'NONE',  ( 0.000000000000000000, 0.000000000000000000, 7.000000000000000000 ) ) ;
#267 = SECURITY_CLASSIFICATION_LEVEL ( 'unclassified' ) ;
#268 = ADVANCED_FACE ( 'NONE', ( #252 ), #75, .F. ) ;
#269 = CALENDAR_DATE ( 2022, 8, 7 ) ;
#270 = PLANE ( 'NONE',  #152 ) ;
#271 = CYLINDRICAL_SURFACE ( 'NONE', #346, 6.000000000000000888 ) ;
#272 = CARTESIAN_POINT ( 'NONE',  ( 0.000000000000000000, 0.000000000000000000, 7.000000000000000000 ) ) ;
#273 = EDGE_CURVE ( 'NONE', #363, #227, #188, .T. ) ;
#274 = DIRECTION ( 'NONE',  ( 0.000000000000000000, -1.000000000000000000, 0.000000000000000000 ) ) ;
#275 = CIRCLE ( 'NONE', #163, 0.5000000000000004441 ) ;
#276 = CYLINDRICAL_SURFACE ( 'NONE', #245, 10.00000000000000000 ) ;
#277 = EDGE_LOOP ( 'NONE', ( #104, #53 ) ) ;
#278 = EDGE_CURVE ( 'NONE', #81, #285, #331, .T. ) ;
#279 = DIRECTION ( 'NONE',  ( -0.000000000000000000, -0.000000000000000000, -1.000000000000000000 ) ) ;
#280 = CARTESIAN_POINT ( 'NONE',  ( 2.500000000000000000, 3.061616997868383141E-16, 157.0000000000000000 ) ) ;
#281 = VECTOR ( 'NONE', #191, 1000.000000000000000 ) ;
#282 = ORIENTED_EDGE ( 'NONE', *, *, #36, .T. ) ;
#283 = EDGE_CURVE ( 'NONE', #81, #172, #381, .T. ) ;
#284 = CARTESIAN_POINT ( 'NONE',  ( 0.000000000000000000, 0.000000000000000000, 0.000000000000000000 ) ) ;
#285 = VERTEX_POINT ( 'NONE', #102 ) ;
#286 = CARTESIAN_POINT ( 'NONE',  ( 2.500000000000000000, 3.061616997868383141E-16, 0.000000000000000000 ) ) ;
#287 = ORIENTED_EDGE ( 'NONE', *, *, #72, .T. ) ;
#288 = DIRECTION ( 'NONE',  ( 1.000000000000000000, 0.000000000000000000, 0.000000000000000000 ) ) ;
#289 = ORIENTED_EDGE ( 'NONE', *, *, #18, .T. ) ;
#290 = ADVANCED_BREP_SHAPE_REPRESENTATION ( 'ac48', ( #174, #213 ), #293 ) ;
#291 = ORIENTED_EDGE ( 'NONE', *, *, #335, .T. ) ;
#292 = DIRECTION ( 'NONE',  ( 1.000000000000000000, 0.000000000000000000, 0.000000000000000000 ) ) ;
#293 =( GEOMETRIC_REPRESENTATION_CONTEXT ( 3 ) GLOBAL_UNCERTAINTY_ASSIGNED_CONTEXT ( ( #76 ) ) GLOBAL_UNIT_ASSIGNED_CONTEXT ( ( #198, #311, #164 ) ) REPRESENTATION_CONTEXT ( 'NONE', 'WORKASPACE' ) );
#294 = COORDINATED_UNIVERSAL_TIME_OFFSET ( 1, 0, .AHEAD. ) ;
#295 = CARTESIAN_POINT ( 'NONE',  ( 6.000000000000000888, 7.347880794884120722E-16, 7.500000000000007105 ) ) ;
#296 = LINE ( 'NONE', #116, #218 ) ;
#297 = CARTESIAN_POINT ( 'NONE',  ( 0.000000000000000000, 0.000000000000000000, 157.0000000000000000 ) ) ;
#298 = AXIS2_PLACEMENT_3D ( 'NONE', #67, #156, #186 ) ;
#299 = APPROVAL_PERSON_ORGANIZATION ( #230, #376, #338 ) ;
#300 = ADVANCED_FACE ( 'NONE', ( #337 ), #276, .T. ) ;
#301 = DIRECTION ( 'NONE',  ( 1.000000000000000000, 0.000000000000000000, -0.000000000000000000 ) ) ;
#302 = DIRECTION ( 'NONE',  ( 1.000000000000000000, 0.000000000000000000, 0.000000000000000000 ) ) ;
#303 = CARTESIAN_POINT ( 'NONE',  ( 2.500000000000000000, 3.061616997868383141E-16, 157.0000000000000000 ) ) ;
#304 = AXIS2_PLACEMENT_3D ( 'NONE', #27, #117, #237 ) ;
#305 = LINE ( 'NONE', #38, #78 ) ;
#306 = ADVANCED_FACE ( 'NONE', ( #33 ), #125, .T. ) ;
#307 = LOCAL_TIME ( 17, 13, 28.00000000000000000, #294 ) ;
#308 = CC_DESIGN_DATE_AND_TIME_ASSIGNMENT ( #236, #25, ( #226 ) ) ;
#309 = APPLICATION_PROTOCOL_DEFINITION ( 'international standard', 'config_control_design', 1994, #74 ) ;
#310 = VERTEX_POINT ( 'NONE', #333 ) ;
#311 =( NAMED_UNIT ( * ) PLANE_ANGLE_UNIT ( ) SI_UNIT ( $, .RADIAN. ) );
#312 = ORIENTED_EDGE ( 'NONE', *, *, #335, .F. ) ;
#313 = APPROVAL_ROLE ( '' ) ;
#314 = ORIENTED_EDGE ( 'NONE', *, *, #9, .F. ) ;
#315 = EDGE_CURVE ( 'NONE', #363, #172, #305, .T. ) ;
#316 = AXIS2_PLACEMENT_3D ( 'NONE', #350, #211, #32 ) ;
#317 = CARTESIAN_POINT ( 'NONE',  ( 10.00000000000000000, 1.224646799147353256E-15, 7.000000000000000000 ) ) ;
#318 = AXIS2_PLACEMENT_3D ( 'NONE', #243, #160, #250 ) ;
#319 = ORIENTED_EDGE ( 'NONE', *, *, #28, .F. ) ;
#320 = CALENDAR_DATE ( 2022, 8, 7 ) ;
#321 = ORIENTED_EDGE ( 'NONE', *, *, #110, .F. ) ;
#322 = DIRECTION ( 'NONE',  ( -1.000000000000000000, 0.000000000000000000, 0.000000000000000000 ) ) ;
#323 = AXIS2_PLACEMENT_3D ( 'NONE', #94, #324, #179 ) ;
#324 = DIRECTION ( 'NONE',  ( 0.000000000000000000, 0.000000000000000000, 1.000000000000000000 ) ) ;
#325 = DIRECTION ( 'NONE',  ( 1.224646799147353207E-16, 1.000000000000000000, -0.000000000000000000 ) ) ;
#326 = PERSON_AND_ORGANIZATION_ROLE ( 'creator' ) ;
#327 = DIRECTION ( 'NONE',  ( 0.000000000000000000, 0.000000000000000000, 1.000000000000000000 ) ) ;
#328 = ADVANCED_FACE ( 'NONE', ( #128 ), #115, .F. ) ;
#329 = DIRECTION ( 'NONE',  ( 0.000000000000000000, 0.000000000000000000, -1.000000000000000000 ) ) ;
#330 = AXIS2_PLACEMENT_3D ( 'NONE', #56, #327, #292 ) ;
#331 = CIRCLE ( 'NONE', #232, 0.5000000000000004441 ) ;
#332 = CYLINDRICAL_SURFACE ( 'NONE', #251, 6.000000000000000888 ) ;
#333 = CARTESIAN_POINT ( 'NONE',  ( 10.00000000000000000, 1.224646799147353256E-15, 7.000000000000000000 ) ) ;
#334 = CARTESIAN_POINT ( 'NONE',  ( 0.000000000000000000, 0.000000000000000000, 7.000000000000000000 ) ) ;
#335 = EDGE_CURVE ( 'NONE', #310, #373, #139, .T. ) ;
#336 = DIRECTION ( 'NONE',  ( 0.000000000000000000, 0.000000000000000000, -1.000000000000000000 ) ) ;
#337 = FACE_OUTER_BOUND ( 'NONE', #173, .T. ) ;
#338 = APPROVAL_ROLE ( '' ) ;
#339 = VERTEX_POINT ( 'NONE', #368 ) ;
#340 = CARTESIAN_POINT ( 'NONE',  ( 10.00000000000000000, 1.224646799147353256E-15, 0.000000000000000000 ) ) ;
#341 = ORIENTED_EDGE ( 'NONE', *, *, #138, .T. ) ;
#342 = EDGE_CURVE ( 'NONE', #369, #261, #96, .T. ) ;
#343 = ORIENTED_EDGE ( 'NONE', *, *, #92, .T. ) ;
#344 = DIRECTION ( 'NONE',  ( 0.000000000000000000, 0.000000000000000000, 1.000000000000000000 ) ) ;
#345 = ORIENTED_EDGE ( 'NONE', *, *, #262, .F. ) ;
#346 = AXIS2_PLACEMENT_3D ( 'NONE', #265, #206, #322 ) ;
#347 = CARTESIAN_POINT ( 'NONE',  ( 0.000000000000000000, 0.000000000000000000, 0.000000000000000000 ) ) ;
#348 = ORIENTED_EDGE ( 'NONE', *, *, #256, .T. ) ;
#349 = DIRECTION ( 'NONE',  ( -0.000000000000000000, -0.000000000000000000, -1.000000000000000000 ) ) ;
#350 = CARTESIAN_POINT ( 'NONE',  ( 0.000000000000000000, 0.000000000000000000, 0.000000000000000000 ) ) ;
#351 = CARTESIAN_POINT ( 'NONE',  ( -10.00000000000000000, 0.000000000000000000, 7.000000000000000000 ) ) ;
#352 = AXIS2_PLACEMENT_3D ( 'NONE', #284, #260, #288 ) ;
#353 = CYLINDRICAL_SURFACE ( 'NONE', #120, 2.500000000000000000 ) ;
#354 = EDGE_LOOP ( 'NONE', ( #55, #26, #23, #44 ) ) ;
#355 = CARTESIAN_POINT ( 'NONE',  ( 0.000000000000000000, 0.000000000000000000, 157.0000000000000000 ) ) ;
#356 = CLOSED_SHELL ( 'NONE', ( #154, #127, #61, #306, #300, #146, #197, #244, #215, #328, #268 ) ) ;
#357 = DIRECTION ( 'NONE',  ( 0.000000000000000000, 0.000000000000000000, 1.000000000000000000 ) ) ;
#358 = CARTESIAN_POINT ( 'NONE',  ( 0.000000000000000000, 0.000000000000000000, 7.000000000000000000 ) ) ;
#359 = LINE ( 'NONE', #303, #83 ) ;
#360 = AXIS2_PLACEMENT_3D ( 'NONE', #221, #73, #301 ) ;
#361 = CARTESIAN_POINT ( 'NONE',  ( 6.500000000000000888, 0.000000000000000000, 7.500000000000007105 ) ) ;
#362 = APPROVAL_STATUS ( 'not_yet_approved' ) ;
#363 = VERTEX_POINT ( 'NONE', #141 ) ;
#364 = DATE_AND_TIME ( #133, #124 ) ;
#365 = VERTEX_POINT ( 'NONE', #225 ) ;
#366 = CIRCLE ( 'NONE', #114, 6.000000000000000888 ) ;
#367 = AXIS2_PLACEMENT_3D ( 'NONE', #355, #219, #6 ) ;
#368 = CARTESIAN_POINT ( 'NONE',  ( -6.500000000000000888, 7.960204194457796463E-16, 7.000000000000002665 ) ) ;
#369 = VERTEX_POINT ( 'NONE', #286 ) ;
#370 = EDGE_CURVE ( 'NONE', #261, #369, #5, .T. ) ;
#371 = ORIENTED_EDGE ( 'NONE', *, *, #315, .F. ) ;
#372 = CALENDAR_DATE ( 2022, 8, 7 ) ;
#373 = VERTEX_POINT ( 'NONE', #340 ) ;
#374 = CIRCLE ( 'NONE', #264, 6.500000000000000888 ) ;
#375 = DIRECTION ( 'NONE',  ( 0.000000000000000000, 0.000000000000000000, 1.000000000000000000 ) ) ;
#376 = APPROVAL ( #362, 'NEURÈENÝ' ) ;
#377 = CARTESIAN_POINT ( 'NONE',  ( -6.500000000000000888, 7.960204194457796463E-16, 7.500000000000007105 ) ) ;
#378 = CARTESIAN_POINT ( 'NONE',  ( 0.000000000000000000, 0.000000000000000000, 7.500000000000007105 ) ) ;
#379 = PRODUCT_DEFINITION ( 'NEZNÁMÝ', '', #31, #34 ) ;
#380 = DIRECTION ( 'NONE',  ( -0.000000000000000000, -0.000000000000000000, -1.000000000000000000 ) ) ;
#381 = CIRCLE ( 'NONE', #12, 6.000000000000000888 ) ;
ENDSEC;
END-ISO-10303-21;
