ISO-10303-21;
HEADER;
FILE_DESCRIPTION (( 'STEP AP203' ),
    '1' );
FILE_NAME ('8b75.STEP',
    '2022-07-08T15:30:51',
    ( '' ),
    ( '' ),
    'SwSTEP 2.0',
    'SolidWorks 2019',
    '' );
FILE_SCHEMA (( 'CONFIG_CONTROL_DESIGN' ));
ENDSEC;

DATA;
#1 = PLANE ( 'NONE',  #152 ) ;
#2 = ADVANCED_FACE ( 'NONE', ( #101, #378 ), #42, .T. ) ;
#3 = VECTOR ( 'NONE', #109, 1000.000000000000000 ) ;
#4 = APPROVAL_ROLE ( '' ) ;
#5 = ORIENTED_EDGE ( 'NONE', *, *, #112, .F. ) ;
#6 = APPROVAL_PERSON_ORGANIZATION ( #348, #245, #194 ) ;
#7 = VERTEX_POINT ( 'NONE', #303 ) ;
#8 = EDGE_LOOP ( 'NONE', ( #122, #178 ) ) ;
#9 = EDGE_CURVE ( 'NONE', #333, #236, #207, .T. ) ;
#10 = TOROIDAL_SURFACE ( 'NONE', #57, 4.500000000000000888, 0.5000000000000000000 ) ;
#11 = APPROVAL_PERSON_ORGANIZATION ( #218, #331, #4 ) ;
#12 = DIRECTION ( 'NONE',  ( -1.000000000000000000, 0.000000000000000000, 0.000000000000000000 ) ) ;
#13 = CARTESIAN_POINT ( 'NONE',  ( 0.000000000000000000, 0.000000000000000000, 0.000000000000000000 ) ) ;
#14 = EDGE_CURVE ( 'NONE', #232, #333, #29, .T. ) ;
#15 = DIRECTION ( 'NONE',  ( 1.000000000000000000, 0.000000000000000000, -0.000000000000000000 ) ) ;
#16 = CIRCLE ( 'NONE', #272, 2.000000000000000000 ) ;
#17 = ORIENTED_EDGE ( 'NONE', *, *, #9, .T. ) ;
#18 = AXIS2_PLACEMENT_3D ( 'NONE', #67, #213, #37 ) ;
#19 = CARTESIAN_POINT ( 'NONE',  ( 0.000000000000000000, 0.000000000000000000, 405.0000000000000000 ) ) ;
#20 = CC_DESIGN_PERSON_AND_ORGANIZATION_ASSIGNMENT ( #280, #160, ( #53 ) ) ;
#21 = CARTESIAN_POINT ( 'NONE',  ( 4.000000000000000000, 4.898587196589412829E-16, 405.0000000000000000 ) ) ;
#22 = PERSON_AND_ORGANIZATION ( #170, #310 ) ;
#23 = EDGE_CURVE ( 'NONE', #365, #35, #113, .T. ) ;
#24 = DIRECTION ( 'NONE',  ( 1.000000000000000000, 0.000000000000000000, 0.000000000000000000 ) ) ;
#25 =( NAMED_UNIT ( * ) PLANE_ANGLE_UNIT ( ) SI_UNIT ( $, .RADIAN. ) );
#26 = LOCAL_TIME ( 17, 30, 51.00000000000000000, #253 ) ;
#27 = EDGE_CURVE ( 'NONE', #264, #149, #180, .T. ) ;
#28 = FACE_OUTER_BOUND ( 'NONE', #295, .T. ) ;
#29 = CIRCLE ( 'NONE', #374, 4.000000000000000000 ) ;
#30 = ORIENTED_EDGE ( 'NONE', *, *, #127, .F. ) ;
#31 = CALENDAR_DATE ( 2022, 8, 7 ) ;
#32 = AXIS2_PLACEMENT_3D ( 'NONE', #94, #270, #12 ) ;
#33 = ORIENTED_EDGE ( 'NONE', *, *, #254, .T. ) ;
#34 = ORIENTED_EDGE ( 'NONE', *, *, #51, .T. ) ;
#35 = VERTEX_POINT ( 'NONE', #182 ) ;
#36 = CARTESIAN_POINT ( 'NONE',  ( 0.000000000000000000, 0.000000000000000000, 405.0000000000000000 ) ) ;
#37 = DIRECTION ( 'NONE',  ( 1.000000000000000000, 0.000000000000000000, 0.000000000000000000 ) ) ;
#38 = ORIENTED_EDGE ( 'NONE', *, *, #249, .T. ) ;
#39 = ADVANCED_FACE ( 'NONE', ( #367 ), #98, .T. ) ;
#40 = AXIS2_PLACEMENT_3D ( 'NONE', #261, #90, #24 ) ;
#41 = COORDINATED_UNIVERSAL_TIME_OFFSET ( 1, 0, .AHEAD. ) ;
#42 = PLANE ( 'NONE',  #366 ) ;
#43 = AXIS2_PLACEMENT_3D ( 'NONE', #228, #257, #352 ) ;
#44 = DATE_AND_TIME ( #380, #166 ) ;
#45 = DIRECTION ( 'NONE',  ( 0.000000000000000000, 0.000000000000000000, -1.000000000000000000 ) ) ;
#46 = PERSON_AND_ORGANIZATION ( #170, #310 ) ;
#47 = VERTEX_POINT ( 'NONE', #312 ) ;
#48 = DATE_TIME_ROLE ( 'creation_date' ) ;
#49 = DIRECTION ( 'NONE',  ( -1.000000000000000000, 0.000000000000000000, 0.000000000000000000 ) ) ;
#50 = LINE ( 'NONE', #58, #353 ) ;
#51 = EDGE_CURVE ( 'NONE', #7, #329, #216, .T. ) ;
#52 = AXIS2_PLACEMENT_3D ( 'NONE', #304, #298, #66 ) ;
#53 = PRODUCT_DEFINITION_FORMATION_WITH_SPECIFIED_SOURCE ( 'LIBOVOLNÝ', '', #111, .NOT_KNOWN. ) ;
#54 = DIRECTION ( 'NONE',  ( -0.000000000000000000, -0.000000000000000000, -1.000000000000000000 ) ) ;
#55 = PRODUCT_DEFINITION ( 'NEZNÁMÝ', '', #53, #56 ) ;
#56 = DESIGN_CONTEXT ( 'detailed design', #371, 'design' ) ;
#57 = AXIS2_PLACEMENT_3D ( 'NONE', #241, #300, #265 ) ;
#58 = CARTESIAN_POINT ( 'NONE',  ( -7.000000000000000000, 0.000000000000000000, 5.000000000000000000 ) ) ;
#59 = ORIENTED_EDGE ( 'NONE', *, *, #27, .T. ) ;
#60 = AXIS2_PLACEMENT_3D ( 'NONE', #221, #75, #49 ) ;
#61 = ORIENTED_EDGE ( 'NONE', *, *, #320, .F. ) ;
#62 = FACE_BOUND ( 'NONE', #356, .T. ) ;
#63 = ADVANCED_FACE ( 'NONE', ( #72 ), #308, .T. ) ;
#64 = ORIENTED_EDGE ( 'NONE', *, *, #343, .F. ) ;
#65 = CIRCLE ( 'NONE', #342, 4.500000000000000888 ) ;
#66 = DIRECTION ( 'NONE',  ( -1.000000000000000000, 0.000000000000000000, 0.000000000000000000 ) ) ;
#67 = CARTESIAN_POINT ( 'NONE',  ( 0.000000000000000000, 0.000000000000000000, 0.000000000000000000 ) ) ;
#68 = EDGE_LOOP ( 'NONE', ( #373, #266, #242, #299 ) ) ;
#69 = ORIENTED_EDGE ( 'NONE', *, *, #127, .T. ) ;
#70 = CC_DESIGN_PERSON_AND_ORGANIZATION_ASSIGNMENT ( #78, #311, ( #55 ) ) ;
#71 = DIRECTION ( 'NONE',  ( 0.000000000000000000, 0.000000000000000000, 1.000000000000000000 ) ) ;
#72 = FACE_OUTER_BOUND ( 'NONE', #155, .T. ) ;
#73 = DIRECTION ( 'NONE',  ( 1.000000000000000000, 0.000000000000000000, 0.000000000000000000 ) ) ;
#74 = EDGE_CURVE ( 'NONE', #329, #172, #16, .T. ) ;
#75 = DIRECTION ( 'NONE',  ( -0.000000000000000000, -0.000000000000000000, -1.000000000000000000 ) ) ;
#76 = PERSON_AND_ORGANIZATION ( #170, #310 ) ;
#77 = DIRECTION ( 'NONE',  ( 1.000000000000000000, 0.000000000000000000, 0.000000000000000000 ) ) ;
#78 = PERSON_AND_ORGANIZATION ( #170, #310 ) ;
#79 = LINE ( 'NONE', #164, #341 ) ;
#80 = EDGE_CURVE ( 'NONE', #327, #361, #326, .T. ) ;
#81 = DIRECTION ( 'NONE',  ( -0.000000000000000000, -0.000000000000000000, -1.000000000000000000 ) ) ;
#82 = CALENDAR_DATE ( 2022, 8, 7 ) ;
#83 = ORIENTED_EDGE ( 'NONE', *, *, #262, .F. ) ;
#84 = CARTESIAN_POINT ( 'NONE',  ( -7.000000000000000000, 0.000000000000000000, 0.000000000000000000 ) ) ;
#85 = CC_DESIGN_DATE_AND_TIME_ASSIGNMENT ( #44, #48, ( #55 ) ) ;
#86 = UNCERTAINTY_MEASURE_WITH_UNIT (LENGTH_MEASURE( 1.000000000000000082E-05 ), #355, 'distance_accuracy_value', 'NONE');
#87 = DATE_AND_TIME ( #31, #223 ) ;
#88 = ORIENTED_EDGE ( 'NONE', *, *, #306, .T. ) ;
#89 = DIRECTION ( 'NONE',  ( -0.000000000000000000, -0.000000000000000000, -1.000000000000000000 ) ) ;
#90 = DIRECTION ( 'NONE',  ( 0.000000000000000000, 0.000000000000000000, 1.000000000000000000 ) ) ;
#91 = ORIENTED_EDGE ( 'NONE', *, *, #324, .F. ) ;
#92 = ORIENTED_EDGE ( 'NONE', *, *, #133, .T. ) ;
#93 = AXIS2_PLACEMENT_3D ( 'NONE', #159, #224, #77 ) ;
#94 = CARTESIAN_POINT ( 'NONE',  ( 0.000000000000000000, 0.000000000000000000, 405.0000000000000000 ) ) ;
#95 = ORIENTED_EDGE ( 'NONE', *, *, #80, .T. ) ;
#96 = DIRECTION ( 'NONE',  ( 0.000000000000000000, 0.000000000000000000, 1.000000000000000000 ) ) ;
#97 = MANIFOLD_SOLID_BREP ( 'Odebrat vysunutím3', #108 ) ;
#98 = CYLINDRICAL_SURFACE ( 'NONE', #347, 7.000000000000000000 ) ;
#99 = AXIS2_PLACEMENT_3D ( 'NONE', #230, #237, #167 ) ;
#100 = DATE_AND_TIME ( #82, #26 ) ;
#101 = FACE_BOUND ( 'NONE', #209, .T. ) ;
#102 = DIRECTION ( 'NONE',  ( 1.000000000000000000, 0.000000000000000000, 0.000000000000000000 ) ) ;
#103 = CARTESIAN_POINT ( 'NONE',  ( 0.000000000000000000, 0.000000000000000000, 5.000000000000000000 ) ) ;
#104 = CIRCLE ( 'NONE', #121, 4.500000000000000888 ) ;
#105 = PRODUCT_RELATED_PRODUCT_CATEGORY ( 'detail', '', ( #111 ) ) ;
#106 = CARTESIAN_POINT ( 'NONE',  ( 0.000000000000000000, 0.000000000000000000, 405.0000000000000000 ) ) ;
#107 = CARTESIAN_POINT ( 'NONE',  ( 0.000000000000000000, 0.000000000000000000, 0.000000000000000000 ) ) ;
#108 = CLOSED_SHELL ( 'NONE', ( #116, #120, #189, #184, #39, #2, #220, #63, #141, #157, #177 ) ) ;
#109 = DIRECTION ( 'NONE',  ( 0.000000000000000000, 0.000000000000000000, -1.000000000000000000 ) ) ;
#110 = LOCAL_TIME ( 17, 30, 51.00000000000000000, #41 ) ;
#111 = PRODUCT ( '8b75', '8b75', '', ( #222 ) ) ;
#112 = EDGE_CURVE ( 'NONE', #333, #232, #376, .T. ) ;
#113 = CIRCLE ( 'NONE', #202, 7.000000000000000000 ) ;
#114 = CYLINDRICAL_SURFACE ( 'NONE', #351, 2.000000000000000000 ) ;
#115 = CIRCLE ( 'NONE', #142, 0.5000000000000004441 ) ;
#116 = ADVANCED_FACE ( 'NONE', ( #28 ), #114, .F. ) ;
#117 = ORIENTED_EDGE ( 'NONE', *, *, #23, .F. ) ;
#118 = EDGE_LOOP ( 'NONE', ( #181, #271, #33, #206 ) ) ;
#119 = ORIENTED_EDGE ( 'NONE', *, *, #150, .F. ) ;
#120 = ADVANCED_FACE ( 'NONE', ( #145 ), #315, .F. ) ;
#121 = AXIS2_PLACEMENT_3D ( 'NONE', #328, #325, #316 ) ;
#122 = ORIENTED_EDGE ( 'NONE', *, *, #297, .F. ) ;
#123 = SECURITY_CLASSIFICATION ( '', '', #276 ) ;
#124 = CARTESIAN_POINT ( 'NONE',  ( 4.500000000000000888, 0.000000000000000000, 5.000000000000002665 ) ) ;
#125 = FACE_OUTER_BOUND ( 'NONE', #151, .T. ) ;
#126 = DIRECTION ( 'NONE',  ( 1.224646799147353207E-16, 1.000000000000000000, -0.000000000000000000 ) ) ;
#127 = EDGE_CURVE ( 'NONE', #232, #212, #115, .T. ) ;
#128 = CC_DESIGN_APPROVAL ( #368, ( #55 ) ) ;
#129 = DIRECTION ( 'NONE',  ( -0.000000000000000000, -0.000000000000000000, -1.000000000000000000 ) ) ;
#130 = DIRECTION ( 'NONE',  ( 1.000000000000000000, 0.000000000000000000, -0.000000000000000000 ) ) ;
#131 = PERSON_AND_ORGANIZATION_ROLE ( 'design_owner' ) ;
#132 = ORIENTED_EDGE ( 'NONE', *, *, #146, .F. ) ;
#133 = EDGE_CURVE ( 'NONE', #212, #236, #104, .T. ) ;
#134 = DIRECTION ( 'NONE',  ( 1.000000000000000000, 0.000000000000000000, 0.000000000000000000 ) ) ;
#135 = CALENDAR_DATE ( 2022, 8, 7 ) ;
#136 = CARTESIAN_POINT ( 'NONE',  ( 4.000000000000000000, 4.898587196589412829E-16, 405.0000000000000000 ) ) ;
#137 = CARTESIAN_POINT ( 'NONE',  ( 0.000000000000000000, 0.000000000000000000, 0.000000000000000000 ) ) ;
#138 = CALENDAR_DATE ( 2022, 8, 7 ) ;
#139 = CARTESIAN_POINT ( 'NONE',  ( 0.000000000000000000, 0.000000000000000000, 0.000000000000000000 ) ) ;
#140 = DIRECTION ( 'NONE',  ( 1.000000000000000000, 0.000000000000000000, 0.000000000000000000 ) ) ;
#141 = ADVANCED_FACE ( 'NONE', ( #62, #174 ), #1, .T. ) ;
#142 = AXIS2_PLACEMENT_3D ( 'NONE', #208, #379, #234 ) ;
#143 = PRODUCT_DEFINITION_SHAPE ( 'NONE', 'NONE',  #55 ) ;
#144 = CARTESIAN_POINT ( 'NONE',  ( -4.000000000000000000, 0.000000000000000000, 5.500000000000005329 ) ) ;
#145 = FACE_OUTER_BOUND ( 'NONE', #148, .T. ) ;
#146 = EDGE_CURVE ( 'NONE', #264, #333, #79, .T. ) ;
#147 = APPROVAL_DATE_TIME ( #87, #331 ) ;
#148 = EDGE_LOOP ( 'NONE', ( #5, #17, #239, #30 ) ) ;
#149 = VERTEX_POINT ( 'NONE', #136 ) ;
#150 = EDGE_CURVE ( 'NONE', #327, #35, #198, .T. ) ;
#151 = EDGE_LOOP ( 'NONE', ( #61, #243, #296, #132 ) ) ;
#152 = AXIS2_PLACEMENT_3D ( 'NONE', #106, #225, #346 ) ;
#153 = EDGE_LOOP ( 'NONE', ( #59, #292 ) ) ;
#154 = PLANE ( 'NONE',  #204 ) ;
#155 = EDGE_LOOP ( 'NONE', ( #83, #323, #291, #360 ) ) ;
#156 = CARTESIAN_POINT ( 'NONE',  ( -2.000000000000000000, 0.000000000000000000, 0.000000000000000000 ) ) ;
#157 = ADVANCED_FACE ( 'NONE', ( #381 ), #10, .F. ) ;
#158 = ORIENTED_EDGE ( 'NONE', *, *, #324, .T. ) ;
#159 = CARTESIAN_POINT ( 'NONE',  ( 0.000000000000000000, 0.000000000000000000, 405.0000000000000000 ) ) ;
#160 = PERSON_AND_ORGANIZATION_ROLE ( 'design_supplier' ) ;
#161 = CARTESIAN_POINT ( 'NONE',  ( -4.500000000000000888, 5.510910596163089556E-16, 5.500000000000005329 ) ) ;
#162 = DIRECTION ( 'NONE',  ( -0.000000000000000000, -0.000000000000000000, -1.000000000000000000 ) ) ;
#163 = COORDINATED_UNIVERSAL_TIME_OFFSET ( 1, 0, .AHEAD. ) ;
#164 = CARTESIAN_POINT ( 'NONE',  ( -4.000000000000000000, 0.000000000000000000, 405.0000000000000000 ) ) ;
#165 = VECTOR ( 'NONE', #190, 1000.000000000000000 ) ;
#166 = LOCAL_TIME ( 17, 30, 51.00000000000000000, #163 ) ;
#167 = DIRECTION ( 'NONE',  ( 1.000000000000000000, 0.000000000000000000, 0.000000000000000000 ) ) ;
#168 = VECTOR ( 'NONE', #54, 1000.000000000000000 ) ;
#169 = CC_DESIGN_APPROVAL ( #245, ( #53 ) ) ;
#170 = PERSON ( 'NEURÈENÝ', 'NEURÈENÝ', 'NEURÈENÝ', ('NEURÈENÝ'), ('NEURÈENÝ'), ('NEURÈENÝ') ) ;
#171 = DIRECTION ( 'NONE',  ( 0.000000000000000000, 0.000000000000000000, 1.000000000000000000 ) ) ;
#172 = VERTEX_POINT ( 'NONE', #156 ) ;
#173 = EDGE_LOOP ( 'NONE', ( #117, #362 ) ) ;
#174 = FACE_OUTER_BOUND ( 'NONE', #153, .T. ) ;
#175 = CIRCLE ( 'NONE', #235, 2.000000000000000000 ) ;
#176 = ORIENTED_EDGE ( 'NONE', *, *, #14, .F. ) ;
#177 = ADVANCED_FACE ( 'NONE', ( #369 ), #268, .F. ) ;
#178 = ORIENTED_EDGE ( 'NONE', *, *, #74, .F. ) ;
#179 = CYLINDRICAL_SURFACE ( 'NONE', #52, 7.000000000000000000 ) ;
#180 = CIRCLE ( 'NONE', #195, 4.000000000000000000 ) ;
#181 = ORIENTED_EDGE ( 'NONE', *, *, #80, .F. ) ;
#182 = CARTESIAN_POINT ( 'NONE',  ( 7.000000000000000000, 8.572527594031473190E-16, 0.000000000000000000 ) ) ;
#183 =( GEOMETRIC_REPRESENTATION_CONTEXT ( 3 ) GLOBAL_UNCERTAINTY_ASSIGNED_CONTEXT ( ( #86 ) ) GLOBAL_UNIT_ASSIGNED_CONTEXT ( ( #355, #25, #294 ) ) REPRESENTATION_CONTEXT ( 'NONE', 'WORKASPACE' ) );
#184 = ADVANCED_FACE ( 'NONE', ( #364 ), #179, .T. ) ;
#185 = DIRECTION ( 'NONE',  ( 0.000000000000000000, 0.000000000000000000, -1.000000000000000000 ) ) ;
#186 = CARTESIAN_POINT ( 'NONE',  ( -4.500000000000000888, 5.510910596163088569E-16, 5.000000000000002665 ) ) ;
#187 = CARTESIAN_POINT ( 'NONE',  ( 0.000000000000000000, 0.000000000000000000, 5.000000000000000000 ) ) ;
#188 = APPLICATION_PROTOCOL_DEFINITION ( 'international standard', 'config_control_design', 1994, #371 ) ;
#189 = ADVANCED_FACE ( 'NONE', ( #125 ), #217, .T. ) ;
#190 = DIRECTION ( 'NONE',  ( -0.000000000000000000, -0.000000000000000000, -1.000000000000000000 ) ) ;
#191 = PERSON_AND_ORGANIZATION_ROLE ( 'creator' ) ;
#192 = DIRECTION ( 'NONE',  ( -1.000000000000000000, 0.000000000000000000, 0.000000000000000000 ) ) ;
#193 = CARTESIAN_POINT ( 'NONE',  ( 0.000000000000000000, 0.000000000000000000, 5.000000000000000000 ) ) ;
#194 = APPROVAL_ROLE ( '' ) ;
#195 = AXIS2_PLACEMENT_3D ( 'NONE', #19, #71, #277 ) ;
#196 = DIRECTION ( 'NONE',  ( 1.000000000000000000, 0.000000000000000000, 0.000000000000000000 ) ) ;
#197 = DATE_AND_TIME ( #135, #363 ) ;
#198 = LINE ( 'NONE', #255, #168 ) ;
#199 = CARTESIAN_POINT ( 'NONE',  ( 2.000000000000000000, 2.449293598294706414E-16, 0.000000000000000000 ) ) ;
#200 = CARTESIAN_POINT ( 'NONE',  ( 0.000000000000000000, 0.000000000000000000, 405.0000000000000000 ) ) ;
#201 = ORIENTED_EDGE ( 'NONE', *, *, #74, .T. ) ;
#202 = AXIS2_PLACEMENT_3D ( 'NONE', #337, #344, #73 ) ;
#203 = CC_DESIGN_PERSON_AND_ORGANIZATION_ASSIGNMENT ( #76, #131, ( #111 ) ) ;
#204 = AXIS2_PLACEMENT_3D ( 'NONE', #13, #350, #130 ) ;
#205 = EDGE_LOOP ( 'NONE', ( #273, #176, #69, #246 ) ) ;
#206 = ORIENTED_EDGE ( 'NONE', *, *, #306, .F. ) ;
#207 = CIRCLE ( 'NONE', #321, 0.5000000000000004441 ) ;
#208 = CARTESIAN_POINT ( 'NONE',  ( 4.500000000000000888, 0.000000000000000000, 5.500000000000005329 ) ) ;
#209 = EDGE_LOOP ( 'NONE', ( #92, #260 ) ) ;
#210 = DIRECTION ( 'NONE',  ( -1.000000000000000000, 0.000000000000000000, 0.000000000000000000 ) ) ;
#211 = CIRCLE ( 'NONE', #93, 2.000000000000000000 ) ;
#212 = VERTEX_POINT ( 'NONE', #124 ) ;
#213 = DIRECTION ( 'NONE',  ( 0.000000000000000000, 0.000000000000000000, 1.000000000000000000 ) ) ;
#214 = ORIENTED_EDGE ( 'NONE', *, *, #267, .F. ) ;
#215 = CC_DESIGN_PERSON_AND_ORGANIZATION_ASSIGNMENT ( #46, #191, ( #53 ) ) ;
#216 = LINE ( 'NONE', #336, #290 ) ;
#217 = CYLINDRICAL_SURFACE ( 'NONE', #32, 4.000000000000000000 ) ;
#218 = PERSON_AND_ORGANIZATION ( #170, #310 ) ;
#219 = DIRECTION ( 'NONE',  ( 0.000000000000000000, 0.000000000000000000, 1.000000000000000000 ) ) ;
#220 = ADVANCED_FACE ( 'NONE', ( #293, #244 ), #154, .F. ) ;
#221 = CARTESIAN_POINT ( 'NONE',  ( 0.000000000000000000, 0.000000000000000000, 405.0000000000000000 ) ) ;
#222 = MECHANICAL_CONTEXT ( 'NONE', #340, 'mechanical' ) ;
#223 = LOCAL_TIME ( 17, 30, 51.00000000000000000, #318 ) ;
#224 = DIRECTION ( 'NONE',  ( 0.000000000000000000, 0.000000000000000000, 1.000000000000000000 ) ) ;
#225 = DIRECTION ( 'NONE',  ( 0.000000000000000000, 0.000000000000000000, 1.000000000000000000 ) ) ;
#226 = APPROVAL_ROLE ( '' ) ;
#227 = DIRECTION ( 'NONE',  ( 1.000000000000000000, 0.000000000000000000, 0.000000000000000000 ) ) ;
#228 = CARTESIAN_POINT ( 'NONE',  ( 0.000000000000000000, 0.000000000000000000, 5.500000000000005329 ) ) ;
#229 = APPROVAL_PERSON_ORGANIZATION ( #307, #368, #226 ) ;
#230 = CARTESIAN_POINT ( 'NONE',  ( 0.000000000000000000, 0.000000000000000000, 405.0000000000000000 ) ) ;
#231 = CARTESIAN_POINT ( 'NONE',  ( -7.000000000000000000, 0.000000000000000000, 5.000000000000000000 ) ) ;
#232 = VERTEX_POINT ( 'NONE', #251 ) ;
#233 = CARTESIAN_POINT ( 'NONE',  ( 7.000000000000000000, 8.572527594031473190E-16, 5.000000000000000000 ) ) ;
#234 = DIRECTION ( 'NONE',  ( 0.000000000000000000, 0.000000000000000000, -1.000000000000000000 ) ) ;
#235 = AXIS2_PLACEMENT_3D ( 'NONE', #107, #81, #196 ) ;
#236 = VERTEX_POINT ( 'NONE', #186 ) ;
#237 = DIRECTION ( 'NONE',  ( 0.000000000000000000, 0.000000000000000000, 1.000000000000000000 ) ) ;
#238 = CARTESIAN_POINT ( 'NONE',  ( 0.000000000000000000, 0.000000000000000000, 5.500000000000005329 ) ) ;
#239 = ORIENTED_EDGE ( 'NONE', *, *, #133, .F. ) ;
#240 = CC_DESIGN_PERSON_AND_ORGANIZATION_ASSIGNMENT ( #22, #252, ( #123 ) ) ;
#241 = CARTESIAN_POINT ( 'NONE',  ( 0.000000000000000000, 0.000000000000000000, 5.500000000000005329 ) ) ;
#242 = ORIENTED_EDGE ( 'NONE', *, *, #343, .T. ) ;
#243 = ORIENTED_EDGE ( 'NONE', *, *, #262, .T. ) ;
#244 = FACE_OUTER_BOUND ( 'NONE', #173, .T. ) ;
#245 = APPROVAL ( #377, 'NEURÈENÝ' ) ;
#246 = ORIENTED_EDGE ( 'NONE', *, *, #279, .F. ) ;
#247 = CIRCLE ( 'NONE', #301, 2.000000000000000000 ) ;
#248 = DIRECTION ( 'NONE',  ( -1.000000000000000000, 1.224646799147351482E-16, 0.000000000000000000 ) ) ;
#249 = EDGE_CURVE ( 'NONE', #47, #7, #247, .T. ) ;
#250 = APPROVAL_DATE_TIME ( #100, #245 ) ;
#251 = CARTESIAN_POINT ( 'NONE',  ( 4.000000000000000000, 4.898587196589412829E-16, 5.500000000000005329 ) ) ;
#252 = PERSON_AND_ORGANIZATION_ROLE ( 'classification_officer' ) ;
#253 = COORDINATED_UNIVERSAL_TIME_OFFSET ( 1, 0, .AHEAD. ) ;
#254 = EDGE_CURVE ( 'NONE', #35, #365, #282, .T. ) ;
#255 = CARTESIAN_POINT ( 'NONE',  ( 7.000000000000000000, 8.572527594031473190E-16, 5.000000000000000000 ) ) ;
#256 = APPROVAL_DATE_TIME ( #275, #368 ) ;
#257 = DIRECTION ( 'NONE',  ( 0.000000000000000000, 0.000000000000000000, 1.000000000000000000 ) ) ;
#258 = CARTESIAN_POINT ( 'NONE',  ( -2.000000000000000000, 0.000000000000000000, 405.0000000000000000 ) ) ;
#259 = DIRECTION ( 'NONE',  ( 0.000000000000000000, 0.000000000000000000, 1.000000000000000000 ) ) ;
#260 = ORIENTED_EDGE ( 'NONE', *, *, #279, .T. ) ;
#261 = CARTESIAN_POINT ( 'NONE',  ( 0.000000000000000000, 0.000000000000000000, 5.000000000000000000 ) ) ;
#262 = EDGE_CURVE ( 'NONE', #149, #232, #284, .T. ) ;
#263 = EDGE_LOOP ( 'NONE', ( #158, #95 ) ) ;
#264 = VERTEX_POINT ( 'NONE', #338 ) ;
#265 = DIRECTION ( 'NONE',  ( 1.000000000000000000, 0.000000000000000000, 0.000000000000000000 ) ) ;
#266 = ORIENTED_EDGE ( 'NONE', *, *, #267, .T. ) ;
#267 = EDGE_CURVE ( 'NONE', #7, #47, #211, .T. ) ;
#268 = CYLINDRICAL_SURFACE ( 'NONE', #357, 2.000000000000000000 ) ;
#269 = ORIENTED_EDGE ( 'NONE', *, *, #23, .T. ) ;
#270 = DIRECTION ( 'NONE',  ( -0.000000000000000000, -0.000000000000000000, -1.000000000000000000 ) ) ;
#271 = ORIENTED_EDGE ( 'NONE', *, *, #150, .T. ) ;
#272 = AXIS2_PLACEMENT_3D ( 'NONE', #139, #89, #134 ) ;
#273 = ORIENTED_EDGE ( 'NONE', *, *, #9, .F. ) ;
#274 = AXIS2_PLACEMENT_3D ( 'NONE', #238, #171, #227 ) ;
#275 = DATE_AND_TIME ( #138, #110 ) ;
#276 = SECURITY_CLASSIFICATION_LEVEL ( 'unclassified' ) ;
#277 = DIRECTION ( 'NONE',  ( 1.000000000000000000, 0.000000000000000000, 0.000000000000000000 ) ) ;
#278 = DIRECTION ( 'NONE',  ( 1.000000000000000000, 0.000000000000000000, 0.000000000000000000 ) ) ;
#279 = EDGE_CURVE ( 'NONE', #236, #212, #65, .T. ) ;
#280 = PERSON_AND_ORGANIZATION ( #170, #310 ) ;
#281 = DIRECTION ( 'NONE',  ( -0.000000000000000000, -0.000000000000000000, -1.000000000000000000 ) ) ;
#282 = CIRCLE ( 'NONE', #334, 7.000000000000000000 ) ;
#283 = CIRCLE ( 'NONE', #99, 4.000000000000000000 ) ;
#284 = LINE ( 'NONE', #21, #165 ) ;
#285 = ADVANCED_BREP_SHAPE_REPRESENTATION ( '8b75', ( #97, #18 ), #183 ) ;
#286 = APPROVAL_STATUS ( 'not_yet_approved' ) ;
#287 = SHAPE_DEFINITION_REPRESENTATION ( #143, #285 ) ;
#288 = DIRECTION ( 'NONE',  ( -0.000000000000000000, -0.000000000000000000, -1.000000000000000000 ) ) ;
#289 = APPROVAL_STATUS ( 'not_yet_approved' ) ;
#290 = VECTOR ( 'NONE', #45, 1000.000000000000000 ) ;
#291 = ORIENTED_EDGE ( 'NONE', *, *, #146, .T. ) ;
#292 = ORIENTED_EDGE ( 'NONE', *, *, #320, .T. ) ;
#293 = FACE_BOUND ( 'NONE', #8, .T. ) ;
#294 =( NAMED_UNIT ( * ) SI_UNIT ( $, .STERADIAN. ) SOLID_ANGLE_UNIT ( ) );
#295 = EDGE_LOOP ( 'NONE', ( #38, #34, #201, #64 ) ) ;
#296 = ORIENTED_EDGE ( 'NONE', *, *, #14, .T. ) ;
#297 = EDGE_CURVE ( 'NONE', #172, #329, #175, .T. ) ;
#298 = DIRECTION ( 'NONE',  ( -0.000000000000000000, -0.000000000000000000, -1.000000000000000000 ) ) ;
#299 = ORIENTED_EDGE ( 'NONE', *, *, #297, .T. ) ;
#300 = DIRECTION ( 'NONE',  ( 0.000000000000000000, 0.000000000000000000, 1.000000000000000000 ) ) ;
#301 = AXIS2_PLACEMENT_3D ( 'NONE', #375, #372, #309 ) ;
#302 = APPLICATION_PROTOCOL_DEFINITION ( 'international standard', 'config_control_design', 1994, #340 ) ;
#303 = CARTESIAN_POINT ( 'NONE',  ( 2.000000000000000000, 2.449293598294706414E-16, 405.0000000000000000 ) ) ;
#304 = CARTESIAN_POINT ( 'NONE',  ( 0.000000000000000000, 0.000000000000000000, 5.000000000000000000 ) ) ;
#305 = DIRECTION ( 'NONE',  ( 0.000000000000000000, 0.000000000000000000, 1.000000000000000000 ) ) ;
#306 = EDGE_CURVE ( 'NONE', #361, #365, #50, .T. ) ;
#307 = PERSON_AND_ORGANIZATION ( #170, #310 ) ;
#308 = CYLINDRICAL_SURFACE ( 'NONE', #60, 4.000000000000000000 ) ;
#309 = DIRECTION ( 'NONE',  ( 1.000000000000000000, 0.000000000000000000, 0.000000000000000000 ) ) ;
#310 = ORGANIZATION ( 'NEURÈENÝ', 'NEURÈENÝ', '' ) ;
#311 = PERSON_AND_ORGANIZATION_ROLE ( 'creator' ) ;
#312 = CARTESIAN_POINT ( 'NONE',  ( -2.000000000000000000, 0.000000000000000000, 405.0000000000000000 ) ) ;
#313 = CC_DESIGN_DATE_AND_TIME_ASSIGNMENT ( #197, #314, ( #123 ) ) ;
#314 = DATE_TIME_ROLE ( 'classification_date' ) ;
#315 = TOROIDAL_SURFACE ( 'NONE', #43, 4.500000000000000888, 0.5000000000000000000 ) ;
#316 = DIRECTION ( 'NONE',  ( 1.000000000000000000, 0.000000000000000000, 0.000000000000000000 ) ) ;
#317 = CC_DESIGN_APPROVAL ( #331, ( #123 ) ) ;
#318 = COORDINATED_UNIVERSAL_TIME_OFFSET ( 1, 0, .AHEAD. ) ;
#319 = DIRECTION ( 'NONE',  ( -1.000000000000000000, 0.000000000000000000, 0.000000000000000000 ) ) ;
#320 = EDGE_CURVE ( 'NONE', #149, #264, #283, .T. ) ;
#321 = AXIS2_PLACEMENT_3D ( 'NONE', #161, #126, #248 ) ;
#322 = LINE ( 'NONE', #258, #3 ) ;
#323 = ORIENTED_EDGE ( 'NONE', *, *, #27, .F. ) ;
#324 = EDGE_CURVE ( 'NONE', #361, #327, #358, .T. ) ;
#325 = DIRECTION ( 'NONE',  ( -0.000000000000000000, -0.000000000000000000, -1.000000000000000000 ) ) ;
#326 = CIRCLE ( 'NONE', #40, 7.000000000000000000 ) ;
#327 = VERTEX_POINT ( 'NONE', #233 ) ;
#328 = CARTESIAN_POINT ( 'NONE',  ( 0.000000000000000000, 0.000000000000000000, 5.000000000000000000 ) ) ;
#329 = VERTEX_POINT ( 'NONE', #199 ) ;
#330 = CC_DESIGN_SECURITY_CLASSIFICATION ( #123, ( #53 ) ) ;
#331 = APPROVAL ( #289, 'NEURÈENÝ' ) ;
#332 = EDGE_LOOP ( 'NONE', ( #119, #91, #88, #269 ) ) ;
#333 = VERTEX_POINT ( 'NONE', #144 ) ;
#334 = AXIS2_PLACEMENT_3D ( 'NONE', #137, #305, #102 ) ;
#335 = AXIS2_PLACEMENT_3D ( 'NONE', #359, #259, #140 ) ;
#336 = CARTESIAN_POINT ( 'NONE',  ( 2.000000000000000000, 2.449293598294706414E-16, 405.0000000000000000 ) ) ;
#337 = CARTESIAN_POINT ( 'NONE',  ( 0.000000000000000000, 0.000000000000000000, 0.000000000000000000 ) ) ;
#338 = CARTESIAN_POINT ( 'NONE',  ( -4.000000000000000000, 0.000000000000000000, 405.0000000000000000 ) ) ;
#339 = DIRECTION ( 'NONE',  ( 1.000000000000000000, 0.000000000000000000, 0.000000000000000000 ) ) ;
#340 = APPLICATION_CONTEXT ( 'configuration controlled 3d designs of mechanical parts and assemblies' ) ;
#341 = VECTOR ( 'NONE', #281, 1000.000000000000000 ) ;
#342 = AXIS2_PLACEMENT_3D ( 'NONE', #193, #162, #278 ) ;
#343 = EDGE_CURVE ( 'NONE', #47, #172, #322, .T. ) ;
#344 = DIRECTION ( 'NONE',  ( 0.000000000000000000, 0.000000000000000000, 1.000000000000000000 ) ) ;
#345 = COORDINATED_UNIVERSAL_TIME_OFFSET ( 1, 0, .AHEAD. ) ;
#346 = DIRECTION ( 'NONE',  ( 1.000000000000000000, 0.000000000000000000, -0.000000000000000000 ) ) ;
#347 = AXIS2_PLACEMENT_3D ( 'NONE', #187, #129, #192 ) ;
#348 = PERSON_AND_ORGANIZATION ( #170, #310 ) ;
#349 = DIRECTION ( 'NONE',  ( 0.000000000000000000, 0.000000000000000000, -1.000000000000000000 ) ) ;
#350 = DIRECTION ( 'NONE',  ( 0.000000000000000000, 0.000000000000000000, 1.000000000000000000 ) ) ;
#351 = AXIS2_PLACEMENT_3D ( 'NONE', #200, #349, #319 ) ;
#352 = DIRECTION ( 'NONE',  ( 1.000000000000000000, 0.000000000000000000, 0.000000000000000000 ) ) ;
#353 = VECTOR ( 'NONE', #288, 1000.000000000000000 ) ;
#354 = ORIENTED_EDGE ( 'NONE', *, *, #249, .F. ) ;
#355 =( LENGTH_UNIT ( ) NAMED_UNIT ( * ) SI_UNIT ( .MILLI., .METRE. ) );
#356 = EDGE_LOOP ( 'NONE', ( #354, #214 ) ) ;
#357 = AXIS2_PLACEMENT_3D ( 'NONE', #36, #185, #210 ) ;
#358 = CIRCLE ( 'NONE', #335, 7.000000000000000000 ) ;
#359 = CARTESIAN_POINT ( 'NONE',  ( 0.000000000000000000, 0.000000000000000000, 5.000000000000000000 ) ) ;
#360 = ORIENTED_EDGE ( 'NONE', *, *, #112, .T. ) ;
#361 = VERTEX_POINT ( 'NONE', #231 ) ;
#362 = ORIENTED_EDGE ( 'NONE', *, *, #254, .F. ) ;
#363 = LOCAL_TIME ( 17, 30, 51.00000000000000000, #345 ) ;
#364 = FACE_OUTER_BOUND ( 'NONE', #118, .T. ) ;
#365 = VERTEX_POINT ( 'NONE', #84 ) ;
#366 = AXIS2_PLACEMENT_3D ( 'NONE', #103, #96, #15 ) ;
#367 = FACE_OUTER_BOUND ( 'NONE', #332, .T. ) ;
#368 = APPROVAL ( #286, 'NEURÈENÝ' ) ;
#369 = FACE_OUTER_BOUND ( 'NONE', #68, .T. ) ;
#370 = CARTESIAN_POINT ( 'NONE',  ( 0.000000000000000000, 0.000000000000000000, 5.500000000000005329 ) ) ;
#371 = APPLICATION_CONTEXT ( 'configuration controlled 3d designs of mechanical parts and assemblies' ) ;
#372 = DIRECTION ( 'NONE',  ( 0.000000000000000000, 0.000000000000000000, 1.000000000000000000 ) ) ;
#373 = ORIENTED_EDGE ( 'NONE', *, *, #51, .F. ) ;
#374 = AXIS2_PLACEMENT_3D ( 'NONE', #370, #219, #339 ) ;
#375 = CARTESIAN_POINT ( 'NONE',  ( 0.000000000000000000, 0.000000000000000000, 405.0000000000000000 ) ) ;
#376 = CIRCLE ( 'NONE', #274, 4.000000000000000000 ) ;
#377 = APPROVAL_STATUS ( 'not_yet_approved' ) ;
#378 = FACE_OUTER_BOUND ( 'NONE', #263, .T. ) ;
#379 = DIRECTION ( 'NONE',  ( 0.000000000000000000, -1.000000000000000000, 0.000000000000000000 ) ) ;
#380 = CALENDAR_DATE ( 2022, 8, 7 ) ;
#381 = FACE_OUTER_BOUND ( 'NONE', #205, .T. ) ;
ENDSEC;
END-ISO-10303-21;
